Menu:

 

Search:

 

megadeth - the scorpion:

 



Title: The Scorpion
Artist: 
Album: The System Has Failed
Author: Dave Mustaine


Track 1: Dave Mustaine Rhythm

E|-0--7----------0--7----------0--7------|-0--6----------0--6----------0--6------|
B|-------8-------------8-------------8---|-------7-------------7-------------7---|
G|-----------9-------------9-------------|-----------9-------------9-------------|
D|---------------------------------------|---------------------------------------|
A|---------------------------------------|---------------------------------------|
E|---------------------------------------|---------------------------------------|


E|-0--7----------0--7----------0--7------|-0--6----------0--6----------0--6------|
B|-------8-------------8-------------8---|-------7-------------7-------------7---|
G|-----------9-------------9-------------|-----------9-------------9-------------|
D|---------------------------------------|---------------------------------------|
A|---------------------------------------|---------------------------------------|
E|---------------------------------------|---------------------------------------|


E|-0--7----------0--7----------0--7------|-0--6----------0--6----------0--6------|
B|-------8-------------8-------------8---|-------7-------------7-------------7---|
G|-----------9-------------9-------------|-----------9-------------9-------------|
D|---------------------------------------|---------------------------------------|
A|---------------------------------------|---------------------------------------|
E|---------------------------------------|---------------------------------------|


E|-0--7----------0--7----------0--7------|-0--6----------0--6----------0--6------|
B|-------8-------------8-------------8---|-------7-------------7-------------7---|
G|-----------9-------------9-------------|-----------9-------------9-------------|
D|---------------------------------------|---------------------------------------|
A|---------------------------------------|---------------------------------------|
E|---------------------------------------|---------------------------------------|


E|-0--7----------0--7----------0--7------|-0--6----------0--6----------0--6------|
B|-------8-------------8-------------8---|-------7-------------7-------------7---|
G|-----------9-------------9-------------|-----------9-------------9-------------|
D|---------------------------------------|---------------------------------------|
A|---------------------------------------|---------------------------------------|
E|---------------------------------------|---------------------------------------|


E|-0--7----------0--7----------0--7------|-0--6----------0--6----------0--6------|
B|-------8-------------8-------------8---|-------7-------------7-------------7---|
G|-----------9-------------9-------------|-----------9-------------9-------------|
D|---------------------------------------|---------------------------------------|
A|---------------------------------------|---------------------------------------|
E|---------------------------------------|---------------------------------------|


E|-0--7----------0--7----------0--7------|-0--6----------0--6----------0--6------|
B|-------8-------------8-------------8---|-------7-------------7-------------7---|
G|-----------9-------------9-------------|-----------9-------------9-------------|
D|---------------------------------------|---------------------------------------|
A|---------------------------------------|---------------------------------------|
E|---------------------------------------|---------------------------------------|


E|---------------------------------|----------------------------------|----------------------------------|
B|---------------------------------|----------------------------------|----------------------------------|
G|---------------------------------|----------------------------------|----------------------------------|
D|-----5-------2-------4-----------|----------------------------------|----------------------------------|
A|-3-------0-------2-------5---4---|-2----4--4----0--0---0--0--0--0---|-2----4--5----0--0---0--0--0--0---|
E|-------------------------3---2---|-0----2--2----0--0---0--0--0--0---|-0----2--3----0--0---0--0--0--0---|


E|----------------------------------|---------------------------|----------------------------------|
B|----------------------------------|---------------------------|----------------------------------|
G|----------------------------------|---------------------------|----------------------------------|
D|----------------------------------|-1------------4------------|----------------------------------|
A|-5----4--2----0--0---0--0--0--0---|-2----1--0----5----4--3----|-2----4--4----0--0---0--0--0--0---|
E|-3----2--0----0--0---0--0--0--0---|---------------------------|-0----2--2----0--0---0--0--0--0---|


E|----------------------------------|----------------------------------|---------------------------|
B|----------------------------------|----------------------------------|---------------------------|
G|----------------------------------|----------------------------------|---------------------------|
D|----------------------------------|----------------------------------|-1------------4------------|
A|-2----4--5----0--0---0--0--0--0---|-5----4--2----0--0---0--0--0--0---|-2----1--0----5----4--3----|
E|-0----2--3----0--0---0--0--0--0---|-3----2--0----0--0---0--0--0--0---|---------------------------|


E|----------------------------------|----------------------------------|----------------------------------|
B|----------------------------------|----------------------------------|----------------------------------|
G|----------------------------------|----------------------------------|----------------------------------|
D|----------------------------------|----------------------------------|----------------------------------|
A|-2----4--4----0--0---0--0--0--0---|-2----4--5----0--0---0--0--0--0---|-5----4--2----0--0---0--0--0--0---|
E|-0----2--2----0--0---0--0--0--0---|-0----2--3----0--0---0--0--0--0---|-3----2--0----0--0---0--0--0--0---|


E|---------------------------|----------------------------------|----------------------------------|
B|---------------------------|----------------------------------|----------------------------------|
G|---------------------------|----------------------------------|----------------------------------|
D|-1------------4------------|----------------------------------|----------------------------------|
A|-2----1--0----5----4--3----|-2----4--4----0--0---0--0--0--0---|-2----4--5----0--0---0--0--0--0---|
E|---------------------------|-0----2--2----0--0---0--0--0--0---|-0----2--3----0--0---0--0--0--0---|


E|----------------------------------|---------------------------|-------------------------------------------|
B|----------------------------------|---------------------------|-------------------------------------------|
G|----------------------------------|---------------------------|-------------------------------------------|
D|----------------------------------|-1------------4------------|-------------------------------------------|
A|-5----4--2----0--0---0--0--0--0---|-2----1--0----5----4--3----|-2---2--0--2--3--2--0--2---2--0--2--3---0--|
E|-3----2--0----0--0---0--0--0--0---|---------------------------|-------------------------------------------|


E|-------------------------------------------|-------------------------------------------|
B|-------------------------------------------|-------------------------------------------|
G|-------------------------------------------|-------------------------------------------|
D|-------------------------------------------|-------------------------------------------|
A|-2---2--0--2--3--2--0--2--3---0--2--3---0--|-2---2--0--2--3--2--0--2---2--0--2--3---0--|
E|-------------------------------------------|-------------------------------------------|


E|-------------------------------------------|-------------------------------------------|
B|-------------------------------------------|-------------------------------------------|
G|-------------------------------------------|-------------------------------------------|
D|-------------------------------------------|-------------------------------------------|
A|-2---2--0--2--3--2--0--2--3---0--2--3---0--|-2---2--0--2--3--2--0--2---2--0--2--3---0--|
E|-------------------------------------------|-------------------------------------------|


E|-------------------------------------------|-------------------------------------------|
B|-------------------------------------------|-------------------------------------------|
G|-------------------------------------------|-------------------------------------------|
D|-------------------------------------------|-------------------------------------------|
A|-2---2--0--2--3--2--0--2--3---0--2--3---0--|-2---2--0--2--3--2--0--2---2--0--2--3---0--|
E|-------------------------------------------|-------------------------------------------|


E|-----------------------------------------------------------|------0------------------------|
B|-----------------------------------------------------------|------0------------------------|
G|-----------------------4--2--0-----------------------------|-------------------------------|
D|--------------------------------4--2--0--------------------|---------------------7--9---9--|
A|-2---2--0--2--3--2--0--------------------3--2--0-----------|-2----2----0--0---0--5--7---7--|
E|--------------------------------------------------3--2--0--|-0----0----0--0---0------------|


E|------------------------------------------|------0------------------------|------------------------------------------|
B|------------------------------------------|------0------------------------|------------------------------------------|
G|------------------------------------------|-------------------------------|------------------------------------------|
D|-5----------------------------------------|---------------------7--9---9--|-5----------------------------------------|
A|-3----3--3--3--3--3--3--2--0--2--3--2--0--|-2----2----0--0---0--5--7---7--|-3----3--3--3--3--3--3--2--0--2--3--2--0--|
E|------------------------------------------|-0----0----0--0---0------------|------------------------------------------|


E|------0------------------------|------------------------------------------|------0------------------------|
B|------0------------------------|------------------------------------------|------0------------------------|
G|-------------------------------|------------------------------------------|-------------------------------|
D|---------------------7--9---9--|-5----------------------------------------|---------------------7--9---9--|
A|-2----2----0--0---0--5--7---7--|-3----3--3--3--3--3--3--2--0--2--3--2--0--|-2----2----0--0---0--5--7---7--|
E|-0----0----0--0---0------------|------------------------------------------|-0----0----0--0---0------------|


E|------------------------------------------|-0--7----------0--7----------0--7------|
B|------------------------------------------|-------8-------------8-------------8---|
G|------------------------------------------|-----------9-------------9-------------|
D|-5----------------------------------------|---------------------------------------|
A|-3----3--3--3--3--3--3--2--0--2--3--2--0--|---------------------------------------|
E|------------------------------------------|---------------------------------------|


E|-0--6----------0--6----------0--6------|-0--7----------0--7----------0--7------|
B|-------7-------------7-------------7---|-------8-------------8-------------8---|
G|-----------9-------------9-------------|-----------9-------------9-------------|
D|---------------------------------------|---------------------------------------|
A|---------------------------------------|---------------------------------------|
E|---------------------------------------|---------------------------------------|


E|-0--6----------0--6----------0--6------|-0--7----------0--7----------0--7------|
B|-------7-------------7-------------7---|-------8-------------8-------------8---|
G|-----------9-------------9-------------|-----------9-------------9-------------|
D|---------------------------------------|---------------------------------------|
A|---------------------------------------|---------------------------------------|
E|---------------------------------------|---------------------------------------|


E|-0--6----------0--6----------0--6------|-0--7----------0--7----------0--7------|
B|-------7-------------7-------------7---|-------8-------------8-------------8---|
G|-----------9-------------9-------------|-----------9-------------9-------------|
D|---------------------------------------|---------------------------------------|
A|---------------------------------------|---------------------------------------|
E|---------------------------------------|---------------------------------------|


E|-0--6----------0--6----------0--6------|-0--7----------0--7----------0--7------|
B|-------7-------------7-------------7---|-------8-------------8-------------8---|
G|-----------9-------------9-------------|-----------9-------------9-------------|
D|---------------------------------------|---------------------------------------|
A|---------------------------------------|---------------------------------------|
E|---------------------------------------|---------------------------------------|


E|-0--6----------0--6----------0--6------|-0--7----------0--7----------0--7------|
B|-------7-------------7-------------7---|-------8-------------8-------------8---|
G|-----------9-------------9-------------|-----------9-------------9-------------|
D|---------------------------------------|---------------------------------------|
A|---------------------------------------|---------------------------------------|
E|---------------------------------------|---------------------------------------|


E|-0--6----------0--6----------0--6------|-0--7----------0--7----------0--7------|
B|-------7-------------7-------------7---|-------8-------------8-------------8---|
G|-----------9-------------9-------------|-----------9-------------9-------------|
D|---------------------------------------|---------------------------------------|
A|---------------------------------------|---------------------------------------|
E|---------------------------------------|---------------------------------------|


E|-0--6----------0--6----------0--6------|---------------------------------|----------------------------------|
B|-------7-------------7-------------7---|---------------------------------|----------------------------------|
G|-----------9-------------9-------------|---------------------------------|----------------------------------|
D|---------------------------------------|-----5-------2-------4-----------|----------------------------------|
A|---------------------------------------|-3-------0-------2-------5---4---|-2----4--4----0--0---0--0--0--0---|
E|---------------------------------------|-------------------------3---2---|-0----2--2----0--0---0--0--0--0---|


E|----------------------------------|----------------------------------|---------------------------|
B|----------------------------------|----------------------------------|---------------------------|
G|----------------------------------|----------------------------------|---------------------------|
D|----------------------------------|----------------------------------|-1------------4------------|
A|-2----4--5----0--0---0--0--0--0---|-5----4--2----0--0---0--0--0--0---|-2----1--0----5----4--3----|
E|-0----2--3----0--0---0--0--0--0---|-3----2--0----0--0---0--0--0--0---|---------------------------|


E|----------------------------------|----------------------------------|----------------------------------|
B|----------------------------------|----------------------------------|----------------------------------|
G|----------------------------------|----------------------------------|----------------------------------|
D|----------------------------------|----------------------------------|----------------------------------|
A|-2----4--4----0--0---0--0--0--0---|-2----4--5----0--0---0--0--0--0---|-5----4--2----0--0---0--0--0--0---|
E|-0----2--2----0--0---0--0--0--0---|-0----2--3----0--0---0--0--0--0---|-3----2--0----0--0---0--0--0--0---|


E|---------------------------|----------------------------------|----------------------------------|
B|---------------------------|----------------------------------|----------------------------------|
G|---------------------------|----------------------------------|----------------------------------|
D|-1------------4------------|----------------------------------|----------------------------------|
A|-2----1--0----5----4--3----|-2----4--4----0--0---0--0--0--0---|-2----4--5----0--0---0--0--0--0---|
E|---------------------------|-0----2--2----0--0---0--0--0--0---|-0----2--3----0--0---0--0--0--0---|


E|----------------------------------|---------------------------|----------------------------------|
B|----------------------------------|---------------------------|----------------------------------|
G|----------------------------------|---------------------------|----------------------------------|
D|----------------------------------|-1------------4------------|----------------------------------|
A|-5----4--2----0--0---0--0--0--0---|-2----1--0----5----4--3----|-2----4--4----0--0---0--0--0--0---|
E|-3----2--0----0--0---0--0--0--0---|---------------------------|-0----2--2----0--0---0--0--0--0---|


E|----------------------------------|----------------------------------|---------------------------|
B|----------------------------------|----------------------------------|---------------------------|
G|----------------------------------|----------------------------------|---------------------------|
D|----------------------------------|----------------------------------|-1------------4------------|
A|-2----4--5----0--0---0--0--0--0---|-5----4--2----0--0---0--0--0--0---|-2----1--0----5----4--3----|
E|-0----2--3----0--0---0--0--0--0---|-3----2--0----0--0---0--0--0--0---|---------------------------|


E|-------------------------------------------|-------------------------------------------|
B|-------------------------------------------|-------------------------------------------|
G|-------------------------------------------|-------------------------------------------|
D|-------------------------------------------|-------------------------------------------|
A|-2---2--0--2--3--2--0--2---2--0--2--3---0--|-2---2--0--2--3--2--0--2--3---0--2--3---0--|
E|-------------------------------------------|-------------------------------------------|


E|-------------------------------------------|-------------------------------------------|
B|-------------------------------------------|-------------------------------------------|
G|-------------------------------------------|-------------------------------------------|
D|-------------------------------------------|-------------------------------------------|
A|-2---2--0--2--3--2--0--2---2--0--2--3---0--|-2---2--0--2--3--2--0--2--3---0--2--3---0--|
E|-------------------------------------------|-------------------------------------------|


E|-------------------------------------------|-------------------------------------------|
B|-------------------------------------------|-------------------------------------------|
G|-------------------------------------------|-------------------------------------------|
D|-------------------------------------------|-------------------------------------------|
A|-2---2--0--2--3--2--0--2---2--0--2--3---0--|-2---2--0--2--3--2--0--2--3---0--2--3---0--|
E|-------------------------------------------|-------------------------------------------|


E|-------------------------------------------|-----------------------------------------------------------|
B|-------------------------------------------|-----------------------------------------------------------|
G|-------------------------------------------|-----------------------4--2--0-----------------------------|
D|-------------------------------------------|--------------------------------4--2--0--------------------|
A|-2---2--0--2--3--2--0--2---2--0--2--3---0--|-2---2--0--2--3--2--0--------------------3--2--0-----------|
E|-------------------------------------------|--------------------------------------------------3--2--0--|


E|------0------------------------|------------------------------------------|------0------------------------|
B|------0------------------------|------------------------------------------|------0------------------------|
G|-------------------------------|------------------------------------------|-------------------------------|
D|---------------------7--9---9--|-5----------------------------------------|---------------------7--9---9--|
A|-2----2----0--0---0--5--7---7--|-3----3--3--3--3--3--3--2--0--2--3--2--0--|-2----2----0--0---0--5--7---7--|
E|-0----0----0--0---0------------|------------------------------------------|-0----0----0--0---0------------|


E|------------------------------------------|------0------------------------|------------------------------------------|
B|------------------------------------------|------0------------------------|------------------------------------------|
G|------------------------------------------|-------------------------------|------------------------------------------|
D|-5----------------------------------------|---------------------7--9---9--|-5----------------------------------------|
A|-3----3--3--3--3--3--3--2--0--2--3--2--0--|-2----2----0--0---0--5--7---7--|-3----3--3--3--3--3--3--2--0--2--3--2--0--|
E|------------------------------------------|-0----0----0--0---0------------|------------------------------------------|


E|------0------------------------|------------------------------------------|------2------------------------|
B|------0------------------------|------------------------------------------|------2------------------------|
G|-------------------------------|------------------------------------------|-------------------------------|
D|---------------------7--9---9--|-5----------------------------------------|---------------------9--11--11-|
A|-2----2----0--0---0--5--7---7--|-3----3--3--3--3--3--3--2--0--2--3--2--0--|-4----4----4--4---4--7--9---9--|
E|-0----0----0--0---0------------|------------------------------------------|-2----2----2--2---2------------|


E|--------------------------------|------2------------------------|--------------------------------|
B|--------------------------------|------2------------------------|--------------------------------|
G|--------------------------------|-------------------------------|--------------------------------|
D|--------------------4-----------|---------------------9--11--11-|--------------------4-----------|
A|-3-----3---0--2--3-----3--2--0--|-4----4----4--4---4--7--9---9--|-3-----3---0--2--3-----3--2--0--|
E|--------------------------------|-2----2----2--2---2------------|--------------------------------|


E|------2------------------------|--------------------------------|------2------------------------|
B|------2------------------------|--------------------------------|------2------------------------|
G|-------------------------------|--------------------------------|-------------------------------|
D|---------------------9--11--11-|--------------------4-----------|---------------------9--11--11-|
A|-4----4----4--4---4--7--9---9--|-3-----3---0--2--3-----3--2--0--|-4----4----4--4---4--7--9---9--|
E|-2----2----2--2---2------------|--------------------------------|-2----2----2--2---2------------|


E|----------------------------------------|------0------------------------|------------------------------------------|
B|----------------------------------------|------0------------------------|------------------------------------------|
G|----------------------------------------|-------------------------------|------------------------------------------|
D|----------------4-----------------------|---------------------7--9---9--|-5----------------------------------------|
A|-3-----0--2--3-----3--2--0--3--2--0-----|-2----2----0--0---0--5--7---7--|-3----3--3--3--3--3--3--2--0--2--3--2--0--|
E|-------------------------------------3--|-0----0----0--0---0------------|------------------------------------------|


E|------0------------------------|------------------------------------------|------0------------------------|
B|------0------------------------|------------------------------------------|------0------------------------|
G|-------------------------------|------------------------------------------|-------------------------------|
D|---------------------7--9---9--|-5----------------------------------------|---------------------7--9---9--|
A|-2----2----0--0---0--5--7---7--|-3----3--3--3--3--3--3--2--0--2--3--2--0--|-2----2----0--0---0--5--7---7--|
E|-0----0----0--0---0------------|------------------------------------------|-0----0----0--0---0------------|


E|------------------------------------------|------0------------------------|------------------------------------------|
B|------------------------------------------|------0------------------------|------------------------------------------|
G|------------------------------------------|-------------------------------|------------------------------------------|
D|-5----------------------------------------|---------------------7--9---9--|-5----------------------------------------|
A|-3----3--3--3--3--3--3--2--0--2--3--2--0--|-2----2----0--0---0--5--7---7--|-3----3--3--3--3--3--3--2--0--2--3--2--0--|
E|------------------------------------------|-0----0----0--0---0------------|------------------------------------------|


E|----------------------------------|----------------------------------|----------------------------------|
B|----------------------------------|----------------------------------|----------------------------------|
G|----------------------------------|----------------------------------|----------------------------------|
D|----------------------------------|----------------------------------|----------------------------------|
A|-2----4--4----0--0---0--0--0--0---|-2----4--5----0--0---0--0--0--0---|-5----4--2----0--0---0--0--0--0---|
E|-0----2--2----0--0---0--0--0--0---|-0----2--3----0--0---0--0--0--0---|-3----2--0----0--0---0--0--0--0---|


E|---------------------------|----------------------------------|----------------------------------|
B|---------------------------|----------------------------------|----------------------------------|
G|---------------------------|----------------------------------|----------------------------------|
D|-1------------4------------|----------------------------------|----------------------------------|
A|-2----1--0----5----4--3----|-2----4--4----0--0---0--0--0--0---|-2----4--5----0--0---0--0--0--0---|
E|---------------------------|-0----2--2----0--0---0--0--0--0---|-0----2--3----0--0---0--0--0--0---|


E|----------------------------------|---------------------------|----------------------------------|
B|----------------------------------|---------------------------|----------------------------------|
G|----------------------------------|---------------------------|----------------------------------|
D|----------------------------------|-1------------4------------|----------------------------------|
A|-5----4--2----0--0---0--0--0--0---|-2----1--0----5----4--3----|-2----4--4----0--0---0--0--0--0---|
E|-3----2--0----0--0---0--0--0--0---|---------------------------|-0----2--2----0--0---0--0--0--0---|


E|----------------------------------|----------------------------------|---------------------------|
B|----------------------------------|----------------------------------|---------------------------|
G|----------------------------------|----------------------------------|---------------------------|
D|----------------------------------|----------------------------------|-1------------4------------|
A|-2----4--5----0--0---0--0--0--0---|-5----4--2----0--0---0--0--0--0---|-2----1--0----5----4--3----|
E|-0----2--3----0--0---0--0--0--0---|-3----2--0----0--0---0--0--0--0---|---------------------------|


E|----------------------------------|----------------------------------|----------------------------------|
B|----------------------------------|----------------------------------|----------------------------------|
G|----------------------------------|----------------------------------|----------------------------------|
D|----------------------------------|----------------------------------|----------------------------------|
A|-2----4--4----0--0---0--0--0--0---|-2----4--5----0--0---0--0--0--0---|-5----4--2----0--0---0--0--0--0---|
E|-0----2--2----0--0---0--0--0--0---|-0----2--3----0--0---0--0--0--0---|-3----2--0----0--0---0--0--0--0---|


E|---------------------------|-0--7----------0--7----------0--7------|-0--6----------0--6----------0--6------|
B|---------------------------|-------8-------------8-------------8---|-------7-------------7-------------7---|
G|---------------------------|-----------9-------------9-------------|-----------9-------------9-------------|
D|-1------------4------------|---------------------------------------|---------------------------------------|
A|-2----1--0----5----4--3----|---------------------------------------|---------------------------------------|
E|---------------------------|---------------------------------------|---------------------------------------|


E|-0--7----------0--7----------0--7------|-0--6----------0--6----------0--6------|
B|-------8-------------8-------------8---|-------7-------------7-------------7---|
G|-----------9-------------9-------------|-----------9-------------9-------------|
D|---------------------------------------|---------------------------------------|
A|---------------------------------------|---------------------------------------|
E|---------------------------------------|---------------------------------------|


E|-0--7----------0--7----------0--7------|-0--6----------0--6----------0--6------|
B|-------8-------------8-------------8---|-------7-------------7-------------7---|
G|-----------9-------------9-------------|-----------9-------------9-------------|
D|---------------------------------------|---------------------------------------|
A|---------------------------------------|---------------------------------------|
E|---------------------------------------|---------------------------------------|


E|-0--7----------0--7----------0--7------|-0--6----------0--6----------0--6------|
B|-------8-------------8-------------8---|-------7-------------7-------------7---|
G|-----------9-------------9-------------|-----------9-------------9-------------|
D|---------------------------------------|---------------------------------------|
A|---------------------------------------|---------------------------------------|
E|---------------------------------------|---------------------------------------|


E|-0--7----------0--7----------0--7------|-0--6----------0--6----------0--6------|
B|-------8-------------8-------------8---|-------7-------------7-------------7---|
G|-----------9-------------9-------------|-----------9-------------9-------------|
D|---------------------------------------|---------------------------------------|
A|---------------------------------------|---------------------------------------|
E|---------------------------------------|---------------------------------------|


E|-0--7----------0--7----------0--7------|-0--6----------0--6----------0--6------|
B|-------8-------------8-------------8---|-------7-------------7-------------7---|
G|-----------9-------------9-------------|-----------9-------------9-------------|
D|---------------------------------------|---------------------------------------|
A|---------------------------------------|---------------------------------------|
E|---------------------------------------|---------------------------------------|


E|-0--7----------0--7----------0--7------|-0--6----------0--6----------0--6------|
B|-------8-------------8-------------8---|-------7-------------7-------------7---|
G|-----------9-------------9-------------|-----------9-------------9-------------|
D|---------------------------------------|---------------------------------------|
A|---------------------------------------|---------------------------------------|
E|---------------------------------------|---------------------------------------|


E|-0--7----------0--7----------0--7------|-0--6----------0--6----------0--6------|
B|-------8-------------8-------------8---|-------7-------------7-------------7---|
G|-----------9-------------9-------------|-----------9-------------9-------------|
D|---------------------------------------|---------------------------------------|
A|---------------------------------------|---------------------------------------|
E|---------------------------------------|---------------------------------------|





Track 2: Chris Poland

E|--------|--------|--------|-----------------------------|--------|--------------------|
B|--------|--------|--------|-----------------------------|--------|--------------------|
G|--------|--------|--------|-----------------------------|--------|--------------------|
D|--------|--------|--------|-----------------------------|--------|----------------9---|
A|--------|--------|--------|-------3--3------2--0--------|-2------|-4----4---------7---|
E|--------|--------|--------|-----------------------3--2--|-0------|-2----2-------------|


E|--------|--------|--------|--------|--------|--------|--------|--------|------------------------|
B|--------|--------|--------|--------|--------|--------|--------|--------|------------------------|
G|--------|--------|--------|--------|--------|--------|--------|--------|------------------------|
D|-9------|--------|--------|--------|--------|--------|--------|--------|-5----2----4------------|
A|-7------|-4------|--------|--------|--------|--------|--------|--------|-3----0----2----5---4---|
E|--------|-2------|--------|--------|--------|--------|--------|--------|----------------3---2---|


E|--------|--------|--------|--------|--------|--------|--------|--------|--------|
B|--------|--------|--------|--------|--------|--------|--------|--------|--------|
G|--------|--------|--------|--------|--------|--------|--------|--------|--------|
D|--------|--------|--------|--------|--------|--------|--------|--------|--------|
A|--------|--------|--------|--------|--------|--------|--------|--------|--------|
E|--------|--------|--------|--------|--------|--------|--------|--------|--------|


E|--------|--------|--------|--------|--------|--------|--------|--------|--------|
B|--------|--------|--------|--------|--------|--------|--------|--------|--------|
G|--------|--------|--------|--------|--------|--------|--------|--------|--------|
D|--------|--------|--------|--------|--------|--------|--------|--------|--------|
A|--------|--------|--------|--------|--------|--------|--------|--------|--------|
E|--------|--------|--------|--------|--------|--------|--------|--------|--------|


E|--------|--------|--------|--------|--------|--------|--------|--------|--------|
B|--------|--------|--------|--------|--------|--------|--------|--------|--------|
G|--------|--------|--------|--------|--------|--------|--------|--------|--------|
D|--------|--------|--------|--------|--------|--------|--------|--------|--------|
A|--------|--------|--------|--------|--------|--------|--------|--------|--------|
E|--------|--------|--------|--------|--------|--------|--------|--------|--------|


E|--------|--------|--------|--------|--------|--------|--------|--------|-----------------------------|
B|--------|--------|--------|--------|--------|--------|--------|--------|-----------------------------|
G|--------|--------|--------|--------|--------|--------|--------|--------|-----------------------------|
D|--------|--------|--------|--------|--------|--------|--------|--------|-----------------------------|
A|--------|--------|--------|--------|--------|-2------|-2------|-2------|-2-----3--3------2--0--------|
E|--------|--------|--------|--------|--------|-0------|-0------|-0------|-0---------------------3--2--|


E|--------|--------------------|--------|--------|--------|--------|--------|--------|
B|--------|--------------------|--------|--------|--------|--------|--------|--------|
G|--------|--------------------|--------|--------|--------|--------|--------|--------|
D|--------|----------------9---|-9------|--------|--------|--------|--------|--------|
A|-2------|-4----4---------7---|-7------|-4------|--------|--------|--------|--------|
E|-0------|-2----2-------------|--------|-2------|--------|--------|--------|--------|


E|--------|--------|------------------------|--------|--------|--------|--------|--------|
B|--------|--------|------------------------|--------|--------|--------|--------|--------|
G|--------|--------|------------------------|--------|--------|--------|--------|--------|
D|--------|--------|-5----2----4------------|--------|--------|--------|--------|--------|
A|--------|--------|-3----0----2----5---4---|--------|--------|--------|--------|--------|
E|--------|--------|----------------3---2---|--------|--------|--------|--------|--------|


E|--------|--------|--------|--------|--------|--------|--------|--------|--------|
B|--------|--------|--------|--------|--------|--------|--------|--------|--------|
G|--------|--------|--------|--------|--------|--------|--------|--------|--------|
D|--------|--------|--------|--------|--------|--------|--------|--------|--------|
A|--------|--------|--------|--------|--------|--------|--------|--------|--------|
E|--------|--------|--------|--------|--------|--------|--------|--------|--------|


E|--------|--------|--------|--------|--------|--------|--------|--------|--------|
B|--------|--------|--------|--------|--------|--------|--------|--------|--------|
G|--------|--------|--------|--------|--------|--------|--------|--------|--------|
D|--------|--------|--------|--------|--------|--------|--------|--------|--------|
A|--------|--------|--------|--------|--------|--------|--------|--------|--------|
E|--------|--------|--------|--------|--------|--------|--------|--------|--------|


E|--------|--------|--------|--------|--------|--------|--------|--------|--------|
B|--------|--------|--------|--------|--------|--------|--------|--------|--------|
G|--------|--------|--------|--------|--------|--------|--------|--------|--------|
D|--------|--------|--------|--------|--------|--------|--------|--------|--------|
A|--------|--------|--------|--------|--------|--------|--------|--------|--------|
E|--------|--------|--------|--------|--------|--------|--------|--------|--------|


E|--------|--------|--------|--------|--------|--------|--------|--------|--------|
B|--------|--------|--------|--------|--------|--------|--------|--------|--------|
G|--------|--------|--------|--------|--------|--------|--------|--------|--------|
D|--------|--------|--------|--------|--------|--------|--------|--------|--------|
A|--------|--------|--------|--------|--------|--------|--------|--------|--------|
E|--------|--------|--------|--------|--------|--------|--------|--------|--------|


E|--------|--------|--------|--------|--------|--------|--------|--------|--------|
B|--------|--------|--------|--------|--------|--------|--------|--------|--------|
G|--------|--------|--------|--------|--------|--------|--------|--------|--------|
D|--------|--------|--------|--------|--------|--------|--------|--------|--------|
A|--------|--------|--------|--------|--------|--------|--------|--------|--------|
E|--------|--------|--------|--------|--------|--------|--------|--------|--------|


E|--------|--------|--------|--------|--------|--------|--------|--------|--------|
B|--------|--------|--------|--------|--------|--------|--------|--------|--------|
G|--------|--------|--------|--------|--------|--------|--------|--------|--------|
D|--------|--------|--------|--------|--------|--------|--------|--------|--------|
A|--------|--------|--------|--------|--------|--------|--------|--------|--------|
E|--------|--------|--------|--------|--------|--------|--------|--------|--------|


E|--------|--------|--------|--------|--------|--------|--------|--------|-----------------------------|
B|--------|--------|--------|--------|--------|--------|--------|--------|-----------------------------|
G|--------|--------|--------|--------|--------|--------|--------|--------|-----------------------------|
D|--------|--------|--------|--------|--------|--------|--------|--------|-----------------------------|
A|--------|--------|--------|--------|--------|-2------|-2------|-2------|-2-----3--3------2--0--------|
E|--------|--------|--------|--------|--------|-0------|-0------|-0------|-0---------------------3--2--|


E|--------|--------------------|--------|--------|--------|--------|--------|--------|
B|--------|--------------------|--------|--------|--------|--------|--------|--------|
G|--------|--------------------|--------|--------|--------|--------|--------|--------|
D|--------|----------------9---|-9------|--------|--------|--------|--------|--------|
A|-2------|-4----4---------7---|-7------|-4------|--------|--------|--------|--------|
E|-0------|-2----2-------------|--------|-2------|--------|--------|--------|--------|


E|--------|--------|--------|--------|
B|--------|--------|--------|--------|
G|--------|--------|--------|--------|
D|--------|--------|--------|--------|
A|--------|--------|--------|--------|
E|--------|--------|--------|--------|





Track 3: Dave Mustaine Clean

E|--------|--------|--------|--------|--------|--------|--------|--------|---------------------------------|
B|--------|--------|--------|--------|--------|--------|--------|--------|---------------------------------|
G|--------|--------|--------|--------|--------|--------|--------|--------|---------------------------------|
D|--------|--------|--------|--------|--------|--------|--------|--------|-----------------5---2---5---2---|
A|--------|--------|--------|--------|--------|--------|--------|--------|-------------2-------------------|
E|--------|--------|--------|--------|--------|--------|--------|--------|-----0---3-----------------------|


E|---------------------------------|---------------------------------|---------------------------------|
B|---------------------------------|---------------------------------|---------------------------------|
G|---------------------------------|---------------------------------|---------------------------------|
D|-----------------4---2---4---2---|-----------------5---2---5---2---|-----------------4---2---4---2---|
A|-------------1-------------------|-------------2-------------------|-------------1-------------------|
E|-----0---2-----------------------|-----0---3-----------------------|-----0---2-----------------------|


E|---------------------------------|---------------------------------|--------|--------|
B|---------------------------------|---------------------------------|--------|--------|
G|---------------------------------|---------------------------------|--------|--------|
D|-----------------5---2---5---2---|-----------------4---2---4---2---|--------|--------|
A|-------------2-------------------|-------------1-------------------|--------|--------|
E|-----0---3-----------------------|-----0---2-----------------------|--------|--------|


E|--------|--------|--------|--------|--------|--------|--------|--------|--------|
B|--------|--------|--------|--------|--------|--------|--------|--------|--------|
G|--------|--------|--------|--------|--------|--------|--------|--------|--------|
D|--------|--------|--------|--------|--------|--------|--------|--------|--------|
A|--------|--------|--------|--------|--------|--------|--------|--------|--------|
E|--------|--------|--------|--------|--------|--------|--------|--------|--------|


E|--------|--------|--------|--------|--------|--------|--------|--------|--------|
B|--------|--------|--------|--------|--------|--------|--------|--------|--------|
G|--------|--------|--------|--------|--------|--------|--------|--------|--------|
D|--------|--------|--------|--------|--------|--------|--------|--------|--------|
A|--------|--------|--------|--------|--------|--------|--------|--------|--------|
E|--------|--------|--------|--------|--------|--------|--------|--------|--------|


E|--------|--------|--------|--------|--------|--------|--------|--------|--------|
B|--------|--------|--------|--------|--------|--------|--------|--------|--------|
G|--------|--------|--------|--------|--------|--------|--------|--------|--------|
D|--------|--------|--------|--------|--------|--------|--------|--------|--------|
A|--------|--------|--------|--------|--------|--------|--------|--------|--------|
E|--------|--------|--------|--------|--------|--------|--------|--------|--------|


E|--------|--------|--------|--------|--------|--------|--------|--------|--------|
B|--------|--------|--------|--------|--------|--------|--------|--------|--------|
G|--------|--------|--------|--------|--------|--------|--------|--------|--------|
D|--------|--------|--------|--------|--------|--------|--------|--------|--------|
A|--------|--------|--------|--------|--------|--------|--------|--------|--------|
E|--------|--------|--------|--------|--------|--------|--------|--------|--------|


E|--------|--------|--------|---------------------------------|---------------------------------|
B|--------|--------|--------|---------------------------------|---------------------------------|
G|--------|--------|--------|---------------------------------|---------------------------------|
D|--------|--------|--------|-----------------5---2---5---2---|-----------------4---2---4---2---|
A|--------|--------|--------|-------------2-------------------|-------------1-------------------|
E|--------|--------|--------|-----0---3-----------------------|-----0---2-----------------------|


E|---------------------------------|---------------------------------|---------------------------------|
B|---------------------------------|---------------------------------|---------------------------------|
G|---------------------------------|---------------------------------|---------------------------------|
D|-----------------5---2---5---2---|-----------------4---2---4---2---|-----------------5---2---5---2---|
A|-------------2-------------------|-------------1-------------------|-------------2-------------------|
E|-----0---3-----------------------|-----0---2-----------------------|-----0---3-----------------------|


E|---------------------------------|--------|--------|--------|--------|--------|--------|
B|---------------------------------|--------|--------|--------|--------|--------|--------|
G|---------------------------------|--------|--------|--------|--------|--------|--------|
D|-----------------4---2---4---2---|--------|--------|--------|--------|--------|--------|
A|-------------1-------------------|--------|--------|--------|--------|--------|--------|
E|-----0---2-----------------------|--------|--------|--------|--------|--------|--------|


E|--------|--------|--------|--------|--------|--------|--------|--------|--------|
B|--------|--------|--------|--------|--------|--------|--------|--------|--------|
G|--------|--------|--------|--------|--------|--------|--------|--------|--------|
D|--------|--------|--------|--------|--------|--------|--------|--------|--------|
A|--------|--------|--------|--------|--------|--------|--------|--------|--------|
E|--------|--------|--------|--------|--------|--------|--------|--------|--------|


E|--------|--------|--------|--------|--------|--------|--------|--------|--------|
B|--------|--------|--------|--------|--------|--------|--------|--------|--------|
G|--------|--------|--------|--------|--------|--------|--------|--------|--------|
D|--------|--------|--------|--------|--------|--------|--------|--------|--------|
A|--------|--------|--------|--------|--------|--------|--------|--------|--------|
E|--------|--------|--------|--------|--------|--------|--------|--------|--------|


E|--------|--------|--------|--------|--------|--------|--------|--------|--------|
B|--------|--------|--------|--------|--------|--------|--------|--------|--------|
G|--------|--------|--------|--------|--------|--------|--------|--------|--------|
D|--------|--------|--------|--------|--------|--------|--------|--------|--------|
A|--------|--------|--------|--------|--------|--------|--------|--------|--------|
E|--------|--------|--------|--------|--------|--------|--------|--------|--------|


E|--------|--------|--------|--------|--------|--------|--------|--------|--------|
B|--------|--------|--------|--------|--------|--------|--------|--------|--------|
G|--------|--------|--------|--------|--------|--------|--------|--------|--------|
D|--------|--------|--------|--------|--------|--------|--------|--------|--------|
A|--------|--------|--------|--------|--------|--------|--------|--------|--------|
E|--------|--------|--------|--------|--------|--------|--------|--------|--------|


E|--------|--------|--------|--------|--------|--------|--------|--------|--------|
B|--------|--------|--------|--------|--------|--------|--------|--------|--------|
G|--------|--------|--------|--------|--------|--------|--------|--------|--------|
D|--------|--------|--------|--------|--------|--------|--------|--------|--------|
A|--------|--------|--------|--------|--------|--------|--------|--------|--------|
E|--------|--------|--------|--------|--------|--------|--------|--------|--------|


E|--------|--------|--------|--------|--------|--------|--------|--------|--------|
B|--------|--------|--------|--------|--------|--------|--------|--------|--------|
G|--------|--------|--------|--------|--------|--------|--------|--------|--------|
D|--------|--------|--------|--------|--------|--------|--------|--------|--------|
A|--------|--------|--------|--------|--------|--------|--------|--------|--------|
E|--------|--------|--------|--------|--------|--------|--------|--------|--------|


E|--------|--------|--------|--------|--------|--------|--------|--------|--------|
B|--------|--------|--------|--------|--------|--------|--------|--------|--------|
G|--------|--------|--------|--------|--------|--------|--------|--------|--------|
D|--------|--------|--------|--------|--------|--------|--------|--------|--------|
A|--------|--------|--------|--------|--------|--------|--------|--------|--------|
E|--------|--------|--------|--------|--------|--------|--------|--------|--------|


E|--------|--------|--------|--------|---------------------------------|---------------------------------|
B|--------|--------|--------|--------|---------------------------------|---------------------------------|
G|--------|--------|--------|--------|---------------------------------|---------------------------------|
D|--------|--------|--------|--------|-----------------5---2---5---2---|-----------------4---2---4---2---|
A|--------|--------|--------|--------|-------------2-------------------|-------------1-------------------|
E|--------|--------|--------|--------|-----0---3-----------------------|-----0---2-----------------------|


E|---------------------------------|---------------------------------|---------------------------------|
B|---------------------------------|---------------------------------|---------------------------------|
G|---------------------------------|---------------------------------|---------------------------------|
D|-----------------5---2---5---2---|-----------------4---2---4---2---|-----------------5---2---5---2---|
A|-------------2-------------------|-------------1-------------------|-------------2-------------------|
E|-----0---3-----------------------|-----0---2-----------------------|-----0---3-----------------------|


E|---------------------------------|---------------------------------|---------------------------------|
B|---------------------------------|---------------------------------|---------------------------------|
G|---------------------------------|---------------------------------|---------------------------------|
D|-----------------4---2---4---2---|-----------------5---2---5---2---|-----------------4---2---4---2---|
A|-------------1-------------------|-------------2-------------------|-------------1-------------------|
E|-----0---2-----------------------|-----0---3-----------------------|-----0---2-----------------------|





Track 4: Synth

E|--------|--------|--------|--------|--------|--------|--------|--------|---------------------------------|
B|--------|--------|--------|--------|--------|--------|--------|--------|-----------------8---5---8---5---|
G|--------|--------|--------|--------|--------|--------|--------|--------|-------------4-------------------|
D|--------|--------|--------|--------|--------|--------|--------|--------|-----2---5-----------------------|
A|--------|--------|--------|--------|--------|--------|--------|--------|---------------------------------|
E|--------|--------|--------|--------|--------|--------|--------|--------|---------------------------------|


E|---------------------------------|---------------------------------|---------------------------------|
B|-----------------7---5---7---5---|-----------------8---5---8---5---|-----------------7---5---7---5---|
G|-------------3-------------------|-------------4-------------------|-------------3-------------------|
D|-----2---4-----------------------|-----2---5-----------------------|-----2---4-----------------------|
A|---------------------------------|---------------------------------|---------------------------------|
E|---------------------------------|---------------------------------|---------------------------------|


E|---------------------------------|---------------------------------|--------|--------|
B|-----------------8---5---8---5---|-----------------7---5---7---5---|--------|--------|
G|-------------4-------------------|-------------3-------------------|--------|--------|
D|-----2---5-----------------------|-----2---4-----------------------|--------|--------|
A|---------------------------------|---------------------------------|--------|--------|
E|---------------------------------|---------------------------------|--------|--------|


E|--------|--------|--------|--------|--------|--------|--------|--------|--------|
B|--------|--------|--------|--------|--------|--------|--------|--------|--------|
G|--------|--------|--------|--------|--------|--------|--------|--------|--------|
D|--------|--------|--------|--------|--------|--------|--------|--------|--------|
A|--------|--------|--------|--------|--------|--------|--------|--------|--------|
E|--------|--------|--------|--------|--------|--------|--------|--------|--------|


E|--------|--------|--------|--------|--------|--------|--------|--------|--------|
B|--------|--------|--------|--------|--------|--------|--------|--------|--------|
G|--------|--------|--------|--------|--------|--------|--------|--------|--------|
D|--------|--------|--------|--------|--------|--------|--------|--------|--------|
A|--------|--------|--------|--------|--------|--------|--------|--------|--------|
E|--------|--------|--------|--------|--------|--------|--------|--------|--------|


E|--------|--------|--------|--------|--------|--------|--------|--------|--------|
B|--------|--------|--------|--------|--------|--------|--------|--------|--------|
G|--------|--------|--------|--------|--------|--------|--------|--------|--------|
D|--------|--------|--------|--------|--------|--------|--------|--------|--------|
A|--------|--------|--------|--------|--------|--------|--------|--------|--------|
E|--------|--------|--------|--------|--------|--------|--------|--------|--------|


E|--------|--------|--------|--------|--------|--------|--------|--------|--------|
B|--------|--------|--------|--------|--------|--------|--------|--------|--------|
G|--------|--------|--------|--------|--------|--------|--------|--------|--------|
D|--------|--------|--------|--------|--------|--------|--------|--------|--------|
A|--------|--------|--------|--------|--------|--------|--------|--------|--------|
E|--------|--------|--------|--------|--------|--------|--------|--------|--------|


E|--------|--------|--------|---------------------------------|---------------------------------|
B|--------|--------|--------|-----------------8---5---8---5---|-----------------7---5---7---5---|
G|--------|--------|--------|-------------4-------------------|-------------3-------------------|
D|--------|--------|--------|-----2---5-----------------------|-----2---4-----------------------|
A|--------|--------|--------|---------------------------------|---------------------------------|
E|--------|--------|--------|---------------------------------|---------------------------------|


E|---------------------------------|---------------------------------|---------------------------------|
B|-----------------8---5---8---5---|-----------------7---5---7---5---|-----------------8---5---8---5---|
G|-------------4-------------------|-------------3-------------------|-------------4-------------------|
D|-----2---5-----------------------|-----2---4-----------------------|-----2---5-----------------------|
A|---------------------------------|---------------------------------|---------------------------------|
E|---------------------------------|---------------------------------|---------------------------------|


E|---------------------------------|--------|--------|--------|--------|--------|--------|
B|-----------------7---5---7---5---|--------|--------|--------|--------|--------|--------|
G|-------------3-------------------|--------|--------|--------|--------|--------|--------|
D|-----2---4-----------------------|--------|--------|--------|--------|--------|--------|
A|---------------------------------|--------|--------|--------|--------|--------|--------|
E|---------------------------------|--------|--------|--------|--------|--------|--------|


E|--------|--------|--------|--------|--------|--------|--------|--------|--------|
B|--------|--------|--------|--------|--------|--------|--------|--------|--------|
G|--------|--------|--------|--------|--------|--------|--------|--------|--------|
D|--------|--------|--------|--------|--------|--------|--------|--------|--------|
A|--------|--------|--------|--------|--------|--------|--------|--------|--------|
E|--------|--------|--------|--------|--------|--------|--------|--------|--------|


E|--------|--------|--------|--------|--------|--------|--------|--------|--------|
B|--------|--------|--------|--------|--------|--------|--------|--------|--------|
G|--------|--------|--------|--------|--------|--------|--------|--------|--------|
D|--------|--------|--------|--------|--------|--------|--------|--------|--------|
A|--------|--------|--------|--------|--------|--------|--------|--------|--------|
E|--------|--------|--------|--------|--------|--------|--------|--------|--------|


E|--------|--------|--------|--------|--------|--------|--------|--------|--------|
B|--------|--------|--------|--------|--------|--------|--------|--------|--------|
G|--------|--------|--------|--------|--------|--------|--------|--------|--------|
D|--------|--------|--------|--------|--------|--------|--------|--------|--------|
A|--------|--------|--------|--------|--------|--------|--------|--------|--------|
E|--------|--------|--------|--------|--------|--------|--------|--------|--------|


E|--------|--------|--------|--------|--------|--------|--------|--------|--------|
B|--------|--------|--------|--------|--------|--------|--------|--------|--------|
G|--------|--------|--------|--------|--------|--------|--------|--------|--------|
D|--------|--------|--------|--------|--------|--------|--------|--------|--------|
A|--------|--------|--------|--------|--------|--------|--------|--------|--------|
E|--------|--------|--------|--------|--------|--------|--------|--------|--------|


E|--------|--------|--------|--------|--------|--------|--------|--------|--------|
B|--------|--------|--------|--------|--------|--------|--------|--------|--------|
G|--------|--------|--------|--------|--------|--------|--------|--------|--------|
D|--------|--------|--------|--------|--------|--------|--------|--------|--------|
A|--------|--------|--------|--------|--------|--------|--------|--------|--------|
E|--------|--------|--------|--------|--------|--------|--------|--------|--------|


E|--------|--------|--------|--------|--------|--------|--------|--------|--------|
B|--------|--------|--------|--------|--------|--------|--------|--------|--------|
G|--------|--------|--------|--------|--------|--------|--------|--------|--------|
D|--------|--------|--------|--------|--------|--------|--------|--------|--------|
A|--------|--------|--------|--------|--------|--------|--------|--------|--------|
E|--------|--------|--------|--------|--------|--------|--------|--------|--------|


E|--------|--------|--------|--------|--------|--------|--------|--------|--------|
B|--------|--------|--------|--------|--------|--------|--------|--------|--------|
G|--------|--------|--------|--------|--------|--------|--------|--------|--------|
D|--------|--------|--------|--------|--------|--------|--------|--------|--------|
A|--------|--------|--------|--------|--------|--------|--------|--------|--------|
E|--------|--------|--------|--------|--------|--------|--------|--------|--------|


E|--------|--------|--------|--------|---------------------------------|---------------------------------|
B|--------|--------|--------|--------|-----------------8---5---8---5---|-----------------7---5---7---5---|
G|--------|--------|--------|--------|-------------4-------------------|-------------3-------------------|
D|--------|--------|--------|--------|-----2---5-----------------------|-----2---4-----------------------|
A|--------|--------|--------|--------|---------------------------------|---------------------------------|
E|--------|--------|--------|--------|---------------------------------|---------------------------------|


E|---------------------------------|---------------------------------|---------------------------------|
B|-----------------8---5---8---5---|-----------------7---5---7---5---|-----------------8---5---8---5---|
G|-------------4-------------------|-------------3-------------------|-------------4-------------------|
D|-----2---5-----------------------|-----2---4-----------------------|-----2---5-----------------------|
A|---------------------------------|---------------------------------|---------------------------------|
E|---------------------------------|---------------------------------|---------------------------------|


E|---------------------------------|---------------------------------|---------------------------------|
B|-----------------7---5---7---5---|-----------------8---5---8---5---|-----------------7---5---7---5---|
G|-------------3-------------------|-------------4-------------------|-------------3-------------------|
D|-----2---4-----------------------|-----2---5-----------------------|-----2---4-----------------------|
A|---------------------------------|---------------------------------|---------------------------------|
E|---------------------------------|---------------------------------|---------------------------------|





Track 5: Dave Mustaine Rhythm

E|--------|--------|--------|--------|--------|--------|--------|--------|--------|
B|--------|--------|--------|--------|--------|--------|--------|--------|--------|
G|--------|--------|--------|--------|--------|--------|--------|--------|--------|
D|--------|--------|--------|--------|--------|--------|--------|--------|--------|
A|--------|--------|--------|--------|--------|--------|--------|--------|--------|
E|--------|--------|--------|--------|--------|--------|--------|--------|--------|


E|--------|--------|--------|--------|--------|--------|--------|--------|--------|
B|--------|--------|--------|--------|--------|--------|--------|--------|--------|
G|--------|--------|--------|--------|--------|--------|--------|--------|--------|
D|--------|--------|--------|--------|--------|--------|--------|--------|--------|
A|--------|--------|--------|--------|--------|--------|--------|--------|--------|
E|--------|--------|--------|--------|--------|--------|--------|--------|--------|


E|--------|--------|--------|--------|--------|--------|--------|--------|--------|
B|--------|--------|--------|--------|--------|--------|--------|--------|--------|
G|--------|--------|--------|--------|--------|--------|--------|--------|--------|
D|--------|--------|--------|--------|--------|--------|--------|--------|--------|
A|--------|--------|--------|--------|--------|--------|--------|--------|--------|
E|--------|--------|--------|--------|--------|--------|--------|--------|--------|


E|--------|--------|--------|--------|--------|--------|--------|--------|--------|
B|--------|--------|--------|--------|--------|--------|--------|--------|--------|
G|--------|--------|--------|--------|--------|--------|--------|--------|--------|
D|--------|--------|--------|--------|--------|--------|--------|--------|--------|
A|--------|--------|--------|--------|--------|--------|--------|--------|--------|
E|--------|--------|--------|--------|--------|--------|--------|--------|--------|


E|--------|--------|--------|--------|--------|--------|--------|--------|--------|
B|--------|--------|--------|--------|--------|--------|--------|--------|--------|
G|--------|--------|--------|--------|--------|--------|--------|--------|--------|
D|--------|--------|--------|--------|--------|--------|--------|--------|--------|
A|--------|--------|--------|--------|--------|--------|--------|--------|--------|
E|--------|--------|--------|--------|--------|--------|--------|--------|--------|


E|--------|--------|--------|--------|--------|--------|--------|--------|--------|
B|--------|--------|--------|--------|--------|--------|--------|--------|--------|
G|--------|--------|--------|--------|--------|--------|--------|--------|--------|
D|--------|--------|--------|--------|--------|--------|--------|--------|--------|
A|--------|--------|--------|--------|--------|--------|--------|--------|--------|
E|--------|--------|--------|--------|--------|--------|--------|--------|--------|


E|--------|--------|--------|--------|--------|--------|--------|--------|--------|
B|--------|--------|--------|--------|--------|--------|--------|--------|--------|
G|--------|--------|--------|--------|--------|--------|--------|--------|--------|
D|--------|--------|--------|--------|--------|--------|--------|--------|--------|
A|--------|--------|--------|--------|--------|--------|--------|--------|--------|
E|--------|--------|--------|--------|--------|--------|--------|--------|--------|


E|--------|--------|--------|--------|--------|--------|--------|--------|--------|
B|--------|--------|--------|--------|--------|--------|--------|--------|--------|
G|--------|--------|--------|--------|--------|--------|--------|--------|--------|
D|--------|--------|--------|--------|--------|--------|--------|--------|--------|
A|--------|--------|--------|--------|--------|--------|--------|--------|--------|
E|--------|--------|--------|--------|--------|--------|--------|--------|--------|


E|--------|--------|--------|--------|--------|--------|--------|--------|--------|
B|--------|--------|--------|--------|--------|--------|--------|--------|--------|
G|--------|--------|--------|--------|--------|--------|--------|--------|--------|
D|--------|--------|--------|--------|--------|--------|--------|--------|--------|
A|--------|--------|--------|--------|--------|--------|--------|--------|--------|
E|--------|--------|--------|--------|--------|--------|--------|--------|--------|


E|--------|--------|--------|--------|--------|--------|--------|--------|--------|
B|--------|--------|--------|--------|--------|--------|--------|--------|--------|
G|--------|--------|--------|--------|--------|--------|--------|--------|--------|
D|--------|--------|--------|--------|--------|--------|--------|--------|--------|
A|--------|--------|--------|--------|--------|--------|--------|--------|--------|
E|--------|--------|--------|--------|--------|--------|--------|--------|--------|


E|--------|--------|--------|--------|--------|--------|--------|--------|--------|
B|--------|--------|--------|--------|--------|--------|--------|--------|--------|
G|--------|--------|--------|--------|--------|--------|--------|--------|--------|
D|--------|--------|--------|--------|--------|--------|--------|--------|--------|
A|--------|--------|--------|--------|--------|--------|--------|--------|--------|
E|--------|--------|--------|--------|--------|--------|--------|--------|--------|


E|--------|--------|--------|--------|--------|--------|--------|--------|--------|
B|--------|--------|--------|--------|--------|--------|--------|--------|--------|
G|--------|--------|--------|--------|--------|--------|--------|--------|--------|
D|--------|--------|--------|--------|--------|--------|--------|--------|--------|
A|--------|--------|--------|--------|--------|--------|--------|--------|--------|
E|--------|--------|--------|--------|--------|--------|--------|--------|--------|


E|--------|--------|--------|--------|--------|--------|--------|--------|--------|
B|--------|--------|--------|--------|--------|--------|--------|--------|--------|
G|--------|--------|--------|--------|--------|--------|--------|--------|--------|
D|--------|--------|--------|--------|--------|--------|--------|--------|--------|
A|--------|--------|--------|--------|--------|--------|--------|--------|--------|
E|--------|--------|--------|--------|--------|--------|--------|--------|--------|


E|--------|--------|--------|--------|--------|--------|--------|--------|--------|
B|--------|--------|--------|--------|--------|--------|--------|--------|--------|
G|--------|--------|--------|--------|--------|--------|--------|--------|--------|
D|--------|--------|--------|--------|--------|--------|--------|--------|--------|
A|--------|--------|--------|--------|--------|--------|--------|--------|--------|
E|--------|--------|--------|--------|--------|--------|--------|--------|--------|


E|--------|--------|--------|--------|--------|--------|--------|--------|--------|
B|--------|--------|--------|--------|--------|--------|--------|--------|--------|
G|--------|--------|--------|--------|--------|--------|--------|--------|--------|
D|--------|--------|--------|--------|--------|--------|--------|--------|--------|
A|--------|--------|--------|--------|--------|--------|--------|--------|--------|
E|--------|--------|--------|--------|--------|--------|--------|--------|--------|


E|--------|--------|--------|--------|--------|--------|--------|
B|--------|--------|--------|--------|--------|--------|--------|
G|--------|--------|--------|--------|--------|--------|--------|
D|--------|--------|--------|--------|--------|--------|--------|
A|--------|--------|--------|--------|--------|--------|--------|
E|--------|--------|--------|--------|--------|--------|--------|





Track 6: Dave Mustaine Solo

E|--------|--------|--------|--------|--------|--------|--------|--------|--------|
B|--------|--------|--------|--------|--------|--------|--------|--------|--------|
G|--------|--------|--------|--------|--------|--------|--------|--------|--------|
D|--------|--------|--------|--------|--------|--------|--------|--------|--------|
A|--------|--------|--------|--------|--------|--------|--------|--------|--------|
E|--------|--------|--------|--------|--------|--------|--------|--------|--------|


E|--------|--------|--------|--------|--------|--------|--------|--------|--------|
B|--------|--------|--------|--------|--------|--------|--------|--------|--------|
G|--------|--------|--------|--------|--------|--------|--------|--------|--------|
D|--------|--------|--------|--------|--------|--------|--------|--------|--------|
A|--------|--------|--------|--------|--------|--------|--------|--------|--------|
E|--------|--------|--------|--------|--------|--------|--------|--------|--------|


E|--------|--------|--------|--------|--------|--------|--------|--------|--------|
B|--------|--------|--------|--------|--------|--------|--------|--------|--------|
G|--------|--------|--------|--------|--------|--------|--------|--------|--------|
D|--------|--------|--------|--------|--------|--------|--------|--------|--------|
A|--------|--------|--------|--------|--------|--------|--------|--------|--------|
E|--------|--------|--------|--------|--------|--------|--------|--------|--------|


E|--------|--------|--------|--------|------------------------|-----------------|-------------------------------------------------------------------------|
B|--------|--------|--------|--------|------------------------|-----------------|-------------------------------------------------------------------------|
G|--------|--------|--------|--------|---------------7----7---|-----------------|-------------------------------------------------------------------------|
D|--------|--------|--------|--------|------------------------|-7-----------7---|-10-9--7--10-9--7--------------------------------------------------------|
A|--------|--------|--------|--------|-----------9------------|-----------------|-------------------10-9--7--10-9--7--9--7--6--9--7--6--------------------|
E|--------|--------|--------|--------|-7----7-----------------|-----------------|-------------------------------------------------------8--7--5--8--7--5--|


E|-------------|-----------------------|---------------------------------------------|
B|-------------|-----------------------|-------------------------------16------19----|
G|-------------|-----------------------|-8------11-----14------16----------14-----16-|
D|-------------|------9----------------|-----7------9------13------16----------------|
A|-------------|-----------9-----------|---------------------------------------------|
E|-7-----7-----|-7------------8-----8--|---------------------------------------------|


E|-------------------------------------------------------------------------|-------------|
B|-7--10-7--7--10-7--------------------------------------------------------|-------------|
G|-------------------8--11-8--8--11-8--------------------------------------|-------------|
D|-------------------------------------9--12-9--9--12-9--------------------|-------------|
A|-------------------------------------------------------9--12-9--9--12-9--|-------------|
E|-------------------------------------------------------------------------|-7-----------|


E|--------|--------|--------|--------|--------|--------|--------|--------|--------|
B|--------|--------|--------|--------|--------|--------|--------|--------|--------|
G|--------|--------|--------|--------|--------|--------|--------|--------|--------|
D|--------|--------|--------|--------|--------|--------|--------|--------|--------|
A|--------|--------|--------|--------|--------|--------|--------|--------|--------|
E|--------|--------|--------|--------|--------|--------|--------|--------|--------|


E|--------|--------|--------|--------|--------|--------|--------|--------|--------|
B|--------|--------|--------|--------|--------|--------|--------|--------|--------|
G|--------|--------|--------|--------|--------|--------|--------|--------|--------|
D|--------|--------|--------|--------|--------|--------|--------|--------|--------|
A|--------|--------|--------|--------|--------|--------|--------|--------|--------|
E|--------|--------|--------|--------|--------|--------|--------|--------|--------|


E|--------|--------|--------|--------|--------|--------|--------|--------|--------|
B|--------|--------|--------|--------|--------|--------|--------|--------|--------|
G|--------|--------|--------|--------|--------|--------|--------|--------|--------|
D|--------|--------|--------|--------|--------|--------|--------|--------|--------|
A|--------|--------|--------|--------|--------|--------|--------|--------|--------|
E|--------|--------|--------|--------|--------|--------|--------|--------|--------|


E|--------|--------|--------|--------|--------|--------|--------|--------|--------|
B|--------|--------|--------|--------|--------|--------|--------|--------|--------|
G|--------|--------|--------|--------|--------|--------|--------|--------|--------|
D|--------|--------|--------|--------|--------|--------|--------|--------|--------|
A|--------|--------|--------|--------|--------|--------|--------|--------|--------|
E|--------|--------|--------|--------|--------|--------|--------|--------|--------|


E|--------|--------|--------|-----------------------------------------------|----------------|
B|--------|--------|--------|-----------------------------------------------|----------------|
G|--------|--------|--------|-----------------------------------------------|-7----7---------|
D|--------|--------|--------|-----------------------------------------7--8--|---------9------|
A|--------|--------|--------|--------------------------7--10-7--9--10-------|----------------|
E|--------|--------|--------|-7----7----7--10-7--9--10----------------------|----------------|


E|-------------------------------------------------------------------------|-------------|
B|-------------------------------------------------------------------------|-------------|
G|-------------------------------------------------------------------------|-------------|
D|-9--10-7--9--------------------------7--9-----7--------------------------|-------------|
A|-------------10-7--9--10-7--9--------------10----7--9-----7--9--7--9-----|-------------|
E|-------------------------------10-7--------------------10-------------10-|-7-----7-----|


E|--------------------------------------------12-|------------------|-11-8------------11-8------------14-11-----------14-11-----------|
B|-----------------------------12----------13----|-15--15-12--------|-------10----10--------10-10-10--------13----13--------13-13-13--|
G|--------------------------12----12-14-16-------|-----------14-----|----------11--------------11-11-----------14--------------14-14--|
D|------13---13-16-13-15-16----------------------|------------------|-----------------------------------------------------------------|
A|-14--------------------------------------------|------------------|-----------------------------------------------------------------|
E|-----------------------------------------------|------------------|-----------------------------------------------------------------|


E|-17-14-----------17-14-----------20-17-----------20-17-----------|--------|--------|
B|-------16----16--------16-16-16--------19----19--------19--------|-20-----|-20-----|
G|----------17--------------17-17-----------20--------------20-20--|-21-----|-21-----|
D|-----------------------------------------------------------------|--------|--------|
A|-----------------------------------------------------------------|--------|--------|
E|-----------------------------------------------------------------|--------|--------|


E|--------|--------|--------|--------|--------|--------|--------|--------------------------|
B|--------|--------|--------|--------|--------|--------|-14-----|--------------------------|
G|-16-----|-16-----|--------|--------|--------|--------|--------|-16---16---16---16---16---|
D|--------|--------|--------|--------|--------|--------|--------|--------------------------|
A|--------|--------|--------|--------|--------|--------|--------|--------------------------|
E|--------|--------|--------|--------|--------|--------|--------|--------------------------|


E|----------14-----------14-------------------------|--------------------------|-17-14-12-14-12-9--17-14-12-14-12-9--17-14-12-19-14-12-17-14-12-14-12-9--|
B|-------14----1714---14----1714---14---------------|--------------------------|-------------------------------------------------------------------------|
G|-14-16-----------16-----------16-----171614-------|--------------------------|-------------------------------------------------------------------------|
D|--------------------------------------------16-14-|--------------------------|-------------------------------------------------------------------------|
A|--------------------------------------------------|-15---15---15---15---15---|-------------------------------------------------------------------------|
E|--------------------------------------------------|--------------------------|-------------------------------------------------------------------------|


E|---------------------|-12-9--14-12-9--15-13-10-15-13-10-16-14-11-16-14-11-17-15-12-17-15-12-18-|
B|-13------------------|-------------------------------------------------------------------------|
G|------14-------------|-------------------------------------------------------------------------|
D|-----------15--------|-------------------------------------------------------------------------|
A|----------------15---|-------------------------------------------------------------------------|
E|---------------------|-------------------------------------------------------------------------|


E|-16-13-18-16-13-19-17-14-19-17-14-20-18-15-20-18-15-21-19-16-21-19-16--|-22---22---22--22----|
B|-----------------------------------------------------------------------|---------------------|
G|-----------------------------------------------------------------------|---------------------|
D|-----------------------------------------------------------------------|---------------------|
A|-----------------------------------------------------------------------|---------------------|
E|-----------------------------------------------------------------------|---------------------|


E|-22---22---22--22--22--24---|-24---24---24----|-24-----|-24---------------|-----------------|
B|----------------------------|-----------------|--------|------22----20----|-19----17----17--|
G|----------------------------|-----------------|--------|------------------|-----------------|
D|----------------------------|-----------------|--------|------------------|-----------------|
A|----------------------------|-----------------|--------|------------------|-----------------|
E|----------------------------|-----------------|--------|------------------|-----------------|


E|-------------|------------------|--------|--------|--------|--------|--------|--------|
B|-17-----20---|-20----19----18---|--------|--------|--------|--------|--------|--------|
G|-------------|------------------|--------|--------|--------|--------|--------|--------|
D|-------------|------------------|--------|--------|--------|--------|--------|--------|
A|-------------|------------------|--------|--------|--------|--------|--------|--------|
E|-------------|------------------|--------|--------|--------|--------|--------|--------|


E|--------|--------|--------|--------|--------|--------|--------|--------|--------|
B|--------|--------|--------|--------|--------|--------|--------|--------|--------|
G|--------|--------|--------|--------|--------|--------|--------|--------|--------|
D|--------|--------|--------|--------|--------|--------|--------|--------|--------|
A|--------|--------|--------|--------|--------|--------|--------|--------|--------|
E|--------|--------|--------|--------|--------|--------|--------|--------|--------|


E|--------|--------|--------|--------|--------|--------|--------|--------|--------|
B|--------|--------|--------|--------|--------|--------|--------|--------|--------|
G|--------|--------|--------|--------|--------|--------|--------|--------|--------|
D|--------|--------|--------|--------|--------|--------|--------|--------|--------|
A|--------|--------|--------|--------|--------|--------|--------|--------|--------|
E|--------|--------|--------|--------|--------|--------|--------|--------|--------|


E|--------|--------|--------|--------|--------|--------|--------|--------|
B|--------|--------|--------|--------|--------|--------|--------|--------|
G|--------|--------|--------|--------|--------|--------|--------|--------|
D|--------|--------|--------|--------|--------|--------|--------|--------|
A|--------|--------|--------|--------|--------|--------|--------|--------|
E|--------|--------|--------|--------|--------|--------|--------|--------|





Track 7: Pick Scrape

E|--------|--------|--------|--------|--------|--------|--------|--------|--------|
B|--------|--------|--------|--------|--------|--------|--------|--------|--------|
G|--------|--------|--------|--------|--------|--------|--------|--------|--------|
D|--------|--------|--------|--------|--------|--------|--------|--------|--------|
A|--------|--------|--------|--------|--------|--------|--------|--------|--------|
E|--------|--------|--------|--------|--------|--------|--------|--------|--------|


E|--------|--------|--------|--------|--------|--------|--------|--------|--------|
B|--------|--------|--------|--------|--------|--------|--------|--------|--------|
G|--------|--------|--------|--------|--------|--------|--------|--------|--------|
D|--------|--------|--------|--------|--------|--------|--------|--------|--------|
A|--------|--------|--------|--------|--------|--------|--------|--------|--------|
E|--------|--------|--------|--------|--------|--------|--------|--------|--------|


E|--------|--------|--------|--------|--------|--------|--------|--------|--------|
B|--------|--------|--------|--------|--------|--------|--------|--------|--------|
G|--------|--------|--------|--------|--------|--------|--------|--------|--------|
D|--------|--------|--------|--------|--------|--------|--------|--------|--------|
A|--------|--------|--------|--------|--------|--------|--------|--------|--------|
E|--------|--------|--------|--------|--------|--------|--------|--------|--------|


E|--------|--------|--------|--------|--------|-----------------------------------|
B|--------|--------|--------|--------|--------|-----------------------------------|
G|--------|--------|--------|--------|--------|-----------------------------------|
D|--------|--------|--------|--------|--------|-----------------------------------|
A|--------|--------|--------|--------|--------|-----------------------------------|
E|--------|--------|--------|--------|--------|-------161514131211109-8-7-6-5-----|


E|--------|--------|--------|--------|--------|---------------------------------------|
B|--------|--------|--------|--------|--------|---------------------------------------|
G|--------|--------|--------|--------|--------|---------------------------------------|
D|--------|--------|--------|--------|--------|---------------------------------------|
A|--------|--------|--------|--------|--------|---------------------------------------|
E|--------|--------|--------|--------|--------|-------161514131211109-8-7-6-5-4-3-2-1-|


E|--------|--------|--------|--------|--------|--------|--------|--------|--------|
B|--------|--------|--------|--------|--------|--------|--------|--------|--------|
G|--------|--------|--------|--------|--------|--------|--------|--------|--------|
D|--------|--------|--------|--------|--------|--------|--------|--------|--------|
A|--------|--------|--------|--------|--------|--------|--------|--------|--------|
E|--------|--------|--------|--------|--------|--------|--------|--------|--------|


E|--------|--------|--------|--------|--------|--------|--------|--------|--------|
B|--------|--------|--------|--------|--------|--------|--------|--------|--------|
G|--------|--------|--------|--------|--------|--------|--------|--------|--------|
D|--------|--------|--------|--------|--------|--------|--------|--------|--------|
A|--------|--------|--------|--------|--------|--------|--------|--------|--------|
E|--------|--------|--------|--------|--------|--------|--------|--------|--------|


E|--------|--------|--------|--------|--------|--------|--------|--------|--------|
B|--------|--------|--------|--------|--------|--------|--------|--------|--------|
G|--------|--------|--------|--------|--------|--------|--------|--------|--------|
D|--------|--------|--------|--------|--------|--------|--------|--------|--------|
A|--------|--------|--------|--------|--------|--------|--------|--------|--------|
E|--------|--------|--------|--------|--------|--------|--------|--------|--------|


E|--------|--------|--------|--------|--------|--------|--------|--------|--------|
B|--------|--------|--------|--------|--------|--------|--------|--------|--------|
G|--------|--------|--------|--------|--------|--------|--------|--------|--------|
D|--------|--------|--------|--------|--------|--------|--------|--------|--------|
A|--------|--------|--------|--------|--------|--------|--------|--------|--------|
E|--------|--------|--------|--------|--------|--------|--------|--------|--------|


E|--------|--------|--------|--------|--------|--------|--------|--------|--------|
B|--------|--------|--------|--------|--------|--------|--------|--------|--------|
G|--------|--------|--------|--------|--------|--------|--------|--------|--------|
D|--------|--------|--------|--------|--------|--------|--------|--------|--------|
A|--------|--------|--------|--------|--------|--------|--------|--------|--------|
E|--------|--------|--------|--------|--------|--------|--------|--------|--------|


E|--------|--------|--------|--------|--------|--------|--------|--------|--------|
B|--------|--------|--------|--------|--------|--------|--------|--------|--------|
G|--------|--------|--------|--------|--------|--------|--------|--------|--------|
D|--------|--------|--------|--------|--------|--------|--------|--------|--------|
A|--------|--------|--------|--------|--------|--------|--------|--------|--------|
E|--------|--------|--------|--------|--------|--------|--------|--------|--------|


E|--------|--------|--------|--------|--------|--------|--------|--------|--------|
B|--------|--------|--------|--------|--------|--------|--------|--------|--------|
G|--------|--------|--------|--------|--------|--------|--------|--------|--------|
D|--------|--------|--------|--------|--------|--------|--------|--------|--------|
A|--------|--------|--------|--------|--------|--------|--------|--------|--------|
E|--------|--------|--------|--------|--------|--------|--------|--------|--------|


E|--------|--------|--------|--------|--------|--------|--------|--------|--------|
B|--------|--------|--------|--------|--------|--------|--------|--------|--------|
G|--------|--------|--------|--------|--------|--------|--------|--------|--------|
D|--------|--------|--------|--------|--------|--------|--------|--------|--------|
A|--------|--------|--------|--------|--------|--------|--------|--------|--------|
E|--------|--------|--------|--------|--------|--------|--------|--------|--------|


E|--------|--------|--------|--------|--------|--------|--------|--------|--------|
B|--------|--------|--------|--------|--------|--------|--------|--------|--------|
G|--------|--------|--------|--------|--------|--------|--------|--------|--------|
D|--------|--------|--------|--------|--------|--------|--------|--------|--------|
A|--------|--------|--------|--------|--------|--------|--------|--------|--------|
E|--------|--------|--------|--------|--------|--------|--------|--------|--------|


E|--------|--------|--------|--------|--------|--------|--------|--------|--------|
B|--------|--------|--------|--------|--------|--------|--------|--------|--------|
G|--------|--------|--------|--------|--------|--------|--------|--------|--------|
D|--------|--------|--------|--------|--------|--------|--------|--------|--------|
A|--------|--------|--------|--------|--------|--------|--------|--------|--------|
E|--------|--------|--------|--------|--------|--------|--------|--------|--------|


E|--------|--------|--------|--------|--------|--------|--------|--------|--------|
B|--------|--------|--------|--------|--------|--------|--------|--------|--------|
G|--------|--------|--------|--------|--------|--------|--------|--------|--------|
D|--------|--------|--------|--------|--------|--------|--------|--------|--------|
A|--------|--------|--------|--------|--------|--------|--------|--------|--------|
E|--------|--------|--------|--------|--------|--------|--------|--------|--------|


E|--------|--------|--------|--------|
B|--------|--------|--------|--------|
G|--------|--------|--------|--------|
D|--------|--------|--------|--------|
A|--------|--------|--------|--------|
E|--------|--------|--------|--------|





Track 8: Dave Mustaine Rhythm

E|--------|--------|--------|--------|--------|--------|--------|--------|--------|
B|--------|--------|--------|--------|--------|--------|--------|--------|--------|
G|--------|--------|--------|--------|--------|--------|--------|--------|--------|
D|--------|--------|--------|--------|--------|--------|--------|--------|--------|
A|--------|--------|--------|--------|--------|--------|--------|--------|--------|
E|--------|--------|--------|--------|--------|--------|--------|--------|--------|


E|--------|--------|--------|--------|--------|--------|--------|--------|--------|
B|--------|--------|--------|--------|--------|--------|--------|--------|--------|
G|--------|--------|--------|--------|--------|--------|--------|--------|--------|
D|--------|--------|--------|--------|--------|--------|--------|--------|--------|
A|--------|--------|--------|--------|--------|--------|--------|--------|--------|
E|--------|--------|--------|--------|--------|--------|--------|--------|--------|


E|--------|--------|--------|--------|--------|--------|--------|--------|--------|
B|--------|--------|--------|--------|--------|--------|--------|--------|--------|
G|--------|--------|--------|--------|--------|--------|--------|--------|--------|
D|--------|--------|--------|--------|--------|--------|--------|--------|--------|
A|--------|--------|--------|--------|--------|--------|--------|--------|--------|
E|--------|--------|--------|--------|--------|--------|--------|--------|--------|


E|--------|--------|--------|--------|--------|--------|--------|--------|--------|
B|--------|--------|--------|--------|--------|--------|--------|--------|--------|
G|--------|--------|--------|--------|--------|--------|--------|--------|--------|
D|--------|--------|--------|--------|--------|--------|--------|--------|--------|
A|--------|--------|--------|--------|--------|--------|--------|--------|--------|
E|--------|--------|--------|--------|--------|--------|--------|--------|--------|


E|--------|--------|--------|--------|--------|--------|--------|--------|--------|
B|--------|--------|--------|--------|--------|--------|--------|--------|--------|
G|--------|--------|--------|--------|--------|--------|--------|--------|--------|
D|--------|--------|--------|--------|--------|--------|--------|--------|--------|
A|--------|--------|--------|--------|--------|--------|--------|--------|--------|
E|--------|--------|--------|--------|--------|--------|--------|--------|--------|


E|--------|--------|--------|--------|--------|--------|--------|--------|--------|
B|--------|--------|--------|--------|--------|--------|--------|--------|--------|
G|--------|--------|--------|--------|--------|--------|--------|--------|--------|
D|--------|--------|--------|--------|--------|--------|--------|--------|--------|
A|--------|--------|--------|--------|--------|--------|--------|--------|--------|
E|--------|--------|--------|--------|--------|--------|--------|--------|--------|


E|--------|--------|--------|--------|--------|--------|--------|--------|--------|
B|--------|--------|--------|--------|--------|--------|--------|--------|--------|
G|--------|--------|--------|--------|--------|--------|--------|--------|--------|
D|--------|--------|--------|--------|--------|--------|--------|--------|--------|
A|--------|--------|--------|--------|--------|--------|--------|--------|--------|
E|--------|--------|--------|--------|--------|--------|--------|--------|--------|


E|--------|--------|--------|--------|--------|--------|--------|--------|--------|
B|--------|--------|--------|--------|--------|--------|--------|--------|--------|
G|--------|--------|--------|--------|--------|--------|--------|--------|--------|
D|--------|--------|--------|--------|--------|--------|--------|--------|--------|
A|--------|--------|--------|--------|--------|--------|--------|--------|--------|
E|--------|--------|--------|--------|--------|--------|--------|--------|--------|


E|--------|--------|--------|--------|--------|--------|--------|--------|--------|
B|--------|--------|--------|--------|--------|--------|--------|--------|--------|
G|--------|--------|--------|--------|--------|--------|--------|--------|--------|
D|--------|--------|--------|--------|--------|--------|--------|--------|--------|
A|--------|--------|--------|--------|--------|--------|--------|--------|--------|
E|--------|--------|--------|--------|--------|--------|--------|--------|--------|


E|--------|--------|--------|--------|--------|--------|--------|--------|--------|
B|--------|--------|--------|--------|--------|--------|--------|--------|--------|
G|--------|--------|--------|--------|--------|--------|--------|--------|--------|
D|--------|--------|--------|--------|--------|--------|--------|--------|--------|
A|--------|--------|--------|--------|--------|--------|--------|--------|--------|
E|--------|--------|--------|--------|--------|--------|--------|--------|--------|


E|--------|--------|--------|--------|--------|--------|--------|--------|--------|
B|--------|--------|--------|--------|--------|--------|--------|--------|--------|
G|--------|--------|--------|--------|--------|--------|--------|--------|--------|
D|--------|--------|--------|--------|--------|--------|--------|--------|--------|
A|--------|--------|--------|--------|--------|--------|--------|--------|--------|
E|--------|--------|--------|--------|--------|--------|--------|--------|--------|


E|--------|--------|--------|--------|--------|--------|--------|--------|--------|
B|--------|--------|--------|--------|--------|--------|--------|--------|--------|
G|--------|--------|--------|--------|--------|--------|--------|--------|--------|
D|--------|--------|--------|--------|--------|--------|--------|--------|--------|
A|--------|--------|--------|--------|--------|--------|--------|--------|--------|
E|--------|--------|--------|--------|--------|--------|--------|--------|--------|


E|--------|--------|--------|--------|--------|--------|--------|--------|--------|
B|--------|--------|--------|--------|--------|--------|--------|--------|--------|
G|--------|--------|--------|--------|--------|--------|--------|--------|--------|
D|--------|--------|--------|--------|--------|--------|--------|--------|--------|
A|--------|--------|--------|--------|--------|--------|--------|--------|--------|
E|--------|--------|--------|--------|--------|--------|--------|--------|--------|


E|--------|--------|--------|--------|--------|--------|--------|--------|--------|
B|--------|--------|--------|--------|--------|--------|--------|--------|--------|
G|--------|--------|--------|--------|--------|--------|--------|--------|--------|
D|--------|--------|--------|--------|--------|--------|--------|--------|--------|
A|--------|--------|--------|--------|--------|--------|--------|--------|--------|
E|--------|--------|--------|--------|--------|--------|--------|--------|--------|


E|--------|--------|--------|--------|--------|--------|--------|--------|--------|
B|--------|--------|--------|--------|--------|--------|--------|--------|--------|
G|--------|--------|--------|--------|--------|--------|--------|--------|--------|
D|--------|--------|--------|--------|--------|--------|--------|--------|--------|
A|--------|--------|--------|--------|--------|--------|--------|--------|--------|
E|--------|--------|--------|--------|--------|--------|--------|--------|--------|


E|--------|--------|--------|--------|--------|--------|--------|
B|--------|--------|--------|--------|--------|--------|--------|
G|--------|--------|--------|--------|--------|--------|--------|
D|--------|--------|--------|--------|--------|--------|--------|
A|--------|--------|--------|--------|--------|--------|--------|
E|--------|--------|--------|--------|--------|--------|--------|





Track 9: Jimmy Sloas

G|--------|--------|--------|-----------------------------|--------|--------------------|
D|--------|--------|--------|-----------------------------|--------|--------------------|
A|--------|--------|--------|-------2--2------2--0--------|--------|--------------------|
E|--------|--------|--------|-----------------------3--2--|-0------|-2----2---------0---|


G|--------|--------|--------|--------|--------|--------|--------|--------|------------------------|
D|--------|--------|--------|--------|--------|--------|--------|--------|------------------------|
A|--------|--------|--------|--------|--------|--------|--------|--------|-3----0----2------------|
E|-0------|-2------|--------|--------|--------|--------|--------|--------|----------------3---2---|


G|--------------------|--------------------|--------------------|---------------------------|
D|--------------------|--------------------|--------------------|---------------------------|
A|--------------------|--------------------|--------------------|-2----1--0----5----4--3----|
E|-0----2--2----------|-0----2--3----------|-3----2--0----------|---------------------------|


G|--------------------|--------------------|--------------------|---------------------------|
D|--------------------|--------------------|--------------------|---------------------------|
A|--------------------|--------------------|--------------------|-2----1--0----5----4--3----|
E|-0----2--2----------|-0----2--3----------|-3----2--0----------|---------------------------|


G|--------------------|--------------------|--------------------|---------------------------|
D|--------------------|--------------------|--------------------|---------------------------|
A|--------------------|--------------------|--------------------|-2----1--0----5----4--3----|
E|-0----2--2----------|-0----2--3----------|-3----2--0----------|---------------------------|


G|--------------------|--------------------|--------------------|---------------------------|
D|--------------------|--------------------|--------------------|---------------------------|
A|--------------------|--------------------|--------------------|-2----1--0----5----4--3----|
E|-0----2--2----------|-0----2--3----------|-3----2--0----------|---------------------------|


G|-------------------------------------------|-------------------------------------------|
D|-------------------------------------------|-------------------------------------------|
A|-2---2--0--2--3--2--0--2---2--0--2--3---0--|-2---2--0--2--3--2--0--2--3---0--2--3---0--|
E|-------------------------------------------|-------------------------------------------|


G|-------------------------------------------|-------------------------------------------|
D|-------------------------------------------|-------------------------------------------|
A|-2---2--0--2--3--2--0--2---2--0--2--3---0--|-2---2--0--2--3--2--0--2--3---0--2--3---0--|
E|-------------------------------------------|-------------------------------------------|


G|-------------------------------------------|-------------------------------------------|
D|-------------------------------------------|-------------------------------------------|
A|-2---2--0--2--3--2--0--2---2--0--2--3---0--|-2---2--0--2--3--2--0--2--3---0--2--3---0--|
E|-------------------------------------------|-------------------------------------------|


G|-------------------------------------------|-----------------------------|--------------------------|
D|-------------------------------------------|-----------------------------|--------------------------|
A|-2---2--0--2--3--2--0--2---2--0--2--3---0--|-2---2--0--2--3--2--0--------|----------------5--7---7--|
E|-------------------------------------------|-----------------------7-----|-0----0-------------------|


G|------------------------------------------|--------------------------|------------------------------------------|
D|------------------------------------------|--------------------------|------------------------------------------|
A|-3----3--3--3--3--3--3--2--0--2--3--2--0--|----------------5--7---7--|-3----3--3--3--3--3--3--2--0--2--3--2--0--|
E|------------------------------------------|-0----0-------------------|------------------------------------------|


G|--------------------------|------------------------------------------|--------------------------|
D|--------------------------|------------------------------------------|--------------------------|
A|----------------5--7---7--|-3----3--3--3--3--3--3--2--0--2--3--2--0--|----------------5--7---7--|
E|-0----0-------------------|------------------------------------------|-0----0-------------------|


G|------------------------------------------|--------|--------|--------|-----------------------------|
D|------------------------------------------|--------|--------|--------|-----------------------------|
A|-3----3--3--3--3--3--3--2--0--2--3--2--0--|--------|--------|--------|-------2--2------2--0--------|
E|------------------------------------------|-0------|-0------|-0------|-0---------------------3--2--|


G|--------|--------------------|--------|--------|--------|--------|--------|--------|
D|--------|--------------------|--------|--------|--------|--------|--------|--------|
A|--------|--------------------|--------|--------|--------|--------|--------|--------|
E|-0------|-2----2---------0---|-0------|-2------|--------|--------|--------|--------|


G|--------|--------|------------------------|--------------------|--------------------|
D|--------|--------|------------------------|--------------------|--------------------|
A|--------|--------|-3----0----2------------|--------------------|--------------------|
E|--------|--------|----------------3---2---|-0----2--2----------|-0----2--3----------|


G|--------------------|---------------------------|--------------------|--------------------|
D|--------------------|---------------------------|--------------------|--------------------|
A|--------------------|-2----1--0----5----4--3----|--------------------|--------------------|
E|-3----2--0----------|---------------------------|-0----2--2----------|-0----2--3----------|


G|--------------------|---------------------------|--------------------|--------------------|
D|--------------------|---------------------------|--------------------|--------------------|
A|--------------------|-2----1--0----5----4--3----|--------------------|--------------------|
E|-3----2--0----------|---------------------------|-0----2--2----------|-0----2--3----------|


G|--------------------|---------------------------|--------------------|--------------------|
D|--------------------|---------------------------|--------------------|--------------------|
A|--------------------|-2----1--0----5----4--3----|--------------------|--------------------|
E|-3----2--0----------|---------------------------|-0----2--2----------|-0----2--3----------|


G|--------------------|---------------------------|-------------------------------------------|
D|--------------------|---------------------------|-------------------------------------------|
A|--------------------|-2----1--0----5----4--3----|-2---2--0--2--3--2--0--2---2--0--2--3---0--|
E|-3----2--0----------|---------------------------|-------------------------------------------|


G|-------------------------------------------|-------------------------------------------|
D|-------------------------------------------|-------------------------------------------|
A|-2---2--0--2--3--2--0--2--3---0--2--3---0--|-2---2--0--2--3--2--0--2---2--0--2--3---0--|
E|-------------------------------------------|-------------------------------------------|


G|-------------------------------------------|-------------------------------------------|
D|-------------------------------------------|-------------------------------------------|
A|-2---2--0--2--3--2--0--2--3---0--2--3---0--|-2---2--0--2--3--2--0--2---2--0--2--3---0--|
E|-------------------------------------------|-------------------------------------------|


G|-------------------------------------------|-------------------------------------------|
D|-------------------------------------------|-------------------------------------------|
A|-2---2--0--2--3--2--0--2--3---0--2--3---0--|-2---2--0--2--3--2--0--2---2--0--2--3---0--|
E|-------------------------------------------|-------------------------------------------|


G|-----------------------------|--------------------------|------------------------------------------|
D|-----------------------------|--------------------------|------------------------------------------|
A|-2---2--0--2--3--2--0--------|----------------5--7---7--|-3----3--3--3--3--3--3--2--0--2--3--2--0--|
E|-----------------------7-----|-0----0-------------------|------------------------------------------|


G|--------------------------|------------------------------------------|--------------------------|
D|--------------------------|------------------------------------------|--------------------------|
A|----------------5--7---7--|-3----3--3--3--3--3--3--2--0--2--3--2--0--|----------------5--7---7--|
E|-0----0-------------------|------------------------------------------|-0----0-------------------|


G|------------------------------------------|--------------------------|------------------------------------------|
D|------------------------------------------|--------------------------|------------------------------------------|
A|-3----3--3--3--3--3--3--2--0--2--3--2--0--|----------------5--7---7--|-3----3--3--3--3--3--3--2--0--2--3--2--0--|
E|------------------------------------------|-0----0-------------------|------------------------------------------|


G|--------------------------|--------------------------------------------------|--------------------------|
D|--------------------------|--------------------------------------4-----------|--------------------------|
A|----------------7--9---9--|-3---3--3--3--3--3--3--3--3--0--2--3-----3--2--0--|----------------7--9---9--|
E|-2----2-------------------|--------------------------------------------------|-2----2-------------------|


G|--------------------------------------------------|--------------------------|--------------------------------------------------|
D|--------------------------------------4-----------|--------------------------|--------------------------------------4-----------|
A|-3---3--3--3--3--3--3--3--3--0--2--3-----3--2--0--|----------------7--9---9--|-3---3--3--3--3--3--3--3--3--0--2--3-----3--2--0--|
E|--------------------------------------------------|-2----2-------------------|--------------------------------------------------|


G|--------------------------|--------------------------------------------------|--------------------------|
D|--------------------------|--------------------------4-----------------------|--------------------------|
A|----------------7--9---9--|-3---3--3--3--3--0--2--3-----3--2--0--3--2--0-----|----------------5--7---7--|
E|-2----2-------------------|-----------------------------------------------3--|-0----0-------------------|


G|------------------------------------------|--------------------------|------------------------------------------|
D|------------------------------------------|--------------------------|------------------------------------------|
A|-3----3--3--3--3--3--3--2--0--2--3--2--0--|----------------5--7---7--|-3----3--3--3--3--3--3--2--0--2--3--2--0--|
E|------------------------------------------|-0----0-------------------|------------------------------------------|


G|--------------------------|------------------------------------------|--------------------------|
D|--------------------------|------------------------------------------|--------------------------|
A|----------------5--7---7--|-3----3--3--3--3--3--3--2--0--2--3--2--0--|----------------5--7---7--|
E|-0----0-------------------|------------------------------------------|-0----0-------------------|


G|------------------------------------------|--------------------|--------------------|
D|------------------------------------------|--------------------|--------------------|
A|-3----3--3--3--3--3--3--2--0--2--3--2--0--|--------------------|--------------------|
E|------------------------------------------|-0----2--2----------|-0----2--3----------|


G|--------------------|---------------------------|--------------------|--------------------|
D|--------------------|---------------------------|--------------------|--------------------|
A|--------------------|-2----1--0----5----4--3----|--------------------|--------------------|
E|-3----2--0----------|---------------------------|-0----2--2----------|-0----2--3----------|


G|--------------------|---------------------------|--------------------|--------------------|
D|--------------------|---------------------------|--------------------|--------------------|
A|--------------------|-2----1--0----5----4--3----|--------------------|--------------------|
E|-3----2--0----------|---------------------------|-0----2--2----------|-0----2--3----------|


G|--------------------|---------------------------|--------------------|--------------------|
D|--------------------|---------------------------|--------------------|--------------------|
A|--------------------|-2----1--0----5----4--3----|--------------------|--------------------|
E|-3----2--0----------|---------------------------|-0----2--2----------|-0----2--3----------|


G|--------------------|---------------------------|--------|--------|--------|-----------------------------|
D|--------------------|---------------------------|--------|--------|--------|-----------------------------|
A|--------------------|-2----1--0----5----4--3----|--------|--------|--------|-------2--2------2--0--------|
E|-3----2--0----------|---------------------------|-0------|-0------|-0------|-0---------------------3--2--|


G|--------|--------------------|--------|--------|--------|--------|--------|--------|
D|--------|--------------------|--------|--------|--------|--------|--------|--------|
A|--------|--------------------|--------|--------|--------|--------|--------|--------|
E|-0------|-2----2---------0---|-0------|-2------|--------|--------|--------|--------|


G|--------|--------|--------|--------|
D|--------|--------|--------|--------|
A|--------|--------|--------|--------|
E|--------|--------|--------|--------|