Menu:

 

Search:

 

megadeth - the conjuring:

 



Title: The Conjuring
Artist: 
Album: Peace Sells...But Who's Buying?
Author: Dave Mustaine


Track 1: Mustaine Rhy.

D#|--------|-----------------------------|--------|-----------------------------|--------|
A#|--------|-----------20------------20--|--------|-----------19------------19--|--------|
F#|-12-----|------19-------19------------|-11-----|------18-------18------------|-10-----|
C#|-12-----|-17-----------------17-------|-11-----|-16-----------------16-------|-10-----|
G#|-10-----|-----------------------------|-9------|-----------------------------|-8------|
D#|--------|-----------------------------|--------|-----------------------------|--------|


D#|-----------------------------|--------|-----------------------------|--------|-----------------------------|
A#|-----------18------------18--|--------|-----------17------------17--|--------|-----------20------------20--|
F#|------17-------17------------|-9------|------16-------16------------|-12-----|------19-------19------------|
C#|-15-----------------15-------|-9------|-14-----------------14-------|-12-----|-17-----------------17-------|
G#|-----------------------------|-7------|-----------------------------|-10-----|-----------------------------|
D#|-----------------------------|--------|-----------------------------|--------|-----------------------------|


D#|--------|-----------------------------|--------|-----------------------------|--------|
A#|--------|-----------19------------19--|--------|-----------18------------18--|--------|
F#|-11-----|------18-------18------------|-10-----|------17-------17------------|-9------|
C#|-11-----|-16-----------------16-------|-10-----|-15-----------------15-------|-9------|
G#|-9------|-----------------------------|-8------|-----------------------------|-7------|
D#|--------|-----------------------------|--------|-----------------------------|--------|


D#|-----------------------------|--------|-----------------------------|--------|-----------------------------|
A#|-----------17------------17--|--------|-----------20------------20--|--------|-----------19------------19--|
F#|------16-------16------------|-12-----|------19-------19------------|-11-----|------18-------18------------|
C#|-14-----------------14-------|-12-----|-17-----------------17-------|-11-----|-16-----------------16-------|
G#|-----------------------------|-10-----|-----------------------------|-9------|-----------------------------|
D#|-----------------------------|--------|-----------------------------|--------|-----------------------------|


D#|--------|-----------------------------|--------|-----------------------------|--------|
A#|--------|-----------18------------18--|--------|-----------17------------17--|--------|
F#|-10-----|------17-------17------------|-9------|------16-------16------------|-12-----|
C#|-10-----|-15-----------------15-------|-9------|-14-----------------14-------|-12-----|
G#|-8------|-----------------------------|-7------|-----------------------------|-10-----|
D#|--------|-----------------------------|--------|-----------------------------|--------|


D#|-----------------------------|--------|-----------------------------|--------|-----------------------------|
A#|-----------20------------20--|--------|-----------19------------19--|--------|-----------18------------18--|
F#|------19-------19------------|-11-----|------18-------18------------|-10-----|------17-------17------------|
C#|-17-----------------17-------|-11-----|-16-----------------16-------|-10-----|-15-----------------15-------|
G#|-----------------------------|-9------|-----------------------------|-8------|-----------------------------|
D#|-----------------------------|--------|-----------------------------|--------|-----------------------------|


D#|--------|-----------------------------|-----------------|-----------------------------------------------|
A#|--------|-----------17------------17--|-----------------|-----------------------------------------------|
F#|-9------|------16-------16------------|-9---------------|-----------------------------------------------|
C#|-9------|-14-----------------14-------|-9---------------|-2---------------------------------------------|
G#|-7------|-----------------------------|-7---------------|-0---------------------------------------------|
D#|--------|-----------------------------|-----------------|-----2--2--2--2--2--2--0--0--2--2--2--2--2--2--|


D#|-------------------------------------------|-----------------------------------------------|
A#|-------------------------------------------|-----------------------------------------------|
F#|-------------------------------------------|-----------------------------------------------|
C#|---------------------------------------2---|-2---------------------------------------------|
G#|-2-3-2-0-----------------------2-------0---|-0---------------------------------------------|
D#|---------2--2--2--2--2--2--0---0-----------|-----2--2--2--2--2--2--0--0--2--2--2--2--2--2--|


D#|-------------------------------------------|-----------------------------------------------|
A#|-------------------------------------------|-----------------------------------------------|
F#|-------------------------------------------|-----------------------------------------------|
C#|---------------------------------------2---|-2---------------------------------------------|
G#|-2-3-2-0-----------------------2-------0---|-0---------------------------------------------|
D#|---------2--2--2--2--2--2--0---0-----------|-----2--2--2--2--2--2--0--0--2--2--2--2--2--2--|


D#|-------------------------------------------|---------------------------------------------|
A#|-------------------------------------------|---------------------------------------------|
F#|-------------------------------------------|---------------------------------------------|
C#|---------------------------------------2---|-2-------------------------------------------|
G#|-2-3-2-0-----------------------2-------0---|-0-------------------------------------------|
D#|---------2--2--2--2--2--2--0---0-----------|-----2--2--2--2--2--2--0--2--2--2--2--2------|


D#|--------|--------|--------|--------|--------|--------|--------|--------|--------|
A#|--------|--------|--------|--------|--------|--------|--------|--------|--------|
F#|--------|--------|--------|--------|--------|--------|--------|--------|--------|
C#|--------|-12-----|-12-----|-11-----|-11-----|-10-----|-10-----|-9------|-9------|
G#|--------|-10-----|-10-----|-9------|-9------|-8------|-8------|-7------|-7------|
D#|--------|--------|--------|--------|--------|--------|--------|--------|--------|


D#|--------|--------|--------|--------|--------|--------|--------|--------|--------------------------------------------------|
A#|--------|--------|--------|--------|--------|--------|--------|--------|--------------------------------------------------|
F#|--------|--------|--------|--------|--------|--------|--------|--------|--------------------------------------------------|
C#|-12-----|-12-----|-11-----|-11-----|-10-----|-10-----|-9------|-9------|--------------------------------------------------|
G#|-10-----|-10-----|-9------|-9------|-8------|-8------|-7------|-7------|-------------------------------------0-2-3--2--0--|
D#|--------|--------|--------|--------|--------|--------|--------|--------|-0--2--2--2--5--2--2--2--0--2--2--2---------------|


D#|--------------------------------------------------|--------------------------------------------------|
A#|--------------------------------------------------|--------------------------------------------------|
F#|--------------------------------------------------|--------------------------------------------------|
C#|--------------------------------------------------|--------------------------------------------------|
G#|-------------------------------------0-2-3--2--0--|-------------------------------------0-2-3--2--0--|
D#|-0--2--2--2--5--2--2--2--0--2--2--2---------------|-0--2--2--2--5--2--2--2--0--2--2--2---------------|


D#|--------------------------------------------------|--------------------------------------------------|
A#|--------------------------------------------------|--------------------------------------------------|
F#|--------------------------------------------------|--------------------------------------------------|
C#|--------------------------------------------------|--------------------------------------------------|
G#|-------------------------------------0-2-3--2--0--|-------------------------------------0-2-3--2--0--|
D#|-0--2--2--2--5--2--2--2--0--2--2--2---------------|-0--2--2--2--5--2--2--2--0--2--2--2---------------|


D#|--------------------------------------------------|--------------------------------------------------|
A#|--------------------------------------------------|--------------------------------------------------|
F#|--------------------------------------------------|--------------------------------------------------|
C#|--------------------------------------------------|--------------------------------------------------|
G#|-------------------------------------0-2-3--2--0--|-------------------------------------0-2-3--2--0--|
D#|-0--2--2--2--5--2--2--2--0--2--2--2---------------|-0--2--2--2--5--2--2--2--0--2--2--2---------------|


D#|------------------------------------------|-----------------------------------------|
A#|------------------------------------------|-----------------------------------------|
F#|------------------------------------------|-----------------------------------------|
C#|-------------------------------------4----|-----------------------------------------|
G#|-------------------------------------2----|-----------------------------------------|
D#|-0--2--2--2--5--2--2--2--0--2--2--2-------|-0---0--0--0---0--0--0---0--0--0---0--0--|


D#|-----------------------------------|---------------------------|-------------------------------|
A#|-----------------------------------|------------------5--------|-------------------------------|
F#|-----------------------------------|----------------------5----|-------------------------------|
C#|---------------15------14------8---|-9---9---------------------|-----------4-------------------|
G#|---------------13------12------6---|-7---7---5---2-------------|-----------2--------------3----|
D#|-0---0--0--0-------0-------0-------|---------3---0-------------|-0---0--0-------0---0--0--1----|


D#|-----------------------------------------|-----------------------------------|---------------------------|
A#|-----------------------------------------|-----------------------------------|------------------5--------|
F#|-----------------------------------------|-----------------------------------|----------------------5----|
C#|-----------------------------------------|---------------15------14------8---|-9---9---------------------|
G#|-----------------------------------------|---------------13------12------6---|-7---7---5---2-------------|
D#|-0---0--0--0---0--0--0---0--0--0---0--0--|-0---0--0--0-------0-------0-------|---------3---0-------------|


D#|-------------------------------|--------------------------------------------------|
A#|-------------------------------|--------------------------------------------------|
F#|-------------------------------|--------------------------------------------------|
C#|-----------4-------------------|--------------------------------------------------|
G#|-----------2--------------3----|-------------------------------------0-2-3--2--0--|
D#|-0---0--0-------0---0--0--1----|-0--2--2--2--5--2--2--2--0--2--2--2---------------|


D#|--------------------------------------------------|--------------------------------------------------|
A#|--------------------------------------------------|--------------------------------------------------|
F#|--------------------------------------------------|--------------------------------------------------|
C#|--------------------------------------------------|--------------------------------------------------|
G#|-------------------------------------0-2-3--2--0--|-------------------------------------0-2-3--2--0--|
D#|-0--2--2--2--5--2--2--2--0--2--2--2---------------|-0--2--2--2--5--2--2--2--0--2--2--2---------------|


D#|--------------------------------------------------|--------------------------------------------------|
A#|--------------------------------------------------|--------------------------------------------------|
F#|--------------------------------------------------|--------------------------------------------------|
C#|--------------------------------------------------|--------------------------------------------------|
G#|-------------------------------------0-2-3--2--0--|-------------------------------------0-2-3--2--0--|
D#|-0--2--2--2--5--2--2--2--0--2--2--2---------------|-0--2--2--2--5--2--2--2--0--2--2--2---------------|


D#|--------------------------------------------------|--------------------------------------------------|
A#|--------------------------------------------------|--------------------------------------------------|
F#|--------------------------------------------------|--------------------------------------------------|
C#|--------------------------------------------------|--------------------------------------------------|
G#|-------------------------------------0-2-3--2--0--|-------------------------------------0-2-3--2--0--|
D#|-0--2--2--2--5--2--2--2--0--2--2--2---------------|-0--2--2--2--5--2--2--2--0--2--2--2---------------|


D#|------------------------------------------|-------------------------------------------------|
A#|------------------------------------------|-------------------------------------------------|
F#|------------------------------------------|-------------------------------------------------|
C#|-------------------------------------4----|-------------------------------------------------|
G#|-------------------------------------2----|-------------------------------------4--5--4-----|
D#|-0--2--2--2--5--2--2--2--0--2--2--2-------|-2--4--4--4--7--4--4--4--2--4--4--4-----------7--|


D#|-------------------------------------------------|-------------------------------------------------|
A#|-------------------------------------------------|-------------------------------------------------|
F#|-------------------------------------------------|-------------------------------------------------|
C#|-------------------------------------------------|-------------------------------------------------|
G#|-------------------------------------4--5--4-----|-------------------------------------4--5--4-----|
D#|-2--4--4--4--7--4--4--4--2--4--4--4-----------7--|-2--4--4--4--7--4--4--4--2--4--4--4-----------7--|


D#|-------------------------------------------------|-------------------------------------------------|
A#|-------------------------------------------------|-------------------------------------------------|
F#|-------------------------------------------------|-------------------------------------------------|
C#|-------------------------------------------------|-------------------------------------------------|
G#|-------------------------------------4--5--4-----|-------------------------------------4--5--4-----|
D#|-2--4--4--4--7--4--4--4--2--4--4--4-----------7--|-2--4--4--4--7--4--4--4--2--4--4--4-----------7--|


D#|-------------------------------------------------|-------------------------------------------------|
A#|-------------------------------------------------|-------------------------------------------------|
F#|-------------------------------------------------|-------------------------------------------------|
C#|-------------------------------------------------|-------------------------------------------------|
G#|-------------------------------------4--5--4-----|-------------------------------------4--5--4-----|
D#|-2--4--4--4--7--4--4--4--2--4--4--4-----------7--|-2--4--4--4--7--4--4--4--2--4--4--4-----------7--|


D#|---------------------------------------------|---------------------------------|
A#|---------------------------------------------|---------------------------------|
F#|---------------------------------------------|---------------------------------|
C#|-------------------------------------4---4---|-9---9---------------------------|
G#|-------------------------------------2---2---|-7---7-----------5---4-------4---|
D#|-2--4--4--4--7--4--4--4--2--4--4--4----------|---------0---0---3---2---0---2---|


D#|---------------------------------|------------------------------|---------------------------------|
A#|---------------------------------|------------------------------|---------------------------------|
F#|---------------------------------|------------------------------|---------------------------------|
C#|---------------------7-------9---|-9----------------------------|---------------------7-------9---|
G#|-----8-------9-------5-------7---|-7------------5---4-------4---|-----8-------9-------5-------7---|
D#|-----6-------7-------------------|------0---0---3---2---0---2---|-----6-------7-------------------|


D#|------------------------------|---------------------------------|------------------------------|
A#|------------------------------|---------------------------------|------------------------------|
F#|------------------------------|---------------------------------|------------------------------|
C#|-9----------------------------|---------------------7-------9---|-9----------------------------|
G#|-7------------5---4-------4---|-----8-------9-------5-------7---|-7------------5---4-------4---|
D#|------0---0---3---2---0---2---|-----6-------7-------------------|------0---0---3---2---0---2---|


D#|---------------------------------|-----------------------------------|-----------------------------------|
A#|---------------------------------|-----------------------------------|-----------------------------------|
F#|---------------------------------|-----------------------------------|-------------------7---9---7-------|
C#|---------------------7-------9---|-9-----------------7---8---9-------|-------------------7---9---7-------|
G#|-----8-------9-------5-------7---|-7---7---10-9--7---7---8---9---7---|-7---7---10-9--7---------------7---|
D#|-----6-------7-------------------|-----7---10-9--7---------------7---|-7---7---10-9--7---------------7---|


D#|-----------------------------------|---------------------------------|-----------------------------------|
A#|-------------------------------9---|-9---7---7-------7-------7---9---|-----------------------------------|
F#|-------------------------------9---|-9---7---7---9---7---9---7---9---|-----------------------------------|
C#|-------------------7---8---9-------|-------------9-------9-----------|-------------------7---8---9-------|
G#|-7---7---10-9--7---7---8---9-------|---------------------------------|-7---7---10-9--7---7---8---9---7---|
D#|-7---7---10-9--7-------------------|---------------------------------|-7---7---10-9--7---------------7---|


D#|-----------------------------------|-----------------------------------|------------------------------|
A#|-----------------------------------|-------------------------------9---|-9---7---7-------7-------7----|
F#|-------------------7---9---7-------|-------------------------------9---|-9---7---7---9---7---9---7----|
C#|-------------------7---9---7-------|-------------------7---8---9-------|-------------9-------9--------|
G#|-7---7---10-9--7---------------7---|-7---7---10-9--7---7---8---9-------|------------------------------|
D#|-7---7---10-9--7---------------7---|-7---7---10-9--7-------------------|------------------------------|


D#|-----------------------------------|-----------------------------------|-----------------------------------|
A#|-----------------------------------|-----------------------------------|-------------------------------9---|
F#|-----------------------------------|-------------------7---9---7-------|-------------------------------9---|
C#|-------------------7---8---9-------|-------------------7---9---7-------|-------------------7---8---9-------|
G#|-7---7---10-9--7---7---8---9---7---|-7---7---10-9--7---------------7---|-7---7---10-9--7---7---8---9-------|
D#|-7-----------------------------7---|-7---7---10-9--7---------------7---|-7---7---10-9--7-------------------|


D#|---------------------------------|-----------------------------------|-----------------------------------|
A#|-9---7---7-------7-------7---9---|-----------------------------------|-----------------------------------|
F#|-9---7---7---9---7---9---7---9---|-----------------------------------|-------------------7---9---7-------|
C#|-------------9-------9-----------|-------------------7---8---9-------|-------------------7---9---7-------|
G#|---------------------------------|-7---7---10-9--7---7---8---9---7---|-7---7---10-9--7---------------7---|
D#|---------------------------------|-7---7---10-9--7---------------7---|-7---7---10-9--7---------------7---|


D#|-----------------------------------|------------------------------|------------------------------|
A#|-------------------------------9---|-9---7---7-------7-------7----|------------------------------|
F#|-------------------------------9---|-9---7---7---9---7---9---7----|------------------------------|
C#|-------------------7---8---9-------|-------------9-------9--------|------------------------------|
G#|-7---7---10-9--7---7---8---9-------|------------------------------|-2----2---2---8---7---5---2---|
D#|-7---7---10-9--7-------------------|------------------------------|-0----0---0---6---5---3---0---|


D#|---------------------------------|-----------------------------------|-----------------------------------|
A#|---------------------------------|-----------------------------------|-----------------------------------|
F#|---------------------------------|-----------------------------------|-----------------------------------|
C#|-------------9-------------------|-----------------------------------|-----------------------------------|
G#|-2---2---2---7---2---8---2---2---|-2---2---2---2---8--8--7---2---2---|-2--2--4---2-------8---7---5---2---|
D#|-0---0---0-------0---6---0---0---|-0---0---0---0---6--6--5---0---0---|-3--3--5---3-------6---5---3---0---|


D#|---------------------------------|---------------------------------|-----------------------------------|
A#|---------------------------------|---------------------------------|-----------------------------------|
F#|---------------------------------|---------------------------------|-----------------------------------|
C#|---------------------------------|-------------9-------------------|-----------------------------------|
G#|-2---2---2---2---8---7---5---2---|-2---2---2---7---2---8---2---2---|-2---2---2---2---8--8--7---2---2---|
D#|-0---0---0---0---6---5---3---0---|-0---0---0-------0---6---0---0---|-0---0---0---0---6--6--5---0---0---|


D#|-----------------------------------|---------------------------------|---------------------------------|
A#|-----------------------------------|---------------------------------|---------------------------------|
F#|-----------------------------------|---------------------------------|---------------------------------|
C#|-----------------------------------|---------------------------------|-------------9-------------------|
G#|-2--2--4---2----2--8---7---5---2---|-2---2---2---2---8---7---5---2---|-2---2---2---7---2---8---2---2---|
D#|-3--3--5---3----0--6---5---3---0---|-0---0---0---0---6---5---3---0---|-0---0---0-------0---6---0---0---|


D#|-----------------------------------|-----------------------------------|---------------------------------|
A#|-----------------------------------|-----------------------------------|---------------------------------|
F#|-----------------------------------|-----------------------------------|---------------------------------|
C#|-----------------------------------|-----------------------------------|---------------------------------|
G#|-2---2---2---2---8--8--7---2---2---|-2--2--4---2-------8---7---5---2---|-2---2---2---2---8---7---5---2---|
D#|-0---0---0---0---6--6--5---0---0---|-3--3--5---3-------6---5---3---0---|-0---0---0---0---6---5---3---0---|


D#|---------------------------------|-----------------------------------|-----------------------------------|
A#|---------------------------------|-----------------------------------|-----------------------------------|
F#|---------------------------------|-----------------------------------|-----------------------------------|
C#|-------------9-------------------|-----------------------------------|-----------------------------------|
G#|-2---2---2---7---2---8---2---2---|-2---2---2---2---8--8--7---2---2---|-2--2--4---2-------8---7---5---2---|
D#|-0---0---0-------0---6---0---0---|-0---0---0---0---6--6--5---0---0---|-3--3--5---3-------6---5---3---0---|


D#|---------------------------------|---------------------------------|-----------------------------------|
A#|---------------------------------|---------------------------------|-----------------------------------|
F#|---------------------------------|---------------------------------|-----------------------------------|
C#|---------------------------------|-------------9-------------------|-----------------------------------|
G#|-2---2---2---2---8---7---5---2---|-2---2---2---7---2---8---2---2---|-2---2---2---2---8--8--7---2---2---|
D#|-0---0---0---0---6---5---3---0---|-0---0---0-------0---6---0---0---|-0---0---0---0---6--6--5---0---0---|


D#|-----------------------------------|---------------------------------|---------------------------------|
A#|-----------------------------------|---------------------------------|---------------------------------|
F#|-----------------------------------|---------------------------------|---------------------------------|
C#|-----------------------------------|---------------------------------|-------------9-------------------|
G#|-2--2--4---2-------8---7---5---2---|-2---2---2---2---8---7---5---2---|-2---2---2---7---2---8---2---2---|
D#|-3--3--5---3-------6---5---3---0---|-0---0---0---0---6---5---3---0---|-0---0---0-------0---6---0---0---|


D#|-----------------------------------|-----------------------------------|-----------------------------------------|
A#|-----------------------------------|-----------------------------------|-----------------------------------------|
F#|-----------------------------------|-----------------------------------|-----------------------------------------|
C#|-----------------------------------|-----------------------------------|-----------------------------------------|
G#|-2---2---2---2---8--8--7---2---2---|-2--2--4---2-------8---7---5---4---|-4---4--4--4---4--4--4---4--4--4---4--4--|
D#|-0---0---0---0---6--6--5---0---0---|-3--3--5---3-------6---5---3---2---|-2---2--2--2---2--2--2---2--2--2---2--2--|


D#|---------------------------------------|-----------------------------------------|
A#|---------------------------------------|-----------------------------------------|
F#|---------------------------------------|-----------------------------------------|
C#|---------------------------------------|-----------------------------------------|
G#|-4---4--4--4---4--4--4---4--2--5---4---|-4---4--4--4---4--4--4---4--4--4---4--4--|
D#|-2---2--2--2---2--2--2---2--0--3---2---|-2---2--2--2---2--2--2---2--2--2---2--2--|


D#|---------------------------------------|---------------------------------------|
A#|---------------------------------------|---------------------------------------|
F#|---------------------------------------|---------------------------------------|
C#|-------------------------------5-------|---------------------------------------|
G#|-4---4--4--4---4--4--4---4--2--3---4---|-4---4--4--4---4--4--4---4--2--5---2---|
D#|-2---2--2--2---2--2--2---2--0------2---|-2---2--2--2---2--2--2---2--0--3---0---|


D#|-------------------------------------|-------------------------------------|------------------------------|
A#|-------------------------------------|-------------------------------------|------------------------------|
F#|-------------------------------------|-------------------------------------|------------------------------|
C#|-------------------------------------|-------------------------4-------9---|-9----------------------------|
G#|-2---2--2--2---2--2--2---2---5---4---|-4---4--4--4---4--4--4---2-------7---|-7----2---2---8---7---5---2---|
D#|-0---0--0--0---0--0--0---0---3---2---|-2---2--2--2---2--2--2---------------|------0---0---6---5---3---0---|


D#|---------------------------------|-----------------------------------|-----------------------------------|
A#|---------------------------------|-----------------------------------|-----------------------------------|
F#|---------------------------------|-----------------------------------|-----------------------------------|
C#|-------------9-------------------|-----------------------------------|-----------------------------------|
G#|-2---2---2---7---2---8---2---2---|-2---2---2---2---8--8--7---2---2---|-2--2--4---2-------8---7---5---4---|
D#|-0---0---0-------0---6---0---0---|-0---0---0---0---6--6--5---0---0---|-3--3--5---3-------6---5---3---2---|


D#|-----------------------------------------|---------------------------------------|
A#|-----------------------------------------|---------------------------------------|
F#|-----------------------------------------|---------------------------------------|
C#|-----------------------------------------|---------------------------------------|
G#|-4---4--4--4---4--4--4---4--4--4---4--4--|-4---4--4--4---4--4--4---4--2--5---4---|
D#|-2---2--2--2---2--2--2---2--2--2---2--2--|-2---2--2--2---2--2--2---2--0--3---2---|


D#|-----------------------------------------|---------------------------------------|
A#|-----------------------------------------|---------------------------------------|
F#|-----------------------------------------|---------------------------------------|
C#|-----------------------------------------|-------------------------------5-------|
G#|-4---4--4--4---4--4--4---4--4--4---4--4--|-4---4--4--4---4--4--4---4--2--3---4---|
D#|-2---2--2--2---2--2--2---2--2--2---2--2--|-2---2--2--2---2--2--2---2--0------2---|


D#|---------------------------------------|-------------------------------------|-------------------------------------|
A#|---------------------------------------|-------------------------------------|-------------------------------------|
F#|---------------------------------------|-------------------------------------|-------------------------------------|
C#|---------------------------------------|-------------------------------------|-------------------------4-------9---|
G#|-4---4--4--4---4--4--4---4--2--5---2---|-2---2--2--2---2--2--2---2---5---4---|-4---4--4--4---4--4--4---2-------7---|
D#|-2---2--2--2---2--2--2---2--0--3---0---|-0---0--0--0---0--0--0---0---3---2---|-2---2--2--2---2--2--2---------------|


D#|------------------------------|---------------------------------|-----------------------------------|
A#|------------------------------|---------------------------------|-----------------------------------|
F#|------------------------------|---------------------------------|-----------------------------------|
C#|-9----------------------------|-------------9-------------------|-----------------------------------|
G#|-7----2---2---8---7---5---2---|-2---2---2---7---2---8---2---2---|-2---2---2---2---8--8--7---2---2---|
D#|------0---0---6---5---3---0---|-0---0---0-------0---6---0---0---|-0---0---0---0---6--6--5---0---0---|


D#|-----------------------------------|-----------------------------------------|---------------------------------------|
A#|-----------------------------------|-----------------------------------------|---------------------------------------|
F#|-----------------------------------|-----------------------------------------|---------------------------------------|
C#|-----------------------------------|-----------------------------------------|---------------------------------------|
G#|-2--2--4---2-------8---7---5---4---|-4---4--4--4---4--4--4---4--4--4---4--4--|-4---4--4--4---4--4--4---4--2--5---4---|
D#|-3--3--5---3-------6---5---3---2---|-2---2--2--2---2--2--2---2--2--2---2--2--|-2---2--2--2---2--2--2---2--0--3---2---|


D#|-----------------------------------------|---------------------------------------|
A#|-----------------------------------------|---------------------------------------|
F#|-----------------------------------------|---------------------------------------|
C#|-----------------------------------------|-------------------------------5-------|
G#|-4---4--4--4---4--4--4---4--4--4---4--4--|-4---4--4--4---4--4--4---4--2--3---4---|
D#|-2---2--2--2---2--2--2---2--2--2---2--2--|-2---2--2--2---2--2--2---2--0------2---|


D#|---------------------------------------|-------------------------------------|-------------------------------------|
A#|---------------------------------------|-------------------------------------|-------------------------------------|
F#|---------------------------------------|-------------------------------------|-------------------------------------|
C#|---------------------------------------|-------------------------------------|-------------------------4-------9---|
G#|-4---4--4--4---4--4--4---4--2--5---2---|-2---2--2--2---2--2--2---2---5---4---|-4---4--4--4---4--4--4---2-------7---|
D#|-2---2--2--2---2--2--2---2--0--3---0---|-0---0--0--0---0--0--0---0---3---2---|-2---2--2--2---2--2--2---------------|


D#|------------------------------|---------------------------------|-----------------------------------|
A#|------------------------------|---------------------------------|-----------------------------------|
F#|------------------------------|---------------------------------|-----------------------------------|
C#|-9----------------------------|-------------9-------------------|-----------------------------------|
G#|-7----2---2---8---7---5---2---|-2---2---2---7---2---8---2---2---|-2---2---2---2---8--8--7---2---2---|
D#|------0---0---6---5---3---0---|-0---0---0-------0---6---0---0---|-0---0---0---0---6--6--5---0---0---|


D#|-----------------------------------|-----------------------------------------|---------------------------------------|
A#|-----------------------------------|-----------------------------------------|---------------------------------------|
F#|-----------------------------------|-----------------------------------------|---------------------------------------|
C#|-----------------------------------|-----------------------------------------|---------------------------------------|
G#|-2--2--4---2-------8---7---5---4---|-4---4--4--4---4--4--4---4--4--4---4--4--|-4---4--4--4---4--4--4---4--2--5---4---|
D#|-3--3--5---3-------6---5---3---2---|-2---2--2--2---2--2--2---2--2--2---2--2--|-2---2--2--2---2--2--2---2--0--3---2---|


D#|-----------------------------------------|---------------------------------------|
A#|-----------------------------------------|---------------------------------------|
F#|-----------------------------------------|---------------------------------------|
C#|-----------------------------------------|-------------------------------5-------|
G#|-4---4--4--4---4--4--4---4--4--4---4--4--|-4---4--4--4---4--4--4---4--2--3---4---|
D#|-2---2--2--2---2--2--2---2--2--2---2--2--|-2---2--2--2---2--2--2---2--0------2---|


D#|---------------------------------------|-------------------------------------|-------------------------------------|
A#|---------------------------------------|-------------------------------------|-------------------------------------|
F#|---------------------------------------|-------------------------------------|-------------------------------------|
C#|---------------------------------------|-------------------------------------|-------------------------4-------9---|
G#|-4---4--4--4---4--4--4---4--2--5---2---|-2---2--2--2---2--2--2---2---5---4---|-4---4--4--4---4--4--4---2-------7---|
D#|-2---2--2--2---2--2--2---2--0--3---0---|-0---0--0--0---0--0--0---0---3---2---|-2---2--2--2---2--2--2---------------|


D#|------------------------------|---------------------------------|-----------------------------------|
A#|------------------------------|---------------------------------|-----------------------------------|
F#|------------------------------|---------------------------------|-----------------------------------|
C#|-9----------------------------|-------------9-------------------|-----------------------------------|
G#|-7----2---2---8---7---5---2---|-2---2---2---7---2---8---2---2---|-2---2---2---2---8--8--7---2---2---|
D#|------0---0---6---5---3---0---|-0---0---0-------0---6---0---0---|-0---0---0---0---6--6--5---0---0---|


D#|-----------------------------------|-----------------------------------------|-------------------------------------|
A#|-----------------------------------|-----------------------------------------|-------------------------------------|
F#|-----------------------------------|-----------------------------------------|-------------------------------------|
C#|-----------------------------------|-----------------------------------------|-------------------------------------|
G#|-2--2--4---2-------8---7---5---4---|-4---4--4--4---4--4--4---4--4--4---4--4--|-4---4--4--4---4--4--4---2---5---4---|
D#|-3--3--5---3-------6---5---3---2---|-2---2--2--2---2--2--2---2--2--2---2--2--|-2---2--2--2---2--2--2---0---3---2---|


D#|-----------------------------------------|-------------------------------------|
A#|-----------------------------------------|-------------------------------------|
F#|-----------------------------------------|-------------------------------------|
C#|-----------------------------------------|-----------------------------5-------|
G#|-4---4--4--4---4--4--4---4--4--4---4--4--|-4---4--4--4---4--4--4---2---3---4---|
D#|-2---2--2--2---2--2--2---2--2--2---2--2--|-2---2--2--2---2--2--2---0-------2---|


D#|-------------------------------------|-------------------------------------|------------------------------|
A#|-------------------------------------|-------------------------------------|------------------------------|
F#|-------------------------------------|-------------------------------------|------------------------------|
C#|-----------------------------5-------|-----------------------------5-------|---------5------------5-------|
G#|-4---4--4--4---4--4--4---2---3---4---|-4---4--4--4---4--4--4---2---3---4---|-4---2---3---4----2---3---4---|
D#|-2---2--2--2---2--2--2---0-------2---|-2---2--2--2---2--2--2---0-------2---|-2---0-------2----0-------2---|


D#|------------------------------|-------------------------------------------------|
A#|------------------------------|-------------------------------------------------|
F#|------------------------------|-------------------------------------------16-19-|
C#|----------------------5-------|----------------------------14-17-14-16-17-------|
G#|-4---2---5---4----2---3---2---|----------13-17-13-13-15-17----------------------|
D#|-2---0---3---2----0-----------|-12-14-15----------------------------------------|


D#|-------------------19-22-22---22---|-22--22-------------|-14-----|-14-----|-14-----|
A#|----------17-20-19-----------------|-----22-------------|--------|--------|--------|
F#|-16-18-19--------------------------|--------------------|--------|--------|-11-----|
C#|-----------------------------------|--------------------|--------|--------|--------|
G#|-----------------------------------|--------------------|--------|--------|--------|
D#|-----------------------------------|--------------------|--------|--------|--------|


D#|-14-----|-14-----|-------------|
A#|--------|--------|-------------|
F#|-11-----|-11-----|-4-----------|
C#|--------|--------|-4-----------|
G#|--------|--------|-2-----------|
D#|--------|--------|-------------|





Track 2: Poland Rhy.

D#|--------|--------|--------|--------|--------|--------|--------|--------|--------|
A#|--------|--------|--------|--------|--------|--------|--------|--------|--------|
F#|--------|--------|--------|--------|--------|--------|--------|--------|--------|
C#|-12-----|-12-----|-11-----|-11-----|-10-----|-10-----|-9------|-9------|-12-----|
G#|-10-----|-10-----|-9------|-9------|-8------|-8------|-7------|-7------|-10-----|
D#|--------|--------|--------|--------|--------|--------|--------|--------|--------|


D#|--------|--------|--------|--------|--------|--------|--------|--------|--------|
A#|--------|--------|--------|--------|--------|--------|--------|--------|--------|
F#|--------|--------|--------|--------|--------|--------|--------|--------|--------|
C#|-12-----|-11-----|-11-----|-10-----|-10-----|-9------|-9------|-12-----|-12-----|
G#|-10-----|-9------|-9------|-8------|-8------|-7------|-7------|-10-----|-10-----|
D#|--------|--------|--------|--------|--------|--------|--------|--------|--------|


D#|--------|--------|--------|--------|--------|--------|--------|--------|--------|
A#|--------|--------|--------|--------|--------|--------|--------|--------|--------|
F#|--------|--------|--------|--------|--------|--------|--------|--------|--------|
C#|-11-----|-11-----|-10-----|-10-----|-9------|-9------|-12-----|-12-----|-11-----|
G#|-9------|-9------|-8------|-8------|-7------|-7------|-10-----|-10-----|-9------|
D#|--------|--------|--------|--------|--------|--------|--------|--------|--------|


D#|--------|--------|--------|--------|--------|-----------------|-----------------------------------------------|
A#|--------|--------|--------|--------|--------|-----------------|-----------------------------------------------|
F#|--------|--------|--------|--------|--------|-----------------|-----------------------------------------------|
C#|-11-----|-10-----|-10-----|-9------|-9------|-9---------------|-2---------------------------------------------|
G#|-9------|-8------|-8------|-7------|-7------|-7---------------|-0---------------------------------------------|
D#|--------|--------|--------|--------|--------|-----------------|-----2--2--2--2--2--2--0--0--2--2--2--2--2--2--|


D#|-------------------------------------------|-----------------------------------------------|
A#|-------------------------------------------|-----------------------------------------------|
F#|-------------------------------------------|-----------------------------------------------|
C#|---------------------------------------2---|-2---------------------------------------------|
G#|-2-3-2-0-----------------------2-------0---|-0---------------------------------------------|
D#|---------2--2--2--2--2--2--0---0-----------|-----2--2--2--2--2--2--0--0--2--2--2--2--2--2--|


D#|-------------------------------------------|-----------------------------------------------|
A#|-------------------------------------------|-----------------------------------------------|
F#|-------------------------------------------|-----------------------------------------------|
C#|---------------------------------------2---|-2---------------------------------------------|
G#|-2-3-2-0-----------------------2-------0---|-0---------------------------------------------|
D#|---------2--2--2--2--2--2--0---0-----------|-----2--2--2--2--2--2--0--0--2--2--2--2--2--2--|


D#|-------------------------------------------|---------------------------------------------|
A#|-------------------------------------------|---------------------------------------------|
F#|-------------------------------------------|---------------------------------------------|
C#|---------------------------------------2---|-2-------------------------------------------|
G#|-2-3-2-0-----------------------2-------0---|-0-------------------------------------------|
D#|---------2--2--2--2--2--2--0---0-----------|-----2--2--2--2--2--2--0--0--2--2--2--2------|


D#|--------|-----------------------------------------|-----------------------------------|
A#|--------|-----------------------------------------|-----------------------------------|
F#|--------|-----------------------------------------|-----------------------------------|
C#|--------|-----------------------------------------|---------------15------14------8---|
G#|--------|-2---------------------------------------|---------------13------12------6---|
D#|--------|-0---0--0--0---0--0--0---0--0--0---0--0--|-0---0--0--0-------0-------0-------|


D#|-----------------------------------------|-------------------------------|-----------------------------------------|
A#|-----------------------------------------|-------------------------------|-----------------------------------------|
F#|-----------------------------------------|-------------------------------|-----------------------------------------|
C#|-9---9-----------------------------------|-----------4-------------------|-----------------------------------------|
G#|-7---7-----------------------------------|-----------2--------------3----|-2---------------------------------------|
D#|--------0--0---0--0--0---0--0--0---0--0--|-0---0--0-------0---0--0--1----|-0---0--0--0---0--0--0---0--0--0---0--0--|


D#|-----------------------------------|-----------------------------------------|-------------------------------|
A#|-----------------------------------|-----------------------------------------|-------------------------------|
F#|-----------------------------------|-----------------------------------------|-----------4-------------------|
C#|---------------15------14------8---|-9---9-----------------------------------|-----------4--------------3----|
G#|---------------13------12------6---|-7---7-----------------------------------|-----------2--------------3----|
D#|-0---0--0--0-------0-------0-------|--------0--0---0--0--0---0--0--0---0--0--|-0---0--0-------0---0--0--1----|


D#|-----------------------------------------|-----------------------------------|-----------------------------------------|
A#|-----------------------------------------|-----------------------------------|-----------------------------------------|
F#|-----------------------------------------|-----------------------------------|-----------------------------------------|
C#|-----------------------------------------|---------------15------14------8---|-9---9-----------------------------------|
G#|-2---------------------------------------|---------------13------12------6---|-7---7-----------------------------------|
D#|-0---0--0--0---0--0--0---0--0--0---0--0--|-0---0--0--0-------0-------0-------|--------0--0---0--0--0---0--0--0---0--0--|


D#|-------------------------------|-----------------------------------------|-----------------------------------|
A#|-------------------------------|-----------------------------------------|-----------------------------------|
F#|-------------------------------|-----------------------------------------|-----------------------------------|
C#|-----------4-------------------|-----------------------------------------|---------------15------14------8---|
G#|-----------2--------------3----|-2---------------------------------------|---------------13------12------6---|
D#|-0---0--0-------0---0--0--1----|-0---0--0--0---0--0--0---0--0--0---0--0--|-0---0--0--0-------0-------0-------|


D#|-----------------------------------------|-------------------------------|--------------------------------------------------|
A#|-----------------------------------------|-------------------------------|--------------------------------------------------|
F#|-----------------------------------------|-------------------------------|--------------------------------------------------|
C#|-9---9-----------------------------------|-----------4-------------------|--------------------------------------------------|
G#|-7---7-----------------------------------|-----------2--------------3----|-------------------------------------0-2-3--2--0--|
D#|--------0--0---0--0--0---0--0--0---0--0--|-0---0--0-------0---0--0--1----|-0--2--2--2--5--2--2--2--0--2--2--2---------------|


D#|--------------------------------------------------|--------------------------------------------------|
A#|--------------------------------------------------|--------------------------------------------------|
F#|--------------------------------------------------|--------------------------------------------------|
C#|--------------------------------------------------|--------------------------------------------------|
G#|-------------------------------------0-2-3--2--0--|-------------------------------------0-2-3--2--0--|
D#|-0--2--2--2--5--2--2--2--0--2--2--2---------------|-0--2--2--2--5--2--2--2--0--2--2--2---------------|


D#|--------------------------------------------------|--------------------------------------------------|
A#|--------------------------------------------------|--------------------------------------------------|
F#|--------------------------------------------------|--------------------------------------------------|
C#|--------------------------------------------------|--------------------------------------------------|
G#|-------------------------------------0-2-3--2--0--|-------------------------------------0-2-3--2--0--|
D#|-0--2--2--2--5--2--2--2--0--2--2--2---------------|-0--2--2--2--5--2--2--2--0--2--2--2---------------|


D#|--------------------------------------------------|--------------------------------------------------|
A#|--------------------------------------------------|--------------------------------------------------|
F#|--------------------------------------------------|--------------------------------------------------|
C#|--------------------------------------------------|--------------------------------------------------|
G#|-------------------------------------0-2-3--2--0--|-------------------------------------0-2-3--2--0--|
D#|-0--2--2--2--5--2--2--2--0--2--2--2---------------|-0--2--2--2--5--2--2--2--0--2--2--2---------------|


D#|------------------------------------------|-----------------------------------------|
A#|------------------------------------------|-----------------------------------------|
F#|------------------------------------------|-----------------------------------------|
C#|-------------------------------------4----|-----------------------------------------|
G#|-------------------------------------2----|-----------------------------------------|
D#|-0--2--2--2--5--2--2--2--0--2--2--2-------|-0---0--0--0---0--0--0---0--0--0---0--0--|


D#|-----------------------------------|---------------------------|-------------------------------|
A#|-----------------------------------|----------------------7----|-------------------------------|
F#|-----------------------------------|------------------9--------|-------------------------------|
C#|---------------15------14------8---|-9---9---------------------|-----------4-------------------|
G#|---------------13------12------6---|-7---7---5---2-------------|-----------2--------------3----|
D#|-0---0--0--0-------0-------0-------|---------3---0-------------|-0---0--0-------0---0--0--1----|


D#|-----------------------------------------|-----------------------------------|---------------------------|
A#|-----------------------------------------|-----------------------------------|----------------------7----|
F#|-----------------------------------------|-----------------------------------|------------------9--------|
C#|-----------------------------------------|---------------15------14------8---|-9---9---------------------|
G#|-----------------------------------------|---------------13------12------6---|-7---7---5---2-------------|
D#|-0---0--0--0---0--0--0---0--0--0---0--0--|-0---0--0--0-------0-------0-------|---------3---0-------------|


D#|-------------------------------|--------------------------------------------------|
A#|-------------------------------|--------------------------------------------------|
F#|-------------------------------|--------------------------------------------------|
C#|-----------4-------------------|--------------------------------------------------|
G#|-----------2--------------3----|-------------------------------------0-2-3--2--0--|
D#|-0---0--0-------0---0--0--1----|-0--2--2--2--5--2--2--2--0--2--2--2---------------|


D#|--------------------------------------------------|--------------------------------------------------|
A#|--------------------------------------------------|--------------------------------------------------|
F#|--------------------------------------------------|--------------------------------------------------|
C#|--------------------------------------------------|--------------------------------------------------|
G#|-------------------------------------0-2-3--2--0--|-------------------------------------0-2-3--2--0--|
D#|-0--2--2--2--5--2--2--2--0--2--2--2---------------|-0--2--2--2--5--2--2--2--0--2--2--2---------------|


D#|--------------------------------------------------|--------------------------------------------------|
A#|--------------------------------------------------|--------------------------------------------------|
F#|--------------------------------------------------|--------------------------------------------------|
C#|--------------------------------------------------|--------------------------------------------------|
G#|-------------------------------------0-2-3--2--0--|-------------------------------------0-2-3--2--0--|
D#|-0--2--2--2--5--2--2--2--0--2--2--2---------------|-0--2--2--2--5--2--2--2--0--2--2--2---------------|


D#|--------------------------------------------------|--------------------------------------------------|
A#|--------------------------------------------------|--------------------------------------------------|
F#|--------------------------------------------------|--------------------------------------------------|
C#|--------------------------------------------------|--------------------------------------------------|
G#|-------------------------------------0-2-3--2--0--|-------------------------------------0-2-3--2--0--|
D#|-0--2--2--2--5--2--2--2--0--2--2--2---------------|-0--2--2--2--5--2--2--2--0--2--2--2---------------|


D#|------------------------------------------|-------------------------------------------------|
A#|------------------------------------------|-------------------------------------------------|
F#|------------------------------------------|-------------------------------------------------|
C#|-------------------------------------4----|-------------------------------------------------|
G#|-------------------------------------2----|-------------------------------------4--5--4-----|
D#|-0--2--2--2--5--2--2--2--0--2--2--2-------|-2--4--4--4--7--4--4--4--2--4--4--4-----------7--|


D#|-------------------------------------------------|-------------------------------------------------|
A#|-------------------------------------------------|-------------------------------------------------|
F#|-------------------------------------------------|-------------------------------------------------|
C#|-------------------------------------------------|-------------------------------------------------|
G#|-------------------------------------4--5--4-----|-------------------------------------4--5--4-----|
D#|-2--4--4--4--7--4--4--4--2--4--4--4-----------7--|-2--4--4--4--7--4--4--4--2--4--4--4-----------7--|


D#|-------------------------------------------------|-------------------------------------------------|
A#|-------------------------------------------------|-------------------------------------------------|
F#|-------------------------------------------------|-------------------------------------------------|
C#|-------------------------------------------------|-------------------------------------------------|
G#|-------------------------------------4--5--4-----|-------------------------------------4--5--4-----|
D#|-2--4--4--4--7--4--4--4--2--4--4--4-----------7--|-2--4--4--4--7--4--4--4--2--4--4--4-----------7--|


D#|-------------------------------------------------|-------------------------------------------------|
A#|-------------------------------------------------|-------------------------------------------------|
F#|-------------------------------------------------|-------------------------------------------------|
C#|-------------------------------------------------|-------------------------------------------------|
G#|-------------------------------------4--5--4-----|-------------------------------------4--5--4-----|
D#|-2--4--4--4--7--4--4--4--2--4--4--4-----------7--|-2--4--4--4--7--4--4--4--2--4--4--4-----------7--|


D#|---------------------------------------------|---------------------------------|
A#|---------------------------------------------|---------------------------------|
F#|---------------------------------------------|---------------------------------|
C#|-------------------------------------4---4---|-9---9---------------------------|
G#|-------------------------------------2---2---|-7---7-----------5---4-------4---|
D#|-2--4--4--4--7--4--4--4--2--4--4--4----------|---------0---0---3---2---0---2---|


D#|---------------------------------|------------------------------|---------------------------------|
A#|---------------------------------|------------------------------|---------------------------------|
F#|---------------------------------|------------------------------|---------------------------------|
C#|---------------------7-------9---|-9----------------------------|---------------------7-------9---|
G#|-----8-------9-------5-------7---|-7------------5---4-------4---|-----8-------9-------5-------7---|
D#|-----6-------7-------------------|------0---0---3---2---0---2---|-----6-------7-------------------|


D#|------------------------------|---------------------------------|------------------------------|
A#|------------------------------|---------------------------------|------------------------------|
F#|------------------------------|---------------------------------|------------------------------|
C#|-9----------------------------|---------------------7-------9---|-9----------------------------|
G#|-7------------5---4-------4---|-----8-------9-------5-------7---|-7------------5---4-------4---|
D#|------0---0---3---2---0---2---|-----6-------7-------------------|------0---0---3---2---0---2---|


D#|---------------------------------|--------------------|--------------------|--------------------|
A#|---------------------------------|--------------------|--------------------|--------------------|
F#|---------------------------------|--------------------|--------------------|--------------------|
C#|---------------------7-------9---|-9--------------9---|-9--------------9---|-9------------------|
G#|-----8-------9-------5-------7---|-7--------------7---|-7--------------7---|-7--------------2---|
D#|-----6-------7-------------------|--------------------|--------------------|----------------0---|


D#|-------------|--------------------|--------------------|--------------------|-------------|
A#|-------------|--------------------|--------------------|--------------------|-------------|
F#|-------------|--------------------|--------------------|--------------------|-------------|
C#|-------------|-9--------------9---|-9--------------9---|-9------------------|-------------|
G#|-2------2----|-7--------------7---|-7--------------7---|-7--------------2---|-2------2----|
D#|-0-----------|--------------------|--------------------|----------------0---|-0-----------|


D#|--------------------|--------------------|--------------------|-------------|--------------------|
A#|--------------------|--------------------|--------------------|-------------|--------------------|
F#|--------------------|--------------------|--------------------|-------------|--------------------|
C#|-9--------------9---|-9--------------9---|-9------------------|-------------|-9--------------9---|
G#|-7--------------7---|-7--------------7---|-7--------------2---|-2------2----|-7--------------7---|
D#|--------------------|--------------------|----------------0---|-0-----------|--------------------|


D#|--------------------|--------------------|-------------|-----------------|--------|
A#|--------------------|--------------------|-------------|-----------------|--------|
F#|--------------------|--------------------|-------------|-----------------|--------|
C#|-9--------------9---|-9------------------|-------------|-----------------|--------|
G#|-7--------------7---|-7--------------2---|-2------5----|-2---------------|--------|
D#|--------------------|----------------0---|-0-----------|-0---------------|--------|


D#|--------|-----------------------|--------|--------|--------|-----------------------|
A#|--------|-----------------------|--------|--------|--------|-----------------------|
F#|--------|-----------------------|--------|--------|--------|-------------------9---|
C#|--------|-------------------2---|-2------|-2------|-2------|-2---------------------|
G#|--------|-------8---7---5---2---|-2------|-2------|-2------|-2-----8---7---5---7---|
D#|--------|-------6---5---3---0---|-0------|-0------|--------|-------6---5---3-------|


D#|---------------------------------------|---------------------------------|-----------------------------------|
A#|---------------------------------------|---------------------------------|-----------------------------------|
F#|-9---------------15-15-14-14-12-12-9---|-9-----------9-------7-------9---|-9---------------7--7--9-----------|
C#|---------------------------------------|---------------------------------|-----------------------------------|
G#|-7---2---2---2---13-13-12-12-10-10-7---|-7---2---2---7---2---5---2---7---|-7---2---2---2---5--5--7---2---2---|
D#|-----0---0---0-------------------------|-----0---0-------0-------0-------|-----0---0---0-------------0---0---|


D#|-----------------------------------|---------------------------------------|---------------------------------|
A#|-----------------------------------|---------------------------------------|---------------------------------|
F#|-4--4--6---4-------9---9---7---9---|-9---------------15-15-14-14-12-12-9---|-9-----------9-------7-------9---|
C#|-----------------------------------|---------------------------------------|---------------------------------|
G#|-2--2--4---2-------7---7---5---7---|-7---2---2---2---13-13-12-12-10-10-7---|-7---2---2---7---2---5---2---7---|
D#|-----------------------------------|-----0---0---0-------------------------|-----0---0-------0-------0-------|


D#|-----------------------------------|-----------------------------------|---------------------------------------|
A#|-----------------------------------|-----------------------------------|---------------------------------------|
F#|-9---------------7--7--9-----------|-4--4--6---4-------9---9---7---9---|-9---------------15-15-14-14-12-12-9---|
C#|-----------------------------------|-----------------------------------|---------------------------------------|
G#|-7---2---2---2---5--5--7---2---2---|-2--2--4---2-------7---7---5---7---|-7---2---2---2---13-13-12-12-10-10-7---|
D#|-----0---0---0-------------0---0---|-----------------------------------|-----0---0---0-------------------------|


D#|---------------------------------|-----------------------------------|-----------------------------------|
A#|---------------------------------|-----------------------------------|-----------------------------------|
F#|-9-----------9-------7-------9---|-9---------------7--7--9-----------|-4--4--6---4-------9---9---7---9---|
C#|---------------------------------|-----------------------------------|-----------------------------------|
G#|-7---2---2---7---2---5---2---7---|-7---2---2---2---5--5--7---2---2---|-2--2--4---2-------7---7---5---7---|
D#|-----0---0-------0-------0-------|-----0---0---0-------------0---0---|-----------------------------------|


D#|---------------------------------------|---------------------------------|-----------------------------------|
A#|---------------------------------------|---------------------------------|-----------------------------------|
F#|-9---------------15-15-14-14-12-12-9---|-9-----------9-------7-------9---|-9---------------7--7--9-----------|
C#|---------------------------------------|---------------------------------|-----------------------------------|
G#|-7---2---2---2---13-13-12-12-10-10-7---|-7---2---2---7---2---5---2---7---|-7---2---2---2---5--5--7---2---2---|
D#|-----0---0---0-------------------------|-----0---0-------0-------0-------|-----0---0---0-------------0---0---|


D#|-----------------------------------|-----------------------------------------|---------------------------------------|
A#|-----------------------------------|-----------------------------------------|---------------------------------------|
F#|-4--4--6---4-----------------------|-----------------------------------------|---------------------------------------|
C#|-----------------------------------|-----------------------------------------|---------------------------------------|
G#|-2--2--4---2-------8---7---5---4---|-4---4--4--4---4--4--4---4--4--4---4--4--|-4---4--4--4---4--4--4---4--2--5---4---|
D#|-------------------6---5---3---2---|-2---2--2--2---2--2--2---2--2--2---2--2--|-2---2--2--2---2--2--2---2--0--3---2---|


D#|-----------------------------------------|---------------------------------------|
A#|-----------------------------------------|---------------------------------------|
F#|-----------------------------------------|---------------------------------------|
C#|-----------------------------------------|-------------------------------5-------|
G#|-4---4--4--4---4--4--4---4--4--4---4--4--|-4---4--4--4---4--4--4---4--2--3---4---|
D#|-2---2--2--2---2--2--2---2--2--2---2--2--|-2---2--2--2---2--2--2---2--0------2---|


D#|---------------------------------------|-------------------------------------|-------------------------------------|
A#|---------------------------------------|-------------------------------------|-------------------------------------|
F#|---------------------------------------|-------------------------4---7---6---|-6-------------------------------9---|
C#|---------------------------------------|-------------------------------------|-------------------------4-----------|
G#|-4---4--4--4---4--4--4---4--2--5---2---|-2---2--2--2---2--2--2---2---5---4---|-4---4--4--4---4--4--4---2-------7---|
D#|-2---2--2--2---2--2--2---2--0--3---0---|-0---0--0--0---0--0--0---------------|-----2--2--2---2--2--2---------------|


D#|------------------------------------|---------------------------------|-----------------------------------|
A#|------------------------------------|---------------------------------|-----------------------------------|
F#|-9------------15-15-14-14-12-12-9---|-9-----------9-------7-------9---|-9---------------7--7--9-----------|
C#|------------------------------------|---------------------------------|-----------------------------------|
G#|-7----2---2---13-13-12-12-10-10-7---|-7---2---2---7---2---5---2---7---|-7---2---2---2---5--5--7---2---2---|
D#|------0---0-------------------------|-----0---0-------0-------0-------|-----0---0---0-------------0---0---|


D#|-----------------------------------|-----------------------------------------|---------------------------------------|
A#|-----------------------------------|-----------------------------------------|---------------------------------------|
F#|-4--4--5---4-----------------------|-----------------------------------------|---------------------------------------|
C#|-----------------------------------|-----------------------------------------|---------------------------------------|
G#|-2--2--4---2-------8---7---5---4---|-4---4--4--4---4--4--4---4--4--4---4--4--|-4---4--4--4---4--4--4---4--2--5---4---|
D#|-------------------6---5---3---2---|-2---2--2--2---2--2--2---2--2--2---2--2--|-2---2--2--2---2--2--2---2--0--3---2---|


D#|-----------------------------------------|---------------------------------------|
A#|-----------------------------------------|---------------------------------------|
F#|-----------------------------------------|---------------------------------------|
C#|-----------------------------------------|-------------------------------5-------|
G#|-4---4--4--4---4--4--4---4--4--4---4--4--|-4---4--4--4---4--4--4---4--2--3---4---|
D#|-2---2--2--2---2--2--2---2--2--2---2--2--|-2---2--2--2---2--2--2---2--0------2---|


D#|---------------------------------------|-------------------------------------|-------------------------------------|
A#|---------------------------------------|-------------------------------------|-------------------------------------|
F#|---------------------------------------|-------------------------4---7---6---|-6-------------------------------9---|
C#|---------------------------------------|-------------------------------------|-------------------------4-----------|
G#|-4---4--4--4---4--4--4---4--2--5---2---|-2---2--2--2---2--2--2---2---5---4---|-4---4--4--4---4--4--4---2-------7---|
D#|-2---2--2--2---2--2--2---2--0--3---0---|-0---0--0--0---0--0--0---------------|-----2--2--2---2--2--2---------------|


D#|------------------------------------|---------------------------------|-----------------------------------|
A#|------------------------------------|---------------------------------|-----------------------------------|
F#|-9------------15-15-14-14-12-12-9---|-9-----------9-------7-------9---|-9---------------7--7--9-----------|
C#|------------------------------------|---------------------------------|-----------------------------------|
G#|-7----2---2---13-13-12-12-10-10-7---|-7---2---2---7---2---5---2---7---|-7---2---2---2---5--5--7---2---2---|
D#|------0---0-------------------------|-----0---0-------0-------0-------|-----0---0---0-------------0---0---|


D#|-----------------------------------|-----------------------------------------|---------------------------------------|
A#|-----------------------------------|-----------------------------------------|---------------------------------------|
F#|-4--4--5---4-----------------------|-----------------------------------------|---------------------------------------|
C#|-----------------------------------|-----------------------------------------|---------------------------------------|
G#|-2--2--4---2-------8---7---5---4---|-4---4--4--4---4--4--4---4--4--4---4--4--|-4---4--4--4---4--4--4---4--2--5---4---|
D#|-------------------6---5---3---2---|-2---2--2--2---2--2--2---2--2--2---2--2--|-2---2--2--2---2--2--2---2--0--3---2---|


D#|-----------------------------------------|---------------------------------------|
A#|-----------------------------------------|---------------------------------------|
F#|-----------------------------------------|---------------------------------------|
C#|-----------------------------------------|-------------------------------5-------|
G#|-4---4--4--4---4--4--4---4--4--4---4--4--|-4---4--4--4---4--4--4---4--2--3---4---|
D#|-2---2--2--2---2--2--2---2--2--2---2--2--|-2---2--2--2---2--2--2---2--0------2---|


D#|---------------------------------------|-------------------------------------|-------------------------------------|
A#|---------------------------------------|-------------------------------------|-------------------------------------|
F#|---------------------------------------|-------------------------4---7---6---|-6-------------------------------9---|
C#|---------------------------------------|-------------------------------------|-------------------------4-----------|
G#|-4---4--4--4---4--4--4---4--2--5---2---|-2---2--2--2---2--2--2---2---5---4---|-4---4--4--4---4--4--4---2-------7---|
D#|-2---2--2--2---2--2--2---2--0--3---0---|-0---0--0--0---0--0--0---------------|-----2--2--2---2--2--2---------------|


D#|------------------------------------|---------------------------------|-----------------------------------|
A#|------------------------------------|---------------------------------|-----------------------------------|
F#|-9------------15-15-14-14-12-12-9---|-9-----------9-------7-------9---|-9---------------7--7--9-----------|
C#|------------------------------------|---------------------------------|-----------------------------------|
G#|-7----2---2---13-13-12-12-10-10-7---|-7---2---2---7---2---5---2---7---|-7---2---2---2---5--5--7---2---2---|
D#|------0---0-------------------------|-----0---0-------0-------0-------|-----0---0---0-------------0---0---|


D#|-----------------------------------|-----------------------------------------|---------------------------------------|
A#|-----------------------------------|-----------------------------------------|---------------------------------------|
F#|-4--4--5---4-----------------------|-----------------------------------------|---------------------------------------|
C#|-----------------------------------|-----------------------------------------|---------------------------------------|
G#|-2--2--4---2-------8---7---5---4---|-4---4--4--4---4--4--4---4--4--4---4--4--|-4---4--4--4---4--4--4---4--2--5---4---|
D#|-------------------6---5---3---2---|-2---2--2--2---2--2--2---2--2--2---2--2--|-2---2--2--2---2--2--2---2--0--3---2---|


D#|-----------------------------------------|---------------------------------------|
A#|-----------------------------------------|---------------------------------------|
F#|-----------------------------------------|---------------------------------------|
C#|-----------------------------------------|-------------------------------5-------|
G#|-4---4--4--4---4--4--4---4--4--4---4--4--|-4---4--4--4---4--4--4---4--2--3---4---|
D#|-2---2--2--2---2--2--2---2--2--2---2--2--|-2---2--2--2---2--2--2---2--0------2---|


D#|---------------------------------------|-------------------------------------|-------------------------------------|
A#|---------------------------------------|-------------------------------------|-------------------------------------|
F#|---------------------------------------|-------------------------4---7---6---|-6-------------------------------9---|
C#|---------------------------------------|-------------------------------------|-------------------------4-----------|
G#|-4---4--4--4---4--4--4---4--2--5---2---|-2---2--2--2---2--2--2---2---5---4---|-4---4--4--4---4--4--4---2-------7---|
D#|-2---2--2--2---2--2--2---2--0--3---0---|-0---0--0--0---0--0--0---------------|-----2--2--2---2--2--2---------------|


D#|------------------------------------|---------------------------------|-----------------------------------|
A#|------------------------------------|---------------------------------|-----------------------------------|
F#|-9------------15-15-14-14-12-12-9---|-9-----------9-------7-------9---|-9---------------7--7--9-----------|
C#|------------------------------------|---------------------------------|-----------------------------------|
G#|-7----2---2---13-13-12-12-10-10-7---|-7---2---2---7---2---5---2---7---|-7---2---2---2---5--5--7---2---2---|
D#|------0---0-------------------------|-----0---0-------0-------0-------|-----0---0---0-------------0---0---|


D#|-----------------------------------|-----------------------------------------|-------------------------------------|
A#|-----------------------------------|-----------------------------------------|-------------------------------------|
F#|-4--4--5---4-----------------------|-----------------------------------------|-------------------------------------|
C#|-----------------------------------|-----------------------------------------|-------------------------------------|
G#|-2--2--4---2-------8---7-----------|-----4--4--4---4--4--4---4--4--4---4--4--|-4---4--4--4---4--4--4---2---5---4---|
D#|-------------------6---5---3---3---|-3---2--2--2---2--2--2---2--2--2---2--2--|-2---2--2--2---2--2--2---0---3---2---|


D#|-----------------------------------------|-------------------------------------|
A#|-----------------------------------------|-------------------------------------|
F#|-----------------------------------------|-------------------------------------|
C#|-----------------------------------------|-----------------------------5-------|
G#|-4---4--4--4---4--4--4---4--4--4---4--4--|-4---4--4--4---4--4--4---2---3---4---|
D#|-2---2--2--2---2--2--2---2--2--2---2--2--|-2---2--2--2---2--2--2---0-------2---|


D#|-------------------------------------|-------------------------------------|------------------------------|
A#|-------------------------------------|-------------------------------------|------------------------------|
F#|-------------------------------------|-------------------------------------|------------------------------|
C#|-----------------------------5-------|-----------------------------5-------|---------5------------5-------|
G#|-4---4--4--4---4--4--4---2---3---4---|-4---4--4--4---4--4--4---2---3---4---|-4---2---3---4----2---3---4---|
D#|-2---2--2--2---2--2--2---0-------2---|-2---2--2--2---2--2--2---0-------2---|-2---0-------2----0-------2---|


D#|------------------------------|------------|---------------------|--------|--------|
A#|------------------------------|------------|---------------------|--------|--------|
F#|------------------------------|------------|---------------------|-4------|-4------|
C#|----------------------5-------|------------|---------------------|-4------|-4------|
G#|-4---2---5---4----2---3---2---|-2----------|-2---------3---------|-2------|-2------|
D#|-2---0---3---2----0-------0---|-0----------|-0---------1---------|--------|--------|


D#|--------|--------|--------|--------|-------------|
A#|--------|--------|--------|--------|-------------|
F#|-4------|-4------|-4------|-4------|-4-----------|
C#|-4------|-4------|-4------|-4------|-4-----------|
G#|-2------|-2------|-2------|-2------|-2-----------|
D#|--------|--------|--------|--------|-------------|





Track 3: Solo Gtr.

D#|--------|--------|--------|--------|--------|--------|--------|--------|--------|
A#|--------|--------|--------|--------|--------|--------|--------|--------|--------|
F#|--------|--------|--------|--------|--------|--------|--------|--------|--------|
C#|--------|--------|--------|--------|--------|--------|--------|--------|--------|
G#|--------|--------|--------|--------|--------|--------|--------|--------|--------|
D#|--------|--------|--------|--------|--------|--------|--------|--------|--------|


D#|--------|--------|--------|--------|--------|--------|--------|--------|--------|
A#|--------|--------|--------|--------|--------|--------|--------|--------|--------|
F#|--------|--------|--------|--------|--------|--------|--------|--------|--------|
C#|--------|--------|--------|--------|--------|--------|--------|--------|--------|
G#|--------|--------|--------|--------|--------|--------|--------|--------|--------|
D#|--------|--------|--------|--------|--------|--------|--------|--------|--------|


D#|--------|--------|--------|--------|--------|--------|--------|--------|--------|
A#|--------|--------|--------|--------|--------|--------|--------|--------|--------|
F#|--------|--------|--------|--------|--------|--------|--------|--------|--------|
C#|--------|--------|--------|--------|--------|--------|--------|--------|--------|
G#|--------|--------|--------|--------|--------|--------|--------|--------|--------|
D#|--------|--------|--------|--------|--------|--------|--------|--------|--------|


D#|--------|--------|--------|--------|--------|--------|--------|--------|--------|
A#|--------|--------|--------|--------|--------|--------|--------|--------|--------|
F#|--------|--------|--------|--------|--------|--------|--------|--------|--------|
C#|--------|--------|--------|--------|--------|--------|--------|--------|--------|
G#|--------|--------|--------|--------|--------|--------|--------|--------|--------|
D#|--------|--------|--------|--------|--------|--------|--------|--------|--------|


D#|--------|--------|--------|------------12-12-|-17-15-12----------------------------------------------|
A#|--------|--------|--------|------------------|----------17-15-12----------17-15-12-------------------|
F#|--------|--------|--------|------------------|-------------------15-14-12----------15-14-12----------|
C#|--------|--------|--------|------------------|----------------------------------------------15-14-12-|
G#|--------|--------|--------|------------------|-------------------------------------------------------|
D#|--------|--------|--------|------------------|-------------------------------------------------------|


D#|-14-15-14-12-14-12----12-14-15-14-12-14-12----12-|-14-15-14-12-15-17-15-12-14-15-14-12-14-12----12-|
A#|-------------------15----------------------15----|-------------------------------------------15----|
F#|-------------------------------------------------|-------------------------------------------------|
C#|-------------------------------------------------|-------------------------------------------------|
G#|-------------------------------------------------|-------------------------------------------------|
D#|-------------------------------------------------|-------------------------------------------------|


D#|-14-15-14-12-14-12----12-14-15-14-12-14-12----12-|---------------------------------------------|
A#|-------------------15----------------------15----|-15-16-15-12-15-12----12---------------------|
F#|-------------------------------------------------|-------------------15----15-14-12----14--14--|
C#|-------------------------------------------------|----------------------------------14---------|
G#|-------------------------------------------------|---------------------------------------------|
D#|-------------------------------------------------|---------------------------------------------|


D#|-14-15-14-12-14-12----12-14-15-14-12-14-12----12-|-14-15-14-12-15-17-15-12-14-15-14-12-14-12----12-|
A#|-------------------15----------------------15----|-------------------------------------------15----|
F#|-------------------------------------------------|-------------------------------------------------|
C#|-------------------------------------------------|-------------------------------------------------|
G#|-------------------------------------------------|-------------------------------------------------|
D#|-------------------------------------------------|-------------------------------------------------|


D#|-14-15-14-12-14-12----12-14-15-14-12-14-12----12-|-------------------------------------------------|
A#|-------------------15----------------------15----|-15-16-15-12-15-12----12-------------------12-12-|
F#|-------------------------------------------------|-------------------15----15-14-12----14-14-------|
C#|-------------------------------------------------|----------------------------------14-------------|
G#|-------------------------------------------------|-------------------------------------------------|
D#|-------------------------------------------------|-------------------------------------------------|


D#|-12----------------------------------------------|-------------------------------------------------|
A#|----15-12----12-15-12----12----------------------|-------------------------------------------------|
F#|----------15----------15----15-14-12-15-14-12----|-14-12-------12----------------------------------|
C#|----------------------------------------------14-|-------14-12----14-12----14-12-------12----12-14-|
G#|-------------------------------------------------|----------------------14-------14-12----14-------|
D#|-------------------------------------------------|-------------------------------------------------|


D#|-12----------------------------------------------|-------------------------------------------------|
A#|----15-12----15-12-------12----------------------|-------------------------------------------------|
F#|----------15-------15-14----15-14-12-15-14-12----|-14-12-------12----------------------------------|
C#|----------------------------------------------14-|-------14-12----14-12----14-12-------12----12-14-|
G#|-------------------------------------------------|----------------------14-------14-12----14-------|
D#|-------------------------------------------------|-------------------------------------------------|


D#|-12-7--7--7--10-7--12-7--7--7--10-7--12-7--7--7--|-12-7--7--7--10-7--12-7--7--7--10-7--10-7-107-10---|
A#|-------------------------------------------------|---------------------------------------------------|
F#|-------------------------------------------------|---------------------------------------------------|
C#|-------------------------------------------------|---------------------------------------------------|
G#|-------------------------------------------------|---------------------------------------------------|
D#|-------------------------------------------------|---------------------------------------------------|


D#|-19-15-12----12-19-15-12----12-19-15-12----12-19-15-12----12-|-19-15-12----12-19-15-12----12-19-15-12----12-19-15-15----15-|
A#|----------12-------------12-------------12-------------12----|----------12-------------12-------------12-------------15----|
F#|-------------------------------------------------------------|-------------------------------------------------------------|
C#|-------------------------------------------------------------|-------------------------------------------------------------|
G#|-------------------------------------------------------------|-------------------------------------------------------------|
D#|-------------------------------------------------------------|-------------------------------------------------------------|


D#|----------------------|--------|--------|--------|--------|--------|--------|--------|
A#|-17-17---17-17--17----|--------|--------|--------|--------|--------|--------|--------|
F#|------------17--17----|--------|--------|--------|--------|--------|--------|--------|
C#|----------------------|--------|--------|--------|--------|--------|--------|--------|
G#|----------------------|--------|--------|--------|--------|--------|--------|--------|
D#|----------------------|--------|--------|--------|--------|--------|--------|--------|


D#|--------|--------|--------|--------|--------|--------|--------|--------|--------|
A#|--------|--------|--------|--------|--------|--------|--------|--------|--------|
F#|--------|--------|--------|--------|--------|--------|--------|--------|--------|
C#|--------|--------|--------|--------|--------|--------|--------|--------|--------|
G#|--------|--------|--------|--------|--------|--------|--------|--------|--------|
D#|--------|--------|--------|--------|--------|--------|--------|--------|--------|


D#|--------|--------|--------|--------|--------|--------|--------|--------|--------|
A#|--------|--------|--------|--------|--------|--------|--------|--------|--------|
F#|--------|--------|--------|--------|--------|--------|--------|--------|--------|
C#|--------|--------|--------|--------|--------|--------|--------|--------|--------|
G#|--------|--------|--------|--------|--------|--------|--------|--------|--------|
D#|--------|--------|--------|--------|--------|--------|--------|--------|--------|


D#|--------|--------|--------|--------|--------|--------|--------|--------|--------|
A#|--------|--------|--------|--------|--------|--------|--------|--------|--------|
F#|--------|--------|--------|--------|--------|--------|--------|--------|--------|
C#|--------|--------|--------|--------|--------|--------|--------|--------|--------|
G#|--------|--------|--------|--------|--------|--------|--------|--------|--------|
D#|--------|--------|--------|--------|--------|--------|--------|--------|--------|


D#|--------|--------|--------|--------|--------|--------|--------|--------|--------|
A#|--------|--------|--------|--------|--------|--------|--------|--------|--------|
F#|--------|--------|--------|--------|--------|--------|--------|--------|--------|
C#|--------|--------|--------|--------|--------|--------|--------|--------|--------|
G#|--------|--------|--------|--------|--------|--------|--------|--------|--------|
D#|--------|--------|--------|--------|--------|--------|--------|--------|--------|


D#|--------|--------|--------|--------|--------|--------|--------|--------|--------|
A#|--------|--------|--------|--------|--------|--------|--------|--------|--------|
F#|--------|--------|--------|--------|--------|--------|--------|--------|--------|
C#|--------|--------|--------|--------|--------|--------|--------|--------|--------|
G#|--------|--------|--------|--------|--------|--------|--------|--------|--------|
D#|--------|--------|--------|--------|--------|--------|--------|--------|--------|


D#|--------|--------|--------|--------|--------|--------|--------|--------|--------|
A#|--------|--------|--------|--------|--------|--------|--------|--------|--------|
F#|--------|--------|--------|--------|--------|--------|--------|--------|--------|
C#|--------|--------|--------|--------|--------|--------|--------|--------|--------|
G#|--------|--------|--------|--------|--------|--------|--------|--------|--------|
D#|--------|--------|--------|--------|--------|--------|--------|--------|--------|


D#|--------|--------|--------|--------|--------|--------|--------|--------|--------|
A#|--------|--------|--------|--------|--------|--------|--------|--------|--------|
F#|--------|--------|--------|--------|--------|--------|--------|--------|--------|
C#|--------|--------|--------|--------|--------|--------|--------|--------|--------|
G#|--------|--------|--------|--------|--------|--------|--------|--------|--------|
D#|--------|--------|--------|--------|--------|--------|--------|--------|--------|


D#|--------|--------|--------|--------|--------|--------|--------|--------|--------|
A#|--------|--------|--------|--------|--------|--------|--------|--------|--------|
F#|--------|--------|--------|--------|--------|--------|--------|--------|--------|
C#|--------|--------|--------|--------|--------|--------|--------|--------|--------|
G#|--------|--------|--------|--------|--------|--------|--------|--------|--------|
D#|--------|--------|--------|--------|--------|--------|--------|--------|--------|


D#|--------|--------|--------|--------|--------|--------|--------|--------|--------|
A#|--------|--------|--------|--------|--------|--------|--------|--------|--------|
F#|--------|--------|--------|--------|--------|--------|--------|--------|--------|
C#|--------|--------|--------|--------|--------|--------|--------|--------|--------|
G#|--------|--------|--------|--------|--------|--------|--------|--------|--------|
D#|--------|--------|--------|--------|--------|--------|--------|--------|--------|


D#|--------|--------|--------|--------|--------|--------|--------|--------|--------|
A#|--------|--------|--------|--------|--------|--------|--------|--------|--------|
F#|--------|--------|--------|--------|--------|--------|--------|--------|--------|
C#|--------|--------|--------|--------|--------|--------|--------|--------|--------|
G#|--------|--------|--------|--------|--------|--------|--------|--------|--------|
D#|--------|--------|--------|--------|--------|--------|--------|--------|--------|


D#|--------|--------|--------|--------|--------|--------|--------|--------|--------|
A#|--------|--------|--------|--------|--------|--------|--------|--------|--------|
F#|--------|--------|--------|--------|--------|--------|--------|--------|--------|
C#|--------|--------|--------|--------|--------|--------|--------|--------|--------|
G#|--------|--------|--------|--------|--------|--------|--------|--------|--------|
D#|--------|--------|--------|--------|--------|--------|--------|--------|--------|


D#|--------|--------|--------|--------|--------|--------|--------|--------|--------|
A#|--------|--------|--------|--------|--------|--------|--------|--------|--------|
F#|--------|--------|--------|--------|--------|--------|--------|--------|--------|
C#|--------|--------|--------|--------|--------|--------|--------|--------|--------|
G#|--------|--------|--------|--------|--------|--------|--------|--------|--------|
D#|--------|--------|--------|--------|--------|--------|--------|--------|--------|


D#|--------|--------|--------|--------|--------|--------|--------|--------|--------|
A#|--------|--------|--------|--------|--------|--------|--------|--------|--------|
F#|--------|--------|--------|--------|--------|--------|--------|--------|--------|
C#|--------|--------|--------|--------|--------|--------|--------|--------|--------|
G#|--------|--------|--------|--------|--------|--------|--------|--------|--------|
D#|--------|--------|--------|--------|--------|--------|--------|--------|--------|


D#|--------|--------|--------|--------|--------|--------|--------|--------|--------|
A#|--------|--------|--------|--------|--------|--------|--------|--------|--------|
F#|--------|--------|--------|--------|--------|--------|--------|--------|--------|
C#|--------|--------|--------|--------|--------|--------|--------|--------|--------|
G#|--------|--------|--------|--------|--------|--------|--------|--------|--------|
D#|--------|--------|--------|--------|--------|--------|--------|--------|--------|


D#|--------|--------|--------|--------|--------|--------|--------|
A#|--------|--------|--------|--------|--------|--------|--------|
F#|--------|--------|--------|--------|--------|--------|--------|
C#|--------|--------|--------|--------|--------|--------|--------|
G#|--------|--------|--------|--------|--------|--------|--------|
D#|--------|--------|--------|--------|--------|--------|--------|





Track 4: Mustaine Rhy.

D#|--------|--------|--------|--------|--------|--------|--------|--------|--------|
A#|--------|--------|--------|--------|--------|--------|--------|--------|--------|
F#|--------|--------|--------|--------|--------|--------|--------|--------|--------|
C#|--------|--------|--------|--------|--------|--------|--------|--------|--------|
G#|--------|--------|--------|--------|--------|--------|--------|--------|--------|
D#|--------|--------|--------|--------|--------|--------|--------|--------|--------|


D#|--------|--------|--------|--------|--------|--------|--------|--------|--------|
A#|--------|--------|--------|--------|--------|--------|--------|--------|--------|
F#|--------|--------|--------|--------|--------|--------|--------|--------|--------|
C#|--------|--------|--------|--------|--------|--------|--------|--------|--------|
G#|--------|--------|--------|--------|--------|--------|--------|--------|--------|
D#|--------|--------|--------|--------|--------|--------|--------|--------|--------|


D#|--------|--------|--------|--------|--------|--------|--------|--------|--------|
A#|--------|--------|--------|--------|--------|--------|--------|--------|--------|
F#|--------|--------|--------|--------|--------|--------|--------|--------|--------|
C#|--------|--------|--------|--------|--------|--------|--------|--------|--------|
G#|--------|--------|--------|--------|--------|--------|--------|--------|--------|
D#|--------|--------|--------|--------|--------|--------|--------|--------|--------|


D#|--------|--------|--------|--------|--------|--------|--------|--------|--------|
A#|--------|--------|--------|--------|--------|--------|--------|--------|--------|
F#|--------|--------|--------|--------|--------|--------|--------|--------|--------|
C#|--------|--------|--------|--------|--------|--------|--------|--------|--------|
G#|--------|--------|--------|--------|--------|--------|--------|--------|--------|
D#|--------|--------|--------|--------|--------|--------|--------|--------|--------|


D#|--------|--------|--------|------------------|------------------------|--------|
A#|--------|--------|--------|------------------|------------------------|--------|
F#|--------|--------|--------|------------------|------------------------|--------|
C#|--------|--------|--------|------------------|------------------------|--------|
G#|--------|--------|--------|------------------|-2----------------------|--------|
D#|--------|--------|--------|------------2--2--|-0-----------------5----|--------|


D#|--------|--------|--------|--------|--------|--------|--------|--------|--------|
A#|--------|--------|--------|--------|--------|--------|--------|--------|--------|
F#|--------|--------|--------|--------|--------|--------|--------|--------|--------|
C#|--------|--------|--------|--------|--------|--------|--------|--------|--------|
G#|--------|--------|--------|--------|--------|--------|--------|--------|--------|
D#|--------|--------|--------|--------|--------|--------|--------|--------|--------|


D#|--------|--------|--------|--------|--------|--------|--------|--------|--------|
A#|--------|--------|--------|--------|--------|--------|--------|--------|--------|
F#|--------|--------|--------|--------|--------|--------|--------|--------|--------|
C#|--------|--------|--------|--------|--------|--------|--------|--------|--------|
G#|--------|--------|--------|--------|--------|--------|--------|--------|--------|
D#|--------|--------|--------|--------|--------|--------|--------|--------|--------|


D#|--------|--------|--------|--------|--------|--------|--------|--------|--------|
A#|--------|--------|--------|--------|--------|--------|--------|--------|--------|
F#|--------|--------|--------|--------|--------|--------|--------|--------|--------|
C#|--------|--------|--------|--------|--------|--------|--------|--------|--------|
G#|--------|--------|--------|--------|--------|--------|--------|--------|--------|
D#|--------|--------|--------|--------|--------|--------|--------|--------|--------|


D#|--------|--------|--------|--------|--------|--------|--------|--------|--------|
A#|--------|--------|--------|--------|--------|--------|--------|--------|--------|
F#|--------|--------|--------|--------|--------|--------|--------|--------|--------|
C#|--------|--------|--------|--------|--------|--------|--------|--------|--------|
G#|--------|--------|--------|--------|--------|--------|--------|--------|--------|
D#|--------|--------|--------|--------|--------|--------|--------|--------|--------|


D#|--------|--------|--------|--------|--------|--------|--------|--------|--------|
A#|--------|--------|--------|--------|--------|--------|--------|--------|--------|
F#|--------|--------|--------|--------|--------|--------|--------|--------|--------|
C#|--------|--------|--------|--------|--------|--------|--------|--------|--------|
G#|--------|--------|--------|--------|--------|--------|--------|--------|--------|
D#|--------|--------|--------|--------|--------|--------|--------|--------|--------|


D#|--------|--------|--------|--------|--------|--------|--------|--------|--------|
A#|--------|--------|--------|--------|--------|--------|--------|--------|--------|
F#|--------|--------|--------|--------|--------|--------|--------|--------|--------|
C#|--------|--------|--------|--------|--------|--------|--------|--------|--------|
G#|--------|--------|--------|--------|--------|--------|--------|--------|--------|
D#|--------|--------|--------|--------|--------|--------|--------|--------|--------|


D#|--------|--------|--------|--------|--------|--------|--------|--------|--------|
A#|--------|--------|--------|--------|--------|--------|--------|--------|--------|
F#|--------|--------|--------|--------|--------|--------|--------|--------|--------|
C#|--------|--------|--------|--------|--------|--------|--------|--------|--------|
G#|--------|--------|--------|--------|--------|--------|--------|--------|--------|
D#|--------|--------|--------|--------|--------|--------|--------|--------|--------|


D#|--------|--------|--------|--------|--------|--------|--------|--------|--------|
A#|--------|--------|--------|--------|--------|--------|--------|--------|--------|
F#|--------|--------|--------|--------|--------|--------|--------|--------|--------|
C#|--------|--------|--------|--------|--------|--------|--------|--------|--------|
G#|--------|--------|--------|--------|--------|--------|--------|--------|--------|
D#|--------|--------|--------|--------|--------|--------|--------|--------|--------|


D#|--------|--------|--------|--------|--------|--------|--------|--------|--------|
A#|--------|--------|--------|--------|--------|--------|--------|--------|--------|
F#|--------|--------|--------|--------|--------|--------|--------|--------|--------|
C#|--------|--------|--------|--------|--------|--------|--------|--------|--------|
G#|--------|--------|--------|--------|--------|--------|--------|--------|--------|
D#|--------|--------|--------|--------|--------|--------|--------|--------|--------|


D#|--------|--------|--------|--------|--------|--------|--------|--------|--------|
A#|--------|--------|--------|--------|--------|--------|--------|--------|--------|
F#|--------|--------|--------|--------|--------|--------|--------|--------|--------|
C#|--------|--------|--------|--------|--------|--------|--------|--------|--------|
G#|--------|--------|--------|--------|--------|--------|--------|--------|--------|
D#|--------|--------|--------|--------|--------|--------|--------|--------|--------|


D#|--------|--------|--------|--------|--------|--------|--------|--------|--------|
A#|--------|--------|--------|--------|--------|--------|--------|--------|--------|
F#|--------|--------|--------|--------|--------|--------|--------|--------|--------|
C#|--------|--------|--------|--------|--------|--------|--------|--------|--------|
G#|--------|--------|--------|--------|--------|--------|--------|--------|--------|
D#|--------|--------|--------|--------|--------|--------|--------|--------|--------|


D#|--------|--------|--------|--------|--------|--------|--------|--------|--------|
A#|--------|--------|--------|--------|--------|--------|--------|--------|--------|
F#|--------|--------|--------|--------|--------|--------|--------|--------|--------|
C#|--------|--------|--------|--------|--------|--------|--------|--------|--------|
G#|--------|--------|--------|--------|--------|--------|--------|--------|--------|
D#|--------|--------|--------|--------|--------|--------|--------|--------|--------|


D#|--------|--------|--------|--------|--------|--------|--------|--------|--------|
A#|--------|--------|--------|--------|--------|--------|--------|--------|--------|
F#|--------|--------|--------|--------|--------|--------|--------|--------|--------|
C#|--------|--------|--------|--------|--------|--------|--------|--------|--------|
G#|--------|--------|--------|--------|--------|--------|--------|--------|--------|
D#|--------|--------|--------|--------|--------|--------|--------|--------|--------|


D#|--------|--------|--------|--------|--------|--------|--------|--------|--------|
A#|--------|--------|--------|--------|--------|--------|--------|--------|--------|
F#|--------|--------|--------|--------|--------|--------|--------|--------|--------|
C#|--------|--------|--------|--------|--------|--------|--------|--------|--------|
G#|--------|--------|--------|--------|--------|--------|--------|--------|--------|
D#|--------|--------|--------|--------|--------|--------|--------|--------|--------|


D#|--------|--------|--------|--------|--------|--------|--------|--------|--------|
A#|--------|--------|--------|--------|--------|--------|--------|--------|--------|
F#|--------|--------|--------|--------|--------|--------|--------|--------|--------|
C#|--------|--------|--------|--------|--------|--------|--------|--------|--------|
G#|--------|--------|--------|--------|--------|--------|--------|--------|--------|
D#|--------|--------|--------|--------|--------|--------|--------|--------|--------|


D#|--------|--------|--------|--------|--------|--------|--------|--------|--------|
A#|--------|--------|--------|--------|--------|--------|--------|--------|--------|
F#|--------|--------|--------|--------|--------|--------|--------|--------|--------|
C#|--------|--------|--------|--------|--------|--------|--------|--------|--------|
G#|--------|--------|--------|--------|--------|--------|--------|--------|--------|
D#|--------|--------|--------|--------|--------|--------|--------|--------|--------|


D#|--------|--------|--------|--------|--------|--------|--------|--------|--------|
A#|--------|--------|--------|--------|--------|--------|--------|--------|--------|
F#|--------|--------|--------|--------|--------|--------|--------|--------|--------|
C#|--------|--------|--------|--------|--------|--------|--------|--------|--------|
G#|--------|--------|--------|--------|--------|--------|--------|--------|--------|
D#|--------|--------|--------|--------|--------|--------|--------|--------|--------|


D#|--------|--------|--------|
A#|--------|--------|--------|
F#|--------|--------|--------|
C#|--------|--------|--------|
G#|--------|--------|--------|
D#|--------|--------|--------|





Track 5: Ellefson

F#|--------|--------|--------|--------|--------|--------|--------|--------|---------------------|
C#|--------|--------|--------|--------|--------|--------|--------|--------|---------------------|
G#|--------|--------|--------|--------|--------|--------|--------|--------|---------------------|
D#|--------|--------|--------|--------|--------|--------|--------|--------|-0----0----0----0----|


F#|----------3-------2-----------|--------------------------|---------------------|
C#|--------------0-------0---1---|-2------------------------|---------------------|
G#|------------------------------|--------------------------|------2--------------|
D#|-0----0-----------------------|-----0---3--3--0-----0----|-0---------0----1----|


F#|---------------------|----------3-------2-----------|--------------------------|
C#|---------------------|--------------0-------0---1---|-2------------------------|
G#|---------------------|------------------------------|--------------------------|
D#|-0----0----0----0----|-0----0-----------------------|-----0---3--3--0-----0----|


F#|---------------------|---------------------|----------3-------2-----------|--------------------------|
C#|---------------------|---------------------|--------------0-------0---1---|-2------------------------|
G#|------2--------------|---------------------|------------------------------|--------------------------|
D#|-0---------0----1----|-0----0----0----0----|-0----0-----------------------|-----0---3--3--0-----0----|


F#|---------------------|---------------------|----------3-------2-----------|--------------------------|
C#|---------------------|---------------------|--------------0-------0---1---|-2------------------------|
G#|------2--------------|---------------------|------------------------------|--------------------------|
D#|-0---------0----1----|-0----0----0----0----|-0----0-----------------------|-----0---3--3--0-----0----|


F#|---------------------|---------------------|----------3-------2-----------|--------------------------|
C#|---------------------|---------------------|--------------0-------0---1---|-2------------------------|
G#|------2--------------|---------------------|------------------------------|--------------------------|
D#|-0---------0----1----|-0----0----0----0----|-0----0-----------------------|-----0---3--3--0-----0----|


F#|---------------------|---------------------|----------3-------2-----------|--------------------------|
C#|---------------------|---------------------|--------------0-------0---1---|-2------------------------|
G#|------2--------------|---------------------|------------------------------|--------------------------|
D#|-0---------0----1----|-0----0----0----0----|-0----0-----------------------|-----0---3--3--0-----0----|


F#|---------------------|-----------------|-----------------------------------------------|
C#|---------------------|-----------------|-----------------------------------------------|
G#|------2--------------|-----------------|-0---------------------------------------------|
D#|-0---------0----1----|-0---------------|-----2--2--2--2--2--2--0--2--2--2--2--2--2--2--|


F#|---------------------------------------|-----------------------------------------------|
C#|---------------------------------------|-----------------------------------------------|
G#|-0---------------------------------0---|-0---------------------------------------------|
D#|-----2--2--2--2--2--2--0---0-----------|-----2--2--2--2--2--2--0--2--2--2--2--2--2--2--|


F#|---------------------------------------|-----------------------------------------------|
C#|---------------------------------------|-----------------------------------------------|
G#|-0---------------------------------0---|-0---------------------------------------------|
D#|-----2--2--2--2--2--2--0---0-----------|-----2--2--2--2--2--2--0--2--2--2--2--2--2--2--|


F#|---------------------------------------|-----------------------------------------------|
C#|---------------------------------------|-----------------------------------------------|
G#|-0---------------------------------0---|-0---------------------------------------------|
D#|-----2--2--2--2--2--2--0---0-----------|-----2--2--2--2--2--2--0--2--2--2--2--2--2--2--|


F#|--------------------|---------------------|----------3-------2-----------|--------------------------|
C#|--------------------|---------------------|--------------0-------0---1---|-2------------------------|
G#|--------------------|---------------------|------------------------------|--------------------------|
D#|-0-------------5----|-0----0----0----0----|-0----0-----------------------|-----0---3--3--0-----0----|


F#|---------------------|---------------------|----------3-------2-----------|--------------------------|
C#|---------------------|---------------------|--------------0-------0---1---|-2------------------------|
G#|------2--------------|---------------------|------------------------------|--------------------------|
D#|-0---------0----1----|-0----0----0----0----|-0----0-----------------------|-----0---3--3--0-----0----|


F#|---------------------|---------------------|----------3-------2-----------|--------------------------|
C#|---------------------|---------------------|--------------0-------0---1---|-2------------------------|
G#|------2--------------|---------------------|------------------------------|--------------------------|
D#|-0---------0----1----|-0----0----0----0----|-0----0-----------------------|-----0---3--3--0-----0----|


F#|---------------------|---------------------|----------3-------2-----------|--------------------------|
C#|---------------------|---------------------|--------------0-------0---1---|-2------------------------|
G#|------2--------------|---------------------|------------------------------|--------------------------|
D#|-0---------0----1----|-0----0----0----0----|-0----0-----------------------|-----0---3--3--0-----0----|


F#|---------------------|-------------------------------------------------|-------------------------------------------------|
C#|---------------------|-------------------------------------------------|-------------------------------------------------|
G#|------2--------------|-------------------------------------2--3--2--0--|-------------------------------------2--3--2--0--|
D#|-0---------0----1----|-0--2--2--2--5--2--2--2--0--2--2--2--------------|-0--2--2--2--5--2--2--2--0--2--2--2--------------|


F#|-------------------------------------------------|-------------------------------------------------|
C#|-------------------------------------------------|-------------------------------------------------|
G#|-------------------------------------2--3--2--0--|-------------------------------------2--3--2--0--|
D#|-0--2--2--2--5--2--2--2--0--2--2--2--------------|-0--2--2--2--5--2--2--2--0--2--2--2--------------|


F#|-------------------------------------------------|-------------------------------------------------|
C#|-------------------------------------------------|-------------------------------------------------|
G#|-------------------------------------2--3--2--0--|-------------------------------------2--3--2--0--|
D#|-0--2--2--2--5--2--2--2--0--2--2--2--------------|-0--2--2--2--5--2--2--2--0--2--2--2--------------|


F#|-------------------------------------------------|------------------------------------------|
C#|-------------------------------------------------|------------------------------------------|
G#|-------------------------------------2--3--2--0--|-------------------------------------2----|
D#|-0--2--2--2--5--2--2--2--0--2--2--2--------------|-0--2--2--2--5--2--2--2--0--2--2--2-------|


F#|---------------------|----------3-------2-----------|--------------------------|
C#|---------------------|--------------0-------0---1---|-2------------------------|
G#|---------------------|------------------------------|--------------------------|
D#|-0----0----0----0----|-0----0-----------------------|-----0---3--3--0-----0----|


F#|---------------------|---------------------|----------3-------2-----------|--------------------------|
C#|---------------------|---------------------|--------------0-------0---1---|-2------------------------|
G#|------2--------------|---------------------|------------------------------|--------------------------|
D#|-0---------0----1----|-0----0----0----0----|-0----0-----------------------|-----0---3--3--0-----0----|


F#|---------------------|-------------------------------------------------|-------------------------------------------------|
C#|---------------------|-------------------------------------------------|-------------------------------------------------|
G#|------2--------------|-------------------------------------2--3--2--0--|-------------------------------------2--3--2--0--|
D#|-0---------0----1----|-0--2--2--2--5--2--2--2--0--2--2--2--------------|-0--2--2--2--5--2--2--2--0--2--2--2--------------|


F#|-------------------------------------------------|-------------------------------------------------|
C#|-------------------------------------------------|-------------------------------------------------|
G#|-------------------------------------2--3--2--0--|-------------------------------------2--3--2--0--|
D#|-0--2--2--2--5--2--2--2--0--2--2--2--------------|-0--2--2--2--5--2--2--2--0--2--2--2--------------|


F#|-------------------------------------------------|-------------------------------------------------|
C#|-------------------------------------------------|-------------------------------------------------|
G#|-------------------------------------2--3--2--0--|-------------------------------------2--3--2--0--|
D#|-0--2--2--2--5--2--2--2--0--2--2--2--------------|-0--2--2--2--5--2--2--2--0--2--2--2--------------|


F#|-------------------------------------------------|------------------------------------------|
C#|-------------------------------------------------|------------------------------------------|
G#|-------------------------------------2--3--2--0--|-------------------------------------2----|
D#|-0--2--2--2--5--2--2--2--0--2--2--2--------------|-0--2--2--2--5--2--2--2--0--2--2--2-------|


F#|-----------------------------------------|-----------------------------------------|
C#|-----------------------------------------|-----------------------------------------|
G#|-----------2-------------------4--5--4---|-----------2-------------------4--5--4---|
D#|-2--4--4------4--4---2--4--4-------------|-2--4--4------4--4---2--4--4-------------|


F#|-----------------------------------------|-----------------------------------------|
C#|-----------------------------------------|-----------------------------------------|
G#|-----------2-------------------4--5--4---|-----------2-------------------4--5--4---|
D#|-2--4--4------4--4---2--4--4-------------|-2--4--4------4--4---2--4--4-------------|


F#|-----------------------------------------|-----------------------------------------|
C#|-----------------------------------------|-----------------------------------------|
G#|-----------2-------------------4--5--4---|-----------2-------------------4--5--4---|
D#|-2--4--4------4--4---2--4--4-------------|-2--4--4------4--4---2--4--4-------------|


F#|-----------------------------------------|---------------------------------------|
C#|-----------------------------------------|---------------------------------------|
G#|-----------2-------------------4--5--4---|-----------2-------------------2---2---|
D#|-2--4--4------4--4---2--4--4-------------|-2--4--4------4--4---2--4--4-----------|


F#|---------------------------------|---------------------------------|------------------------------|
C#|---------------------------------|---------------------------------|------------------------------|
G#|-7---7---------------------------|-----1-------2-------5-------7---|-7----------------------------|
D#|---------0---0---3---2---0---2---|---------------------------------|------0---0---3---2---0---2---|


F#|---------------------------------|---------------------------------|---------------------------------|
C#|---------------------------------|---------------------------------|---------------------------------|
G#|-----1-------2-------5-------7---|-7---7---------------------------|-----1-------2-------5-------7---|
D#|---------------------------------|---------0---0---3---2---0---2---|---------------------------------|


F#|------------------------------|---------------------------------|--------------------|
C#|------------------------------|---------------------------------|--------------------|
G#|-7----------------------------|-----1-------2-------5-------7---|-7--------------7---|
D#|------0---0---3---2---0---2---|---------------------------------|--------------------|


F#|--------------------|--------------------|-------------|--------------------|--------------------|
C#|--------------------|--------------------|-------------|--------------------|--------------------|
G#|-7--------------7---|-7------------------|--------2----|-7--------------7---|-7--------------7---|
D#|--------------------|----------------0---|-0-----------|--------------------|--------------------|


F#|--------------------|-------------|--------------------|--------------------|--------------------|
C#|--------------------|-------------|--------------------|--------------------|--------------------|
G#|-7------------------|--------2----|-7--------------7---|-7--------------7---|-7------------------|
D#|----------------0---|-0-----------|--------------------|--------------------|----------------0---|


F#|-------------|--------------------|--------------------|--------------------|-------------|
C#|-------------|--------------------|--------------------|--------------------|-------------|
G#|--------2----|-7--------------7---|-7--------------7---|-7------------------|--------5----|
D#|-0-----------|--------------------|--------------------|----------------0---|-0-----------|


F#|-----------------|--------|--------|-----------------------|--------|--------|--------|
C#|-----------------|--------|--------|-----------------------|--------|--------|--------|
G#|-----------------|--------|--------|-------1---0-----------|--------|--------|--------|
D#|-0---------------|--------|--------|---------------3---0---|-0------|-0------|-0------|


F#|-----------------------------------|---------------------------------|---------------------------------|
C#|-----------------------------------|---------------------------------|---------------------------------|
G#|-------------------1---0-----------|-----------------1---0-----------|-------------7-------------------|
D#|-3--3--5---3---3-----------3---0---|-0---0---0---0-----------3---0---|-0---0---0-------0---6---0---0---|


F#|-----------------------------------|-----------------------------------|---------------------------------|
C#|-----------------------------------|-----------------------------------|---------------------------------|
G#|-----------------------------------|-------------------1---0-----------|-----------------1---0-----------|
D#|-0---0---0---0---6--6--5---0---0---|-3--3--5---3---3-----------3---0---|-0---0---0---0-----------3---0---|


F#|---------------------------------|-----------------------------------|-----------------------------------|
C#|---------------------------------|-----------------------------------|-----------------------------------|
G#|-------------7-------------------|-----------------------------------|-------------------1---0-----------|
D#|-0---0---0-------0---6---0---0---|-0---0---0---0---6--6--5---0---0---|-3--3--5---3---3-----------3---0---|


F#|---------------------------------|---------------------------------|-----------------------------------|
C#|---------------------------------|---------------------------------|-----------------------------------|
G#|-----------------1---0-----------|-------------7-------------------|-----------------------------------|
D#|-0---0---0---0-----------3---0---|-0---0---0-------0---6---0---0---|-0---0---0---0---6--6--5---0---0---|


F#|-----------------------------------|---------------------------------|---------------------------------|
C#|-----------------------------------|---------------------------------|---------------------------------|
G#|-------------------1---0-----------|-----------------1---0-----------|-------------7-------------------|
D#|-3--3--5---3---3-----------3---0---|-0---0---0---0-----------3---0---|-0---0---0-------0---6---0---0---|


F#|-----------------------------------|-----------------------------------|-----------------------------------------|
C#|-----------------------------------|-----------------------------------|-----------------------------------------|
G#|-----------------------------------|-------------------1---0-----------|-----------------------------------------|
D#|-0---0---0---0---6--6--5---0---0---|-3--3--5---3---3-----------3---2---|-2---2--2--2---2--2--2---2--2--2---2--2--|


F#|---------------------------------------|-----------------------------------------|
C#|---------------------------------------|-----------------------------------------|
G#|---------------------------------------|-----------------------------------------|
D#|-2---2--2--2---2--2--2---2--0--3---2---|-2---2--2--2---2--2--2---2--2--2---2--2--|


F#|---------------------------------------|---------------------------------------|
C#|---------------------------------------|---------------------------------------|
G#|-------------------------------3-------|---------------------------------------|
D#|-2---2--2--2---2--2--2---2--0------2---|-2---2--2--2---2--2--2---2--0--3---0---|


F#|-------------------------------------|-------------------------------------|------------------------------|
C#|-------------------------------------|-------------------------------------|------------------------------|
G#|-------------------------------------|-------------------------2-------7---|-7------------1---0-----------|
D#|-0---0--0--0---0--0--0---0---3---2---|-2---2--2--2---2--2--2---------------|------0---0-----------3---0---|


F#|---------------------------------|-----------------------------------|-----------------------------------|
C#|---------------------------------|-----------------------------------|-----------------------------------|
G#|-------------7-------------------|-----------------------------------|-------------------1---0-----------|
D#|-0---0---0-------0---6---0---0---|-0---0---0---0---6--6--5---0---0---|-3--3--5---3---3-----------3---2---|


F#|-----------------------------------------|---------------------------------------|
C#|-----------------------------------------|---------------------------------------|
G#|-----------------------------------------|---------------------------------------|
D#|-2---2--2--2---2--2--2---2--2--2---2--2--|-2---2--2--2---2--2--2---2--0--3---2---|


F#|-----------------------------------------|---------------------------------------|
C#|-----------------------------------------|---------------------------------------|
G#|-----------------------------------------|-------------------------------3-------|
D#|-2---2--2--2---2--2--2---2--2--2---2--2--|-2---2--2--2---2--2--2---2--0------2---|


F#|---------------------------------------|-------------------------------------|-------------------------------------|
C#|---------------------------------------|-------------------------------------|-------------------------------------|
G#|---------------------------------------|-------------------------------------|-------------------------2-------7---|
D#|-2---2--2--2---2--2--2---2--0--3---0---|-0---0--0--0---0--0--0---0---3---2---|-2---2--2--2---2--2--2---------------|


F#|------------------------------|---------------------------------|-----------------------------------|
C#|------------------------------|---------------------------------|-----------------------------------|
G#|-7------------1---0-----------|-------------7-------------------|-----------------------------------|
D#|------0---0-----------3---0---|-0---0---0-------0---6---0---0---|-0---0---0---0---6--6--5---0---0---|


F#|-----------------------------------|-----------------------------------------|---------------------------------------|
C#|-----------------------------------|-----------------------------------------|---------------------------------------|
G#|-------------------1---0-----------|-----------------------------------------|---------------------------------------|
D#|-3--3--5---3---3-----------3---2---|-2---2--2--2---2--2--2---2--2--2---2--2--|-2---2--2--2---2--2--2---2--0--3---2---|


F#|-----------------------------------------|---------------------------------------|
C#|-----------------------------------------|---------------------------------------|
G#|-----------------------------------------|-------------------------------3-------|
D#|-2---2--2--2---2--2--2---2--2--2---2--2--|-2---2--2--2---2--2--2---2--0------2---|


F#|---------------------------------------|-------------------------------------|-------------------------------------|
C#|---------------------------------------|-------------------------------------|-------------------------------------|
G#|---------------------------------------|-------------------------------------|-------------------------2-------7---|
D#|-2---2--2--2---2--2--2---2--0--3---0---|-0---0--0--0---0--0--0---0---3---2---|-2---2--2--2---2--2--2---------------|


F#|------------------------------|---------------------------------|-----------------------------------|
C#|------------------------------|---------------------------------|-----------------------------------|
G#|-7------------1---0-----------|-------------7-------------------|-----------------------------------|
D#|------0---0-----------3---0---|-0---0---0-------0---6---0---0---|-0---0---0---0---6--6--5---0---0---|


F#|-----------------------------------|-----------------------------------------|---------------------------------------|
C#|-----------------------------------|-----------------------------------------|---------------------------------------|
G#|-------------------1---0-----------|-----------------------------------------|---------------------------------------|
D#|-3--3--5---3---3-----------3---2---|-2---2--2--2---2--2--2---2--2--2---2--2--|-2---2--2--2---2--2--2---2--0--3---2---|


F#|-----------------------------------------|---------------------------------------|
C#|-----------------------------------------|---------------------------------------|
G#|-----------------------------------------|-------------------------------3-------|
D#|-2---2--2--2---2--2--2---2--2--2---2--2--|-2---2--2--2---2--2--2---2--0------2---|


F#|---------------------------------------|-------------------------------------|-------------------------------------|
C#|---------------------------------------|-------------------------------------|-------------------------------------|
G#|---------------------------------------|-------------------------------------|-------------------------2-------7---|
D#|-2---2--2--2---2--2--2---2--0--3---0---|-0---0--0--0---0--0--0---0---3---2---|-2---2--2--2---2--2--2---------------|


F#|------------------------------|---------------------------------|-----------------------------------|
C#|------------------------------|---------------------------------|-----------------------------------|
G#|-7------------1---0-----------|-------------7-------------------|-----------------------------------|
D#|------0---0-----------3---0---|-0---0---0-------0---6---0---0---|-0---0---0---0---6--6--5---0---0---|


F#|-----------------------------------|-----------------------------------------|---------------------------------------|
C#|-----------------------------------|-----------------------------------------|---------------------------------------|
G#|-------------------1---0-----------|-----------------------------------------|---------------------------------------|
D#|-3--3--5---3---3-----------3---2---|-2---2--2--2---2--2--2---2--2--2---2--2--|-2---2--2--2---2--2--2---2--0--3---2---|


F#|-----------------------------------------|---------------------------------------|
C#|-----------------------------------------|---------------------------------------|
G#|-----------------------------------------|-------------------------------3-------|
D#|-2---2--2--2---2--2--2---2--2--2---2--2--|-2---2--2--2---2--2--2---2--0------2---|


F#|---------------------------------------|---------------------------------------|
C#|---------------------------------------|---------------------------------------|
G#|-------------------------------3-------|-------------------------------3-------|
D#|-2---2--2--2---2--2--2---2--0------2---|-2---2--2--2---2--2--2---2--0------2---|


F#|------------------------------|------------------------------|------------|---------------------|
C#|------------------------------|------------------------------|------------|---------------------|
G#|---------3------------3-------|----------------------3-------|------------|---------------------|
D#|-2---0-------2----0-------2---|-2---0---3---2----0-------0---|-0----------|-0---------1---------|


F#|--------|--------|--------|--------|--------|--------|-------------|
C#|--------|--------|--------|--------|--------|--------|-------------|
G#|-2------|-2------|-2------|-2------|-2------|-2------|-2-----------|
D#|--------|--------|--------|--------|--------|--------|-------------|