Menu:

 

Search:

 

megadeth - tears in a vial:

 



Title: Tears In A Vial
Artist: 
Album: The System Has Failed
Author: Dave Mustaine


Track 1: Dave Mustaine Rhythm

E|---------------------------|---------------------------|---------------------------|
B|---------------------------|---------------------------|---------------------------|
G|-5-------------5-------4---|-4-------------4-------2---|-2-------------2-------1---|
D|-7-------------7-------5---|-5-------------5-------3---|-3-------------3-------2---|
A|------0----0-------0-------|------0----0-------0-------|------0----0-------0-------|
E|---------------------------|---------------------------|---------------------------|


E|---------------------------|---------------------------|---------------------------|
B|---------------------------|---------------------------|---------------------------|
G|-1-------------1-------5---|-5-------------5-------4---|-4-------------4-------7---|
D|-2-------------2-------7---|-7-------------7-------5---|-5-------------5-------7---|
A|------0----0-------0-------|------0----0-------0-------|------0----0-------0-------|
E|---------------------------|---------------------------|---------------------------|


E|---------------------------|---------------------------------|---------------------------|
B|---------------------------|-------------0-------------------|---------------------------|
G|-7-------------7-------7---|-7-------7-------7-------7---5---|-5-------------5-------4---|
D|-7-------------7-------6---|-6---6---------------6-------7---|-7-------------7-------5---|
A|------0----0-------0-------|---------------------------------|------0----0-------0-------|
E|---------------------------|---------------------------------|---------------------------|


E|---------------------------|---------------------------|---------------------------|
B|---------------------------|---------------------------|---------------------------|
G|-4-------------4-------2---|-2-------------2-------1---|-1-------------1-------5---|
D|-5-------------5-------3---|-3-------------3-------2---|-2-------------2-------7---|
A|------0----0-------0-------|------0----0-------0-------|------0----0-------0-------|
E|---------------------------|---------------------------|---------------------------|


E|---------------------------|---------------------------|---------------------------|
B|---------------------------|---------------------------|---------------------------|
G|-5-------------5-------4---|-4-------------4-------7---|-7-------------7-------7---|
D|-7-------------7-------5---|-5-------------5-------7---|-7-------------7-------6---|
A|------0----0-------0-------|------0----0-------0-------|------0----0-------0-------|
E|---------------------------|---------------------------|---------------------------|


E|---------------------------------|-------------------------------------|-------------------------------------|
B|-------------0-------------------|-------------------------------------|-------------------------------------|
G|-7-------7-------7-------7---5---|-5-----------------------5-------4---|-4-----------------------4-------2---|
D|-6---6---------------6-------7---|-7-----------------------7-------5---|-5-----------------------5-------3---|
A|---------------------------------|-----0--0--0---0--0--0-------0-------|-----0--0--0---0--0--0-------0-------|
E|---------------------------------|-------------------------------------|-------------------------------------|


E|-------------------------------------|-------------------------------------|-------------------------------------|
B|-------------------------------------|-------------------------------------|-------------------------------------|
G|-2-----------------------2-------1---|-1-----------------------1-------5---|-5-----------------------5-------4---|
D|-3-----------------------3-------2---|-2-----------------------2-------7---|-7-----------------------7-------5---|
A|-----0--0--0---0--0--0-------0-------|-----0--0--0---0--0--0-------0-------|-----0--0--0---0--0--0-------0-------|
E|-------------------------------------|-------------------------------------|-------------------------------------|


E|-------------------------------------|-------------------------------------|---------------------------------|
B|-------------------------------------|-------------------------------------|-------------0-------------------|
G|-4-----------------------4-------7---|-7-----------------------7-------7---|-7-------7-------7-------7---5---|
D|-5-----------------------5-------7---|-7-----------------------7-------6---|-6---6---------------6-------7---|
A|-----0--0--0---0--0--0-------0-------|-----0--0--0---0--0--0-------0-------|---------------------------------|
E|-------------------------------------|-------------------------------------|---------------------------------|


E|-------------------------------------|-------------------------------------|-------------------------------------|
B|-------------------------------------|-------------------------------------|-------------------------------------|
G|-5-----------------------5-------4---|-4-----------------------4-------2---|-2-----------------------2-------1---|
D|-7-----------------------7-------5---|-5-----------------------5-------3---|-3-----------------------3-------2---|
A|-----0--0--0---0--0--0-------0-------|-----0--0--0---0--0--0-------0-------|-----0--0--0---0--0--0-------0-------|
E|-------------------------------------|-------------------------------------|-------------------------------------|


E|-------------------------------------|-------------------------------------|---------------------------------|
B|-------------------------------------|-------------------------------------|---------------------------------|
G|-1-----------------------1-------2---|-2-----------------------2-------1---|-1-------------------------------|
D|-2-----------------------2-------3---|-3-----------------------3-------2---|-2-------------------------------|
A|-----0--0--0---0--0--0-------0-------|-----0--0--0---0--0--0-------0-------|-----0---0---0---0---0---0---0---|
E|-------------------------------------|-------------------------------------|---------------------------------|


E|---------------------------------|------------------------------|---------------------------------|
B|---------------------------------|------------------------------|---------------------------------|
G|---------------------------------|------------------------------|---------------------------------|
D|-----------------5---4-----------|------------------------------|-----------------5---4-----------|
A|-0---0---3---0-----------5-------|-----3---5--------3---5---0---|-0---0---3---0-----------5-------|
E|-----------------------------2---|-2-----------1----------------|-----------------------------2---|


E|------------------------------|---------------------------------|------------------------------|
B|------------------------------|---------------------------------|------------------------------|
G|------------------------------|---------------------------------|------------------------------|
D|------------------------------|-----------------5---4-----------|------------------------------|
A|-----3---5--------3---5---0---|-0---0---3---0-----------5-------|-----3---5--------3---5---2---|
E|-2-----------1----------------|-----------------------------2---|-2-----------1------------0---|


E|--------------------|---------------------------------|-------------------------------------|
B|--------------------|---------------------------------|-------------------------------------|
G|--------------------|---------------------------------|-------------------------5-------4---|
D|--------------------|---------------------------------|-------------------------7-------5---|
A|-2-----2---3----2---|-2---------------------------0---|-0---0--0--0---0--0--0-------0-------|
E|-0-----0---1----0---|-0---0---0---0---0---0---0-------|-------------------------------------|


E|-------------------------------------|-------------------------------------|-------------------------------------|
B|-------------------------------------|-------------------------------------|-------------------------------------|
G|-4-----------------------4-------5---|-5-----------------------5-------4---|-4-----------------------4-------5---|
D|-5-----------------------5-------4---|-4-----------------------4-------3---|-3-----------------------3-------7---|
A|-----0--0--0---0--0--0-------0-------|-----0--0--0---0--0--0-------0-------|-----0--0--0---0--0--0-------0-------|
E|-------------------------------------|-------------------------------------|-------------------------------------|


E|-------------------------------------|-------------------------------------|-------------------------------------|
B|-------------------------------------|-------------------------------------|-------------------------------------|
G|-5-----------------------5-------4---|-4-----------------------4-------5---|-5-----------------------5-------4---|
D|-7-----------------------7-------5---|-5-----------------------5-------4---|-4-----------------------4-------3---|
A|-----0--0--0---0--0--0-------0-------|-----0--0--0---0--0--0-------0-------|-----0--0--0---0--0--0-------0-------|
E|-------------------------------------|-------------------------------------|-------------------------------------|


E|---------------------------------|-------------------------------------|-------------------------------------|
B|---------------------------------|-------------------------------------|-------------------------------------|
G|-4---------------------------5---|-5-----------------------5-------4---|-4-----------------------4-------5---|
D|-3---------------------------7---|-7-----------------------7-------5---|-5-----------------------5-------4---|
A|-----0---0---0---0---0---0-------|-----0--0--0---0--0--0-------0-------|-----0--0--0---0--0--0-------0-------|
E|---------------------------------|-------------------------------------|-------------------------------------|


E|-------------------------------------|-------------------------------------|-------------------------------------|
B|-------------------------------------|-------------------------------------|-------------------------------------|
G|-5-----------------------5-------4---|-4-----------------------4-------5---|-5-----------------------5-------4---|
D|-4-----------------------4-------3---|-3-----------------------3-------7---|-7-----------------------7-------5---|
A|-----0--0--0---0--0--0-------0-------|-----0--0--0---0--0--0-------0-------|-----0--0--0---0--0--0-------0-------|
E|-------------------------------------|-------------------------------------|-------------------------------------|


E|-------------------------------------|-------------------------------------|---------------------------------|
B|-------------------------------------|-------------------------------------|-------------0-------------------|
G|-4-----------------------4-------7---|-7-----------------------7-------7---|-7-------7-------7-------7---5---|
D|-5-----------------------5-------7---|-7-----------------------7-------6---|-6---6---------------6-------7---|
A|-----0--0--0---0--0--0-------0-------|-----0--0--0---0--0--0-------0-------|---------------------------------|
E|-------------------------------------|-------------------------------------|---------------------------------|


E|-------------------------------------|-------------------------------------|-------------------------------------|
B|-------------------------------------|-------------------------------------|-------------------------------------|
G|-5-----------------------5-------4---|-4-----------------------4-------2---|-2-----------------------2-------1---|
D|-7-----------------------7-------5---|-5-----------------------5-------3---|-3-----------------------3-------2---|
A|-----0--0--0---0--0--0-------0-------|-----0--0--0---0--0--0-------0-------|-----0--0--0---0--0--0-------0-------|
E|-------------------------------------|-------------------------------------|-------------------------------------|


E|-------------------------------------|-------------------------------------|---------------------------------|
B|-------------------------------------|-------------------------------------|---------------------------------|
G|-1-----------------------1-------2---|-2-----------------------2-------1---|-1-------------------------------|
D|-2-----------------------2-------3---|-3-----------------------3-------2---|-2-------------------------------|
A|-----0--0--0---0--0--0-------0-------|-----0--0--0---0--0--0-------0-------|-----0---0---0---0---0---0---0---|
E|-------------------------------------|-------------------------------------|---------------------------------|


E|---------------------------------|------------------------------|---------------------------------|
B|---------------------------------|------------------------------|---------------------------------|
G|---------------------------------|------------------------------|---------------------------------|
D|-----------------5---4-----------|------------------------------|-----------------5---4-----------|
A|-0---0---3---0-----------5-------|-----3---5--------3---5---0---|-0---0---3---0-----------5-------|
E|-----------------------------2---|-2-----------1----------------|-----------------------------2---|


E|------------------------------|---------------------------------|------------------------------|
B|------------------------------|---------------------------------|------------------------------|
G|------------------------------|---------------------------------|------------------------------|
D|------------------------------|-----------------5---4-----------|------------------------------|
A|-----3---5--------3---5---0---|-0---0---3---0-----------5-------|-----3---5--------3---5---2---|
E|-2-----------1----------------|-----------------------------2---|-2-----------1------------0---|


E|--------------------|---------------------------------|---------------------------------|
B|--------------------|---------------------------------|---------------------------------|
G|--------------------|---------------------------------|---------------------------------|
D|--------------------|---------------------------------|-----------------5---4-----------|
A|-2-----2---3----2---|-2---------------------------0---|-0---0---3---0-----------5-------|
E|-0-----0---1----0---|-0---0---0---0---0---0---0-------|-----------------------------2---|


E|------------------------------|---------------------------------|------------------------------|
B|------------------------------|---------------------------------|------------------------------|
G|------------------------------|---------------------------------|------------------------------|
D|------------------------------|-----------------5---4-----------|------------------------------|
A|-----3---5--------3---5---0---|-0---0---3---0-----------5-------|-----3---5--------3---5---0---|
E|-2-----------1----------------|-----------------------------2---|-2-----------1----------------|


E|---------------------------------|------------------------------|--------------------|
B|---------------------------------|------------------------------|--------------------|
G|---------------------------------|------------------------------|--------------------|
D|-----------------5---4-----------|------------------------------|--------------------|
A|-0---0---3---0-----------5-------|-----3---5--------3---5---2---|-2-----2---3----2---|
E|-----------------------------2---|-2-----------1------------0---|-0-----0---1----0---|


E|---------------------------------|------------------------------|------------------------------|
B|---------------------------------|------------------------------|------------------------------|
G|---------------------------------|-----5--------7---5-----------|-----5--------7---5-----------|
D|-----------------------------7---|-7--------7-----------7---5---|-5--------5-----------5---4---|
A|-2-------------------------------|------------------------------|------------------------------|
E|-0---0---0---0---0---0---0-------|------------------------------|------------------------------|


E|------------------------------|---------------------------------|------------------------------|
B|------------------------------|---------------------------------|------------------------------|
G|-----5--------7---5-----------|-----5-----------7---5-----------|-----5--------7---5-----------|
D|-4--------4-----------4---3---|-3-------3---3-----------5---7---|-7--------7-----------7---5---|
A|------------------------------|---------------------------------|------------------------------|
E|------------------------------|---------------------------------|------------------------------|


E|------------------------------|------------------------------|---------------------------------|
B|------------------------------|------------------------------|---------------------------------|
G|-----5--------7---5-----------|-----5--------7---5-----------|-----5-----------7---5-----------|
D|-5--------5-----------5---4---|-4--------4-----------4---3---|-3-------3---3-----------5---7---|
A|------------------------------|------------------------------|---------------------------------|
E|------------------------------|------------------------------|---------------------------------|


E|------------------------------|------------------------------|------------------------------|
B|------------------------------|------------------------------|------------------------------|
G|-----5--------7---5-----------|-----5--------7---5-----------|-----5--------7---5-----------|
D|-7--------7-----------7---5---|-5--------5-----------5---4---|-4--------4-----------4---3---|
A|------------------------------|------------------------------|------------------------------|
E|------------------------------|------------------------------|------------------------------|


E|------------------------------|------------------------------|------------------------------|
B|------------------------------|------------------------------|------------------------------|
G|-----5--------7---5-----------|-----5--------7---5-----------|-----5--------7---5-----------|
D|-3--------7-----------5---7---|-7--------7-----------7---5---|-5--------5-----------5---4---|
A|------------------------------|------------------------------|------------------------------|
E|------------------------------|------------------------------|------------------------------|


E|------------------------------|---------------------------------|-------------------------------------|
B|------------------------------|---------------------------------|-------------------------------------|
G|-----5--------7---5-----------|-----------------------------5---|-5-----------------------5-------4---|
D|-4--------4-----------4-------|-----------------------------7---|-7-----------------------7-------5---|
A|--------------------------3---|-3-------------------------------|-----0--0--0---0--0--0-------0-------|
E|--------------------------1---|-1---1---1---1---1---1---1-------|-------------------------------------|


E|-------------------------------------|-------------------------------------|-------------------------------------|
B|-------------------------------------|-------------------------------------|-------------------------------------|
G|-4-----------------------4-------5---|-5-----------------------5-------4---|-4-----------------------4-------5---|
D|-5-----------------------5-------4---|-4-----------------------4-------3---|-3-----------------------3-------7---|
A|-----0--0--0---0--0--0-------0-------|-----0--0--0---0--0--0-------0-------|-----0--0--0---0--0--0-------0-------|
E|-------------------------------------|-------------------------------------|-------------------------------------|


E|-------------------------------------|-------------------------------------|-------------------------------------|
B|-------------------------------------|-------------------------------------|-------------------------------------|
G|-5-----------------------5-------4---|-4-----------------------4-------5---|-5-----------------------5-------4---|
D|-7-----------------------7-------5---|-5-----------------------5-------4---|-4-----------------------4-------3---|
A|-----0--0--0---0--0--0-------0-------|-----0--0--0---0--0--0-------0-------|-----0--0--0---0--0--0-------0-------|
E|-------------------------------------|-------------------------------------|-------------------------------------|


E|---------------------------------|-------------------------------------|-------------------------------------|
B|---------------------------------|-------------------------------------|-------------------------------------|
G|-4---------------------------5---|-5-----------------------5-------4---|-4-----------------------4-------5---|
D|-3---------------------------7---|-7-----------------------7-------5---|-5-----------------------5-------4---|
A|-----0---0---0---0---0---0-------|-----0--0--0---0--0--0-------0-------|-----0--0--0---0--0--0-------0-------|
E|---------------------------------|-------------------------------------|-------------------------------------|


E|-------------------------------------|-------------------------------------|-------------------------------------|
B|-------------------------------------|-------------------------------------|-------------------------------------|
G|-5-----------------------5-------4---|-4-----------------------4-------5---|-5-----------------------5-------4---|
D|-4-----------------------4-------3---|-3-----------------------3-------7---|-7-----------------------7-------5---|
A|-----0--0--0---0--0--0-------0-------|-----0--0--0---0--0--0-------0-------|-----0--0--0---0--0--0-------0-------|
E|-------------------------------------|-------------------------------------|-------------------------------------|


E|-------------------------------------|-------------------------------------|---------------------------------|
B|-------------------------------------|-------------------------------------|---------------------------------|
G|-4-----------------------4-------5---|-5-----------------------5-------4---|-4-------------------------------|
D|-5-----------------------5-------4---|-4-----------------------4-------3---|-3-----------------------7---10--|
A|-----0--0--0---0--0--0-------0-------|-----0--0--0---0--0--0-------0-------|-----0---0---0---0---7-----------|
E|-------------------------------------|-------------------------------------|---------------------------------|


E|------------------------------|------------------------------|------------------------------|
B|------------------------------|------------------------------|------------------------------|
G|------------------------------|------------------------------|------------------------------|
D|-10------7---10-------7---9---|-9-------7---9--------7---12--|-12------7---12-------7---10--|
A|-----7------------7-----------|-----7------------7-----------|-----7------------7-----------|
E|------------------------------|------------------------------|------------------------------|


E|------------------------------|------------------------------|------------------------------|
B|------------------------------|------------------------------|------------------------------|
G|------------------------------|------------------------------|------------------------------|
D|-10------7---9--------7---10--|-10------7---10-------7---9---|-9-------7---9--------5---7---|
A|-----7------------7-----------|-----7------------7-----------|-----7------------7-----------|
E|------------------------------|------------------------------|------------------------------|


E|------------------------------|---------------------------------|------------------------------|
B|------------------------------|---------------------------------|------------------------------|
G|------------------------------|---------------------------------|------------------------------|
D|-7-----------7------------6---|-6-------7-------6-------10--10--|-10------7---10-------7---9---|
A|-----5---8--------5---8-------|-----7-------7-------7-----------|-----7------------7-----------|
E|------------------------------|---------------------------------|------------------------------|


E|------------------------------|------------------------------|------------------------------|
B|------------------------------|------------------------------|------------------------------|
G|------------------------------|------------------------------|------------------------------|
D|-9-------7---9--------7---12--|-12------7---12-------7---10--|-10------7---9--------7---10--|
A|-----7------------7-----------|-----7------------7-----------|-----7------------7-----------|
E|------------------------------|------------------------------|------------------------------|


E|------------------------------|------------------------------|------------------------------|
B|------------------------------|------------------------------|------------------------------|
G|------------------------------|------------------------------|------------------------------|
D|-10------7---10-------7---9---|-9-------7---9--------5---7---|-7-----------7------------6---|
A|-----7------------7-----------|-----7------------7-----------|-----5---8--------5---8-------|
E|------------------------------|------------------------------|------------------------------|


E|---------------------------------|-----------------------|------------------------------|
B|---------------------------------|-----------------------|------------------------------|
G|-------------------------5---5---|-5-----5---7---5---4---|-4---5---4----------------5---|
D|-6-------7-------6---------------|-----------------------|-------------7----6-----------|
A|-----7-------7-------7-----------|-----------------------|----------------------7-------|
E|---------------------------------|-----------------------|------------------------------|


E|-----------------------|------------------------------|-----------------------|---------------------------|
B|-------------------5---|-5---6-------5----------------|-----------------------|---------------------------|
G|-5-----5---7---5-------|---------7--------7---5---4---|-5-----5---7---5---4---|-4---5---4-----------------|
D|-----------------------|------------------------------|-----------------------|-------------7----6--------|
A|-----------------------|------------------------------|-----------------------|----------------------7----|
E|-----------------------|------------------------------|-----------------------|---------------------------|


E|------------------|---------------------|-0------|-----------------------------------------|
B|-9----------------|---------------------|-0------|-----------------------------------------|
G|-------10----9----|-9---7-----5----4----|-5------|-----------------------------------------|
D|------------------|---------------------|-7------|-----------------------------------------|
A|------------------|---------------------|-0------|-0---0--0--0---0--0--0---0--0--0---0--0--|
E|------------------|---------------------|--------|-----------------------------------------|


E|-0------|-----------------------------------------|-0------|-----------------------------------------|
B|-0------|-----------------------------------------|-0------|-----------------------------------------|
G|-5------|-----------------------------------------|-5------|-----------------------------------------|
D|-7------|-----------------------------------------|-7------|-----------------------------------------|
A|-0------|-0---0--0--0---0--0--0---0--0--0---0--0--|-0------|-0---0--0--0---0--0--0---0--0--0---0--0--|
E|--------|-----------------------------------------|--------|-----------------------------------------|


E|-0------|-----------------------------------------|-----------------------------------------|
B|-0------|-----------------------------------------|-----------------------------------------|
G|-5------|-----------------------------------------|-----------------------------------------|
D|-7------|-----------------------------------------|-2---------------------------------------|
A|-0------|-0---0--0--0---0--0--0---0--0--0---0--0--|-0---0--0--0---0--0--0---0--0--0--0--2---|
E|--------|-----------------------------------------|-----------------------------------------|


E|-----------------------------------------|-----------------------------------------|
B|-----------------------------------------|-----------------------------------------|
G|-----------------------------------------|-----------------------------------------|
D|-----------------------------------------|-----------------------------------------|
A|-2---0--0--0---0--0--0---0--0--0--0--3---|-3---0--0--0---0--0--0---0--0--0--0------|
E|-----------------------------------------|-------------------------------------3---|


E|--------------------------------------|---------------------------------------------|
B|--------------------------------------|---------------------------------------------|
G|--------------------------------------|---------------------------------------------|
D|--------------------------------------|-----------------------------------------10--|
A|-----0--0--0--0-------0--0--0--0--3---|-3---------------------------------------8---|
E|-3---------------2----------------1---|-1---1--1--1--1--1--1--1--1--1--1--1--1------|


E|---------------------------------------------|---------------------------------|
B|---------------------------------------------|---------------------------------|
G|---------------------------------------------|---------------------------------|
D|-10------------------------------------------|-----8---9-------------------7---|
A|-8---8--8--8--8--8--8--8--8--8--8--8--8--7---|-7---6---7-------10--9---7---5---|
E|-----------------------------------------0---|-0-----------0---8---7---5-------|


E|------------------------------|-----------------------------------------|-----------------------------------------|
B|------------------------------|-----------------------------------------|-----------------------------------------|
G|------------------------------|-----------------------------------------|-----------------------------------------|
D|-7----------------4---5---2---|-2---------------------------------------|-----------------------------------------|
A|-5---5---4---2----2---3---0---|-0---0--0--0---0--0--0---0--0--0--0--2---|-2---0--0--0---0--0--0---0--0--0--0--3---|
E|-----3---2---0----------------|-----------------------------------------|-----------------------------------------|


E|-----------------------------------------|--------------------------------------|
B|-----------------------------------------|--------------------------------------|
G|-----------------------------------------|--------------------------------------|
D|-----------------------------------------|--------------------------------------|
A|-3---0--0--0---0--0--0---0--0--0--0------|-----0--0--0--0-------0--0--0--0--3---|
E|-------------------------------------3---|-3---------------2----------------1---|


E|---------------------------------------------|---------------------------------------------|
B|---------------------------------------------|---------------------------------------------|
G|---------------------------------------------|---------------------------------------------|
D|-----------------------------------------10--|-10------------------------------------------|
A|-3---------------------------------------8---|-8---8--8--8--8--8--8--8--8--8--8--8--8--7---|
E|-1---1--1--1--1--1--1--1--1--1--1--1--1------|-----------------------------------------0---|


E|---------------------------------|------------------------------|-----------------------------------------|
B|---------------------------------|------------------------------|-----------------------------------------|
G|---------------------------------|------------------------------|-----------------------------------------|
D|-----8---9-------------------7---|-7----------------4---5---2---|-2---------------------------------------|
A|-7---6---7-------10--9---7---5---|-5---5---4---2----2---3---0---|-0---0--0--0---0--0--0---0--0--0--0--2---|
E|-0-----------0---8---7---5-------|-----3---2---0----------------|-----------------------------------------|


E|-----------------------------------------|-----------------------------------------|
B|-----------------------------------------|-----------------------------------------|
G|-----------------------------------------|-----------------------------------------|
D|-----------------------------------------|-----------------------------------------|
A|-2---0--0--0---0--0--0---0--0--0--0--3---|-3---0--0--0---0--0--0---0--0--0--0------|
E|-----------------------------------------|-------------------------------------3---|


E|--------------------------------------|---------------------------------------------|
B|--------------------------------------|---------------------------------------------|
G|--------------------------------------|---------------------------------------------|
D|--------------------------------------|-----------------------------------------10--|
A|-----0--0--0--0-------0--0--0--0--3---|-3---------------------------------------8---|
E|-3---------------2----------------1---|-1---1--1--1--1--1--1--1--1--1--1--1--1------|


E|---------------------------------------------|---------------------------------|
B|---------------------------------------------|---------------------------------|
G|---------------------------------------------|---------------------------------|
D|-10------------------------------------------|-----8---9-------------------7---|
A|-8---8--8--8--8--8--8--8--8--8--8--8--8--7---|-7---6---7-------10--9---7---5---|
E|-----------------------------------------0---|-0-----------0---8---7---5-------|


E|------------------------------|-----------------------------------------|-----------------------------------------|
B|------------------------------|-----------------------------------------|-----------------------------------------|
G|------------------------------|-----------------------------------------|-----------------------------------------|
D|-7----------------4---5---2---|-2---------------------------------------|-----------------------------------------|
A|-5---5---4---2----2---3---0---|-0---0--0--0---0--0--0---0--0--0--0--2---|-2---0--0--0---0--0--0---0--0--0--0--3---|
E|-----3---2---0----------------|-----------------------------------------|-----------------------------------------|


E|-----------------------------------------|--------------------------------------|
B|-----------------------------------------|--------------------------------------|
G|-----------------------------------------|--------------------------------------|
D|-----------------------------------------|--------------------------------------|
A|-3---0--0--0---0--0--0---0--0--0--0------|-----0--0--0--0-------0--0--0--0--3---|
E|-------------------------------------3---|-3---------------2----------------1---|


E|---------------------------------------------|---------------------------------------------|
B|---------------------------------------------|---------------------------------------------|
G|---------------------------------------------|---------------------------------------------|
D|-----------------------------------------10--|-10------------------------------------------|
A|-3---------------------------------------8---|-8---8--8--8--8--8--8--8--8--8--8--8--8--7---|
E|-1---1--1--1--1--1--1--1--1--1--1--1--1------|-----------------------------------------0---|


E|---------------------------------|------------------------------|-0------|-----------------------------------------|
B|---------------------------------|------------------------------|-0------|-----------------------------------------|
G|---------------------------------|------------------------------|-5------|-----------------------------------------|
D|-----8---9-------------------7---|-7----------------4---5-------|-7------|-----------------------------------------|
A|-7---6---7-------10--9---7---5---|-5---5---4---2----2---3---0---|-0------|-0---0--0--0---0--0--0---0--0--0---0--0--|
E|-0-----------0---8---7---5-------|-----3---2---0----------------|--------|-----------------------------------------|


E|-0------|-----------------------------------------|-0------|-----------------------------------------|
B|-0------|-----------------------------------------|-0------|-----------------------------------------|
G|-5------|-----------------------------------------|-5------|-----------------------------------------|
D|-7------|-----------------------------------------|-7------|-----------------------------------------|
A|-0------|-0---0--0--0---0--0--0---0--0--0---0--0--|-0------|-0---0--0--0---0--0--0---0--0--0---0--0--|
E|--------|-----------------------------------------|--------|-----------------------------------------|


E|-0------|-----------------------------------------|-0------|-0------|-0------|-0------|
B|-0------|-----------------------------------------|-0------|-0------|-0------|-0------|
G|-5------|-----------------------------------------|-5------|-5------|-5------|-5------|
D|-7------|-----------------------------------------|-7------|-7------|-7------|-7------|
A|-0------|-0---0--0--0---0--0--0---0--0--0---0--0--|-0------|-0------|-0------|-0------|
E|--------|-----------------------------------------|--------|--------|--------|--------|





Track 2: Solos

E|--------|--------|--------|--------|--------|--------|--------|--------|--------|
B|--------|--------|--------|--------|--------|--------|--------|--------|--------|
G|--------|--------|--------|--------|--------|--------|--------|--------|--------|
D|--------|--------|--------|--------|--------|--------|--------|--------|--------|
A|--------|--------|--------|--------|--------|--------|--------|--------|--------|
E|--------|--------|--------|--------|--------|--------|--------|--------|--------|


E|--------|--------|--------|--------|--------|--------|--------|--------|--------|
B|--------|--------|--------|--------|--------|--------|--------|--------|--------|
G|--------|--------|--------|--------|--------|--------|--------|--------|--------|
D|--------|--------|--------|--------|--------|--------|--------|--------|--------|
A|--------|--------|--------|--------|--------|--------|--------|--------|--------|
E|--------|--------|--------|--------|--------|--------|--------|--------|--------|


E|--------|--------|--------|--------|-------------|--------|--------|--------|--------|
B|--------|--------|--------|--------|------15-----|-15-----|-15-----|-15-----|-15-----|
G|--------|--------|--------|--------|-------------|--------|--------|--------|--------|
D|--------|--------|--------|--------|-------------|--------|--------|--------|--------|
A|--------|--------|--------|--------|-------------|--------|--------|--------|--------|
E|--------|--------|--------|--------|-------------|--------|--------|--------|--------|


E|--------|--------|--------|--------|--------|--------|--------|--------|--------|
B|--------|--------|--------|--------|--------|--------|--------|--------|--------|
G|--------|--------|--------|--------|--------|--------|--------|--------|--------|
D|--------|--------|--------|--------|--------|--------|--------|--------|--------|
A|--------|--------|--------|--------|--------|--------|--------|--------|--------|
E|--------|--------|--------|--------|--------|--------|--------|--------|--------|


E|--------|------------|----------------|----------------|----------------|----------------|
B|--------|------------|----------------|----------------|----------------|----------------|
G|--------|------------|----------------|----------------|----------------|----------------|
D|--------|--------7---|-7------7---9---|-9------9---10--|-10-----10--12--|-12-----12--7---|
A|--------|------------|----------------|----------------|----------------|----------------|
E|--------|------------|----------------|----------------|----------------|----------------|


E|----------------|----------------|----------------|----------------|--------|--------|
B|----------------|----------------|----------------|----------------|--------|--------|
G|----------------|----------------|----------------|----------------|--------|--------|
D|-7------7---5---|-5------5---10--|-10-----10--9---|-9------9---10--|-10-----|-10-----|
A|----------------|----------------|----------------|----------------|--------|--------|
E|----------------|----------------|----------------|----------------|--------|--------|


E|--------|--------|--------|--------|--------|------10-----|-10-----|-10-----|-10---8------|
B|--------|--------|--------|-5------|-5------|-5----5------|--------|--------|-------------|
G|--------|--------|--------|--------|--------|-------------|--------|--------|-------------|
D|--------|--------|--------|--------|--------|-------------|--------|--------|-------------|
A|--------|--------|--------|--------|--------|-------------|--------|--------|-------------|
E|--------|--------|--------|--------|--------|-------------|--------|--------|-------------|


E|-8------|--------17--|-17-----|-17-----|--------|--------|--------|--------|--------|
B|--------|-5----------|--------|--------|--------|--------|--------|--------|--------|
G|--------|------------|--------|--------|--------|--------|--------|--------|--------|
D|--------|------------|--------|--------|--------|--------|--------|--------|--------|
A|--------|------------|--------|--------|--------|--------|--------|--------|--------|
E|--------|------------|--------|--------|--------|--------|--------|--------|--------|


E|--------|--------|--------|--------|--------|--------|--------|--------|--------|
B|--------|--------|--------|--------|--------|--------|--------|--------|--------|
G|--------|--------|--------|--------|--------|--------|--------|--------|--------|
D|--------|--------|--------|--------|--------|--------|--------|--------|--------|
A|--------|--------|--------|--------|--------|--------|--------|--------|--------|
E|--------|--------|--------|--------|--------|--------|--------|--------|--------|


E|------------|--------|--------|--------|--------|--------|--------|--------|--------|
B|------------|--------|--------|--------|--------|--------|--------|--------|--------|
G|--------8---|--------|--------|--------|--------|--------|--------|--------|--------|
D|------------|--------|--------|--------|--------|--------|--------|--------|--------|
A|------------|--------|--------|--------|--------|--------|--------|--------|--------|
E|------------|--------|--------|--------|--------|--------|--------|--------|--------|


E|--------|--------|--------|--------|--------|--------|--------|-----------15-17-20-|
B|-10-----|--------|--------|--------|--------|--------|--------|--------18----------|
G|--------|--------|--------|--------|--------|--------|--------|--------------------|
D|--------|--------|--------|--------|--------|--------|--------|--------------------|
A|--------|--------|--------|--------|--------|--------|--------|--------------------|
E|--------|--------|--------|--------|--------|--------|--------|--------------------|


E|-----17--17----17--17--|-17----17--17--17-17-------|--------------------------------------|
B|-----------------------|-----------------------17--|-18--17-17-17-1717--------17--18--18--|
G|-----------------------|---------------------------|------------------19--17--------------|
D|-----------------------|---------------------------|--------------------------------------|
A|-----------------------|---------------------------|--------------------------------------|
E|-----------------------|---------------------------|--------------------------------------|


E|--------------------|---------------------------------|------------------------------------------------------------|
B|-18----18---18--18--|-18----18--18--17-18-17----------|------------------------------------------------------------|
G|--------------------|------------------------19-17-21-|-19-17------------------------------------------------------|
D|--------------------|---------------------------------|-------21-19-17-19-17-15------------------------------------|
A|--------------------|---------------------------------|-------------------------19-17-15-20-19-17------------------|
E|--------------------|---------------------------------|-------------------------------------------20-19-17-15-15---|


E|--------------------------------|--------------------|-------------13----------|
B|--------------------------------|--------------17-16-|-16---16-16--------17-16-|
G|--------------------------------|--------------------|-------------------------|
D|--------------------------------|--------------------|-------------------------|
A|------12------12--14---14-10-8--|-12-8------8--------|-------------------------|
E|-12-------12--------------------|--------------------|-------------------------|


E|-------------------------------|----20----20--------|---------------------------------|
B|-16---16-16--------15----15-15-|-17-------------18--|-18----17------------------------|
G|-------------17-------17-------|--------------------|----------19-16-19-19-19--19-21--|
D|-------------------------------|--------------------|---------------------------------|
A|-------------------------------|--------------------|---------------------------------|
E|-------------------------------|--------------------|---------------------------------|


E|-------------------------------|------------------------------|-----------------------|
B|-------------------------------|---------------------------20-|-16---16-16----16--13--|
G|-21--21--19-17-19--------------|-14---15--14------------------|-----------------------|
D|---------------------17-15-17--|--------------17--14--14------|-----------------------|
A|-------------------------------|------------------------------|-----------------------|
E|-------------------------------|------------------------------|-----------------------|


E|------------------------|--------|--------|--------|--------|--------|--------|--------|
B|-13---------------------|--------|--------|--------|--------|--------|--------|--------|
G|------12--12--12--------|--------|--------|--------|--------|--------|--------|--------|
D|------------------------|--------|--------|--------|--------|--------|--------|--------|
A|------------------------|--------|--------|--------|--------|--------|--------|--------|
E|------------------------|--------|--------|--------|--------|--------|--------|--------|


E|--------|--------|--------|--------|--------|--------|--------|--------|--------|
B|--------|--------|--------|--------|--------|--------|--------|--------|--------|
G|--------|--------|--------|--------|--------|--------|--------|--------|--------|
D|--------|--------|--------|--------|--------|--------|--------|--------|--------|
A|--------|--------|--------|--------|--------|--------|--------|--------|--------|
E|--------|--------|--------|--------|--------|--------|--------|--------|--------|


E|--------|--------|--------|--------|--------|--------|--------|--------|--------|
B|--------|--------|--------|--------|--------|--------|--------|--------|--------|
G|--------|--------|--------|--------|--------|--------|--------|--------|--------|
D|--------|--------|--------|--------|--------|--------|--------|--------|--------|
A|--------|--------|--------|--------|--------|--------|--------|--------|--------|
E|--------|--------|--------|--------|--------|--------|--------|--------|--------|


E|--------|--------|--------|--------|--------|--------|--------|--------|--------|
B|--------|--------|--------|--------|--------|--------|--------|--------|--------|
G|--------|--------|--------|--------|--------|--------|--------|--------|--------|
D|--------|--------|--------|--------|--------|--------|--------|--------|--------|
A|--------|--------|--------|--------|--------|--------|--------|--------|--------|
E|--------|--------|--------|--------|--------|--------|--------|--------|--------|


E|--------|--------|--------|--------|--------|--------|--------|--------|--------|
B|--------|--------|--------|--------|--------|--------|--------|--------|--------|
G|--------|--------|--------|--------|--------|--------|--------|--------|--------|
D|--------|--------|--------|--------|--------|--------|--------|--------|--------|
A|--------|--------|--------|--------|--------|--------|--------|--------|--------|
E|--------|--------|--------|--------|--------|--------|--------|--------|--------|


E|--------|--------|--------|--------|--------|--------|--------|--------|--------|
B|--------|--------|--------|--------|--------|--------|--------|--------|--------|
G|--------|--------|--------|--------|--------|--------|--------|--------|--------|
D|--------|--------|--------|--------|--------|--------|--------|--------|--------|
A|--------|--------|--------|--------|--------|--------|--------|--------|--------|
E|--------|--------|--------|--------|--------|--------|--------|--------|--------|


E|--------|--------|--------|--------|--------|--------|--------|--------|--------|
B|--------|--------|--------|--------|--------|--------|--------|--------|--------|
G|--------|--------|--------|--------|--------|--------|--------|--------|--------|
D|--------|--------|--------|--------|--------|--------|--------|--------|--------|
A|--------|--------|--------|--------|--------|--------|--------|--------|--------|
E|--------|--------|--------|--------|--------|--------|--------|--------|--------|


E|--------|--------|--------|--------|--------|--------|--------|--------|--------|
B|--------|--------|--------|--------|--------|--------|--------|--------|--------|
G|--------|--------|--------|--------|--------|--------|--------|--------|--------|
D|--------|--------|--------|--------|--------|--------|--------|--------|--------|
A|--------|--------|--------|--------|--------|--------|--------|--------|--------|
E|--------|--------|--------|--------|--------|--------|--------|--------|--------|


E|--------|--------|--------|--------|--------|--------|
B|--------|--------|--------|--------|--------|--------|
G|--------|--------|--------|--------|--------|--------|
D|--------|--------|--------|--------|--------|--------|
A|--------|--------|--------|--------|--------|--------|
E|--------|--------|--------|--------|--------|--------|





Track 3: Dave Mustaine Rhythm

E|--------|--------|--------|--------|--------|--------|--------|--------|--------|
B|--------|--------|--------|--------|--------|--------|--------|--------|--------|
G|--------|--------|--------|--------|--------|--------|--------|--------|--------|
D|--------|--------|--------|--------|--------|--------|--------|--------|--------|
A|--------|--------|--------|--------|--------|--------|--------|--------|--------|
E|--------|--------|--------|--------|--------|--------|--------|--------|--------|


E|--------|--------|--------|--------|--------|--------|--------|--------|--------|
B|--------|--------|--------|--------|--------|--------|--------|--------|--------|
G|--------|--------|--------|--------|--------|--------|--------|--------|--------|
D|--------|--------|--------|--------|--------|--------|--------|--------|--------|
A|--------|--------|--------|--------|--------|--------|--------|--------|--------|
E|--------|--------|--------|--------|--------|--------|--------|--------|--------|


E|--------|--------|--------|--------|--------|--------|--------|--------|--------|
B|--------|--------|--------|--------|--------|--------|--------|--------|--------|
G|--------|--------|--------|--------|--------|--------|--------|--------|--------|
D|--------|--------|--------|--------|--------|--------|--------|--------|--------|
A|--------|--------|--------|--------|--------|--------|--------|--------|--------|
E|--------|--------|--------|--------|--------|--------|--------|--------|--------|


E|--------|--------|--------|--------|--------|--------|--------|--------|--------|
B|--------|--------|--------|--------|--------|--------|--------|--------|--------|
G|--------|--------|--------|--------|--------|--------|--------|--------|--------|
D|--------|--------|--------|--------|--------|--------|--------|--------|--------|
A|--------|--------|--------|--------|--------|--------|--------|--------|--------|
E|--------|--------|--------|--------|--------|--------|--------|--------|--------|


E|--------|--------|--------|--------|--------|--------|--------|--------|--------|
B|--------|--------|--------|--------|--------|--------|--------|--------|--------|
G|--------|--------|--------|--------|--------|--------|--------|--------|--------|
D|--------|--------|--------|--------|--------|--------|--------|--------|--------|
A|--------|--------|--------|--------|--------|--------|--------|--------|--------|
E|--------|--------|--------|--------|--------|--------|--------|--------|--------|


E|--------|--------|--------|--------|--------|--------|--------|--------|--------|
B|--------|--------|--------|--------|--------|--------|--------|--------|--------|
G|--------|--------|--------|--------|--------|--------|--------|--------|--------|
D|--------|--------|--------|--------|--------|--------|--------|--------|--------|
A|--------|--------|--------|--------|--------|--------|--------|--------|--------|
E|--------|--------|--------|--------|--------|--------|--------|--------|--------|


E|--------|--------|--------|--------|--------|--------|--------|--------|--------|
B|--------|--------|--------|--------|--------|--------|--------|--------|--------|
G|--------|--------|--------|--------|--------|--------|--------|--------|--------|
D|--------|--------|--------|--------|--------|--------|--------|--------|--------|
A|--------|--------|--------|--------|--------|--------|--------|--------|--------|
E|--------|--------|--------|--------|--------|--------|--------|--------|--------|


E|--------|--------|--------|--------|--------|--------|--------|--------|--------|
B|--------|--------|--------|--------|--------|--------|--------|--------|--------|
G|--------|--------|--------|--------|--------|--------|--------|--------|--------|
D|--------|--------|--------|--------|--------|--------|--------|--------|--------|
A|--------|--------|--------|--------|--------|--------|--------|--------|--------|
E|--------|--------|--------|--------|--------|--------|--------|--------|--------|


E|--------|--------|--------|--------|--------------------|----------------7-----|
B|--------|--------|--------|--------|--------------------|----------10----------|
G|--------|--------|--------|--------|-8----8---------8---|-8----8---------------|
D|--------|--------|--------|--------|----------10--------|----------------------|
A|--------|--------|--------|--------|--------------------|----------------------|
E|--------|--------|--------|--------|--------------------|----------------------|


E|-8----7--------------------------|-------------------------|-----------------------|
B|----------10-8---7---------------|-------------------------|-----------------------|
G|---------------------9---7-------|-------------------------|-----------------------|
D|-----------------------------10--|---------------------7---|-7-----7-------7---9---|
A|---------------------------------|-8-----8-------5--6------|-----------7-----------|
E|---------------------------------|-----------8-------------|-----------------------|


E|-----------------------|---------------------------------|---------------------------------|
B|-----------------------|---------------------------------|-----------------8---6---12--10--|
G|-----------------------|-------------7---7-------7---9---|-9---7---10--9-------------------|
D|-9-----9-------9---10--|-10------10----------10----------|---------------------------------|
A|-----------7-----------|-----7---------------------------|---------------------------------|
E|-----------------------|---------------------------------|---------------------------------|


E|--------|--------|--------|--------|--------|--------|--------|--------|--------|
B|--------|--------|--------|--------|--------|--------|--------|--------|--------|
G|--------|--------|--------|--------|--------|--------|--------|--------|--------|
D|--------|--------|--------|--------|--------|--------|--------|--------|--------|
A|--------|--------|--------|--------|--------|--------|--------|--------|--------|
E|--------|--------|--------|--------|--------|--------|--------|--------|--------|


E|--------|--------|--------|--------|--------|--------|--------|--------|--------|
B|--------|--------|--------|--------|--------|--------|--------|--------|--------|
G|--------|--------|--------|--------|--------|--------|--------|--------|--------|
D|--------|--------|--------|--------|--------|--------|--------|--------|--------|
A|--------|--------|--------|--------|--------|--------|--------|--------|--------|
E|--------|--------|--------|--------|--------|--------|--------|--------|--------|


E|--------|--------|--------|--------|--------|--------|--------|--------|--------|
B|--------|--------|--------|--------|--------|--------|--------|--------|--------|
G|--------|--------|--------|--------|--------|--------|--------|--------|--------|
D|--------|--------|--------|--------|--------|--------|--------|--------|--------|
A|--------|--------|--------|--------|--------|--------|--------|--------|--------|
E|--------|--------|--------|--------|--------|--------|--------|--------|--------|


E|--------|--------|--------|--------|--------|--------|--------|--------|--------|
B|--------|--------|--------|--------|--------|--------|--------|--------|--------|
G|--------|--------|--------|--------|--------|--------|--------|--------|--------|
D|--------|--------|--------|--------|--------|--------|--------|--------|--------|
A|--------|--------|--------|--------|--------|--------|--------|--------|--------|
E|--------|--------|--------|--------|--------|--------|--------|--------|--------|


E|--------|--------|--------|--------|--------|--------|--------|--------|--------|
B|--------|--------|--------|--------|--------|--------|--------|--------|--------|
G|--------|--------|--------|--------|--------|--------|--------|--------|--------|
D|--------|--------|--------|--------|--------|--------|--------|--------|--------|
A|--------|--------|--------|--------|--------|--------|--------|--------|--------|
E|--------|--------|--------|--------|--------|--------|--------|--------|--------|


E|--------|--------|--------|--------|--------|--------|--------|--------|--------|
B|--------|--------|--------|--------|--------|--------|--------|--------|--------|
G|--------|--------|--------|--------|--------|--------|--------|--------|--------|
D|--------|--------|--------|--------|--------|--------|--------|--------|--------|
A|--------|--------|--------|--------|--------|--------|--------|--------|--------|
E|--------|--------|--------|--------|--------|--------|--------|--------|--------|


E|--------|--------|--------|--------|--------|--------|--------|--------|--------|
B|--------|--------|--------|--------|--------|--------|--------|--------|--------|
G|--------|--------|--------|--------|--------|--------|--------|--------|--------|
D|--------|--------|--------|--------|--------|--------|--------|--------|--------|
A|--------|--------|--------|--------|--------|--------|--------|--------|--------|
E|--------|--------|--------|--------|--------|--------|--------|--------|--------|


E|--------|--------|--------|--------|--------|--------|--------|--------|--------|
B|--------|--------|--------|--------|--------|--------|--------|--------|--------|
G|--------|--------|--------|--------|--------|--------|--------|--------|--------|
D|--------|--------|--------|--------|--------|--------|--------|--------|--------|
A|--------|--------|--------|--------|--------|--------|--------|--------|--------|
E|--------|--------|--------|--------|--------|--------|--------|--------|--------|


E|--------|--------|--------|--------|--------|--------|--------|--------|--------|
B|--------|--------|--------|--------|--------|--------|--------|--------|--------|
G|--------|--------|--------|--------|--------|--------|--------|--------|--------|
D|--------|--------|--------|--------|--------|--------|--------|--------|--------|
A|--------|--------|--------|--------|--------|--------|--------|--------|--------|
E|--------|--------|--------|--------|--------|--------|--------|--------|--------|


E|--------|--------|--------|--------|--------|--------|--------|--------|--------|
B|--------|--------|--------|--------|--------|--------|--------|--------|--------|
G|--------|--------|--------|--------|--------|--------|--------|--------|--------|
D|--------|--------|--------|--------|--------|--------|--------|--------|--------|
A|--------|--------|--------|--------|--------|--------|--------|--------|--------|
E|--------|--------|--------|--------|--------|--------|--------|--------|--------|


E|--------|--------|--------|--------|--------|--------|--------|--------|--------|
B|--------|--------|--------|--------|--------|--------|--------|--------|--------|
G|--------|--------|--------|--------|--------|--------|--------|--------|--------|
D|--------|--------|--------|--------|--------|--------|--------|--------|--------|
A|--------|--------|--------|--------|--------|--------|--------|--------|--------|
E|--------|--------|--------|--------|--------|--------|--------|--------|--------|


E|--------|
B|--------|
G|--------|
D|--------|
A|--------|
E|--------|





Track 4: Chris Poland Rhythm

E|--------|--------|--------|--------|--------|--------|--------|--------|--------|
B|--------|--------|--------|--------|--------|--------|--------|--------|--------|
G|--------|--------|--------|--------|--------|--------|--------|--------|--------|
D|--------|--------|--------|--------|--------|--------|--------|--------|--------|
A|--------|--------|--------|--------|--------|--------|--------|--------|--------|
E|--------|--------|--------|--------|--------|--------|--------|--------|--------|


E|--------|--------|--------|--------|--------|--------|--------|--------|--------|
B|--------|--------|--------|--------|--------|--------|--------|--------|--------|
G|--------|--------|--------|--------|--------|--------|--------|--------|--------|
D|--------|--------|--------|--------|--------|--------|--------|--------|--------|
A|--------|--------|--------|--------|--------|--------|--------|--------|--------|
E|--------|--------|--------|--------|--------|--------|--------|--------|--------|


E|--------|--------|--------|--------|--------|--------|--------|--------|--------|
B|--------|--------|--------|--------|--------|--------|--------|--------|--------|
G|--------|--------|--------|--------|--------|--------|--------|--------|--------|
D|--------|--------|--------|--------|--------|--------|--------|--------|--------|
A|--------|--------|--------|--------|--------|--------|--------|--------|--------|
E|--------|--------|--------|--------|--------|--------|--------|--------|--------|


E|--------|--------|--------|--------|--------|--------|--------|--------|--------|
B|--------|--------|--------|--------|--------|--------|--------|--------|--------|
G|--------|--------|--------|--------|--------|--------|--------|--------|--------|
D|--------|--------|--------|--------|--------|--------|--------|--------|--------|
A|--------|--------|--------|--------|--------|--------|--------|--------|--------|
E|--------|--------|--------|--------|--------|--------|--------|--------|--------|


E|--------|--------|--------|--------|--------|--------|--------|--------|--------|
B|--------|--------|--------|--------|--------|--------|--------|--------|--------|
G|--------|--------|--------|--------|--------|--------|--------|--------|--------|
D|--------|--------|--------|--------|--------|--------|--------|--------|--------|
A|--------|--------|--------|--------|--------|--------|--------|--------|--------|
E|--------|--------|--------|--------|--------|--------|--------|--------|--------|


E|--------|--------|--------|--------|--------|--------|--------|--------|--------|
B|--------|--------|--------|--------|--------|--------|--------|--------|--------|
G|--------|--------|--------|--------|--------|--------|--------|--------|--------|
D|--------|--------|--------|--------|--------|--------|--------|--------|--------|
A|--------|--------|--------|--------|--------|--------|--------|--------|--------|
E|--------|--------|--------|--------|--------|--------|--------|--------|--------|


E|--------|--------|--------|--------|--------|--------|--------|--------|--------|
B|--------|--------|--------|--------|--------|--------|--------|--------|--------|
G|--------|--------|--------|--------|--------|--------|--------|--------|--------|
D|--------|--------|--------|--------|--------|--------|--------|--------|--------|
A|--------|--------|--------|--------|--------|--------|--------|--------|--------|
E|--------|--------|--------|--------|--------|--------|--------|--------|--------|


E|--------|--------|--------|--------|--------|--------|--------|--------|--------|
B|--------|--------|--------|--------|--------|--------|--------|--------|--------|
G|--------|--------|--------|--------|--------|--------|--------|--------|--------|
D|--------|--------|--------|--------|--------|--------|--------|--------|--------|
A|--------|--------|--------|--------|--------|--------|--------|--------|--------|
E|--------|--------|--------|--------|--------|--------|--------|--------|--------|


E|--------|--------|--------|--------|--------|--------|--------|--------|--------|
B|--------|--------|--------|--------|--------|--------|--------|--------|--------|
G|--------|--------|--------|--------|--------|--------|--------|--------|--------|
D|--------|--------|--------|--------|--------|--------|--------|--------|--------|
A|--------|--------|--------|--------|--------|--------|--------|--------|--------|
E|--------|--------|--------|--------|--------|--------|--------|--------|--------|


E|--------|--------|--------|------------------------------|------------------------------|
B|--------|--------|--------|------------------------------|------------------------------|
G|--------|--------|--------|-----9--------10--9-----------|-----9--------10--9-----------|
D|--------|--------|--------|-10-------10----------12--10--|-10-------10----------12--10--|
A|--------|--------|--------|------------------------------|------------------------------|
E|--------|--------|--------|------------------------------|------------------------------|


E|------------------------------|------------------------------|------------------------------|
B|------------------------------|------------------------------|------------------------------|
G|-----9--------10--9-----------|-----9--------12--10----------|-----9--------10--9-----------|
D|-10-------10----------12--10--|-10-------10----------12--10--|-10-------10----------12--10--|
A|------------------------------|------------------------------|------------------------------|
E|------------------------------|------------------------------|------------------------------|


E|------------------------------|------------------------------|--------|------------|
B|------------------------------|------------------------------|--------|------------|
G|-----9--------10--9-----------|-----9--------12--10----------|--------|--------4---|
D|-10-------10----------12--10--|-10-------10----------12--9---|-9------|-9------5---|
A|------------------------------|------------------------------|--------|------------|
E|------------------------------|------------------------------|--------|------------|


E|-------------------------------------|-------------------------------------|--------|
B|-------------------------------------|-------------------------------------|--------|
G|-4-----------------------4-------5---|-5-----------------------5-------4---|--------|
D|-5-----------------------5-------4---|-4-----------------------4-------3---|--------|
A|-----0--0--0---0--0--0-------0-------|-----0--0--0---0--0--0-------0-------|--------|
E|-------------------------------------|-------------------------------------|--------|


E|--------|--------|-------------------------------------|---------------------------------|
B|--------|--------|-------------------------------------|---------------------------------|
G|--------|--------|-5-----------------------5-------4---|-4-------4-------4-------4---5---|
D|--------|--------|-4-----------------------4-------3---|-3-------3-------3-------3---7---|
A|--------|--------|-----0--0--0---0--0--0-------0-------|-----0-------0-------0-----------|
E|--------|--------|-------------------------------------|---------------------------------|


E|-------------------------------------|--------|--------|--------|--------|--------|
B|-------------------------------------|--------|--------|--------|--------|--------|
G|-5-----------------------5-------4---|--------|--------|--------|--------|--------|
D|-7-----------------------7-------5---|--------|--------|--------|--------|--------|
A|-----0--0--0---0--0--0-------0-------|--------|--------|--------|--------|--------|
E|-------------------------------------|--------|--------|--------|--------|--------|


E|--------|--------|--------|--------|--------|--------|--------|--------|------------|
B|--------|--------|--------|--------|--------|--------|--------|--------|------------|
G|--------|--------|--------|--------|--------|--------|--------|--------|------------|
D|--------|--------|--------|--------|--------|--------|--------|--------|------------|
A|--------|--------|--------|--------|--------|--------|--------|--------|--------14--|
E|--------|--------|--------|--------|--------|--------|--------|--------|------------|


E|---------------------------------|------------------------------|------------------------------|
B|---------------------------------|------------------------------|------------------------------|
G|---------------------------------|------------------------------|------------------------------|
D|-------------------------15--14--|-14------10--14-------10--12--|-12------10--12-------10--15--|
A|-14------15------14--------------|-----10-----------10----------|-----10-----------10----------|
E|-----16------16------16----------|------------------------------|------------------------------|


E|------------------------------|------------------------------|------------------------------|
B|------------------------------|------------------------------|------------------------------|
G|------------------------------|------------------------------|------------------------------|
D|-15------10--15-------10--14--|-14------10--12-------10--14--|-14------10--14-------10--12--|
A|-----10-----------10----------|-----10-----------10----------|-----10-----------10----------|
E|------------------------------|------------------------------|------------------------------|


E|------------------------------|------------------------------|---------------------------------|
B|------------------------------|------------------------------|---------------------------------|
G|------------------------------|------------------------------|---------------------------------|
D|-12------10--12-------9---10--|-10----------10-----------9---|-9-------10------9-------15--14--|
A|-----10-----------10----------|-----8---12-------8---12------|-----11------11------11----------|
E|------------------------------|------------------------------|---------------------------------|


E|--------|--------|--------|--------|--------|--------|------------------|---------------------|
B|--------|--------|--------|--------|--------|--------|-17----15----13---|-13--12----10---9----|
G|--------|--------|--------|--------|--------|--------|------------------|---------------------|
D|-14-----|-14-----|-14-----|-14-----|-14-----|-14-----|------------------|---------------------|
A|--------|--------|--------|--------|--------|--------|------------------|---------------------|
E|--------|--------|--------|--------|--------|--------|------------------|---------------------|


E|--------|--------|--------|--------|--------|--------|--------|--------|--------|
B|-10-----|-10-----|-10-----|-10-----|-10-----|-10-----|-10-----|-10-----|--------|
G|--------|--------|--------|--------|--------|--------|--------|--------|--------|
D|--------|--------|--------|--------|--------|--------|--------|--------|--------|
A|--------|--------|--------|--------|--------|--------|--------|--------|--------|
E|--------|--------|--------|--------|--------|--------|--------|--------|--------|


E|--------|--------|--------|--------|--------|--------|------------|----------------|
B|--------|--------|--------|--------|--------|--------|------------|----------------|
G|--------|--------|--------|--------|--------|--------|------------|----------------|
D|--------|--------|--------|--------|--------|--------|--------7---|-7----------9---|
A|--------|--------|--------|--------|--------|--------|------------|----------------|
E|--------|--------|--------|--------|--------|--------|------------|----------------|


E|----------------|----------------|------------------------|----------------|--------|
B|----------------|----------------|------------------------|----------------|--------|
G|----------------|----------------|------------------------|----------------|--------|
D|-9----------10--|-10-------------|------------------------|----------------|--------|
A|----------------|------------10--|-10-------9---------8---|-8--------------|--------|
E|----------------|----------------|------------------------|----------------|--------|


E|--------|------------|----------------|----------------|----------------|------------------------|
B|--------|--------10--|-10---------12--|-12---------13--|-13-------------|------------------------|
G|--------|------------|----------------|----------------|------------12--|-12-------11--------10--|
D|--------|------------|----------------|----------------|----------------|------------------------|
A|--------|------------|----------------|----------------|----------------|------------------------|
E|--------|------------|----------------|----------------|----------------|------------------------|


E|----------------|--------|--------|------------|----------------|----------------|
B|----------------|--------|--------|--------10--|-10---------12--|-12---------13--|
G|-10-------------|--------|--------|------------|----------------|----------------|
D|----------------|--------|--------|------------|----------------|----------------|
A|----------------|--------|--------|------------|----------------|----------------|
E|----------------|--------|--------|------------|----------------|----------------|


E|------------15--|-15-------14--------13--|-13-------------|--------|--------|--------|
B|-13-------------|------------------------|----------------|--------|--------|--------|
G|----------------|------------------------|----------------|--------|--------|--------|
D|----------------|------------------------|----------------|--------|--------|--------|
A|----------------|------------------------|----------------|--------|--------|--------|
E|----------------|------------------------|----------------|--------|--------|--------|


E|--------|--------|--------|--------|--------|--------|--------|--------|--------|
B|--------|--------|--------|--------|--------|--------|--------|--------|--------|
G|--------|--------|--------|--------|--------|--------|--------|--------|--------|
D|--------|--------|--------|--------|--------|--------|--------|--------|--------|
A|--------|--------|--------|--------|--------|--------|--------|--------|--------|
E|--------|--------|--------|--------|--------|--------|--------|--------|--------|


E|--------|--------|--------|
B|--------|--------|--------|
G|--------|--------|--------|
D|--------|--------|--------|
A|--------|--------|--------|
E|--------|--------|--------|





Track 5: Dave Mustaine Rhythm

E|--------|--------|--------|--------|--------|--------|--------|--------|--------|
B|--------|--------|--------|--------|--------|--------|--------|--------|--------|
G|--------|--------|--------|--------|--------|--------|--------|--------|--------|
D|--------|--------|--------|--------|--------|--------|--------|--------|--------|
A|--------|--------|--------|--------|--------|--------|--------|--------|--------|
E|--------|--------|--------|--------|--------|--------|--------|--------|--------|


E|--------|--------|--------|--------|--------|--------|--------|--------|--------|
B|--------|--------|--------|--------|--------|--------|--------|--------|--------|
G|--------|--------|--------|--------|--------|--------|--------|--------|--------|
D|--------|--------|--------|--------|--------|--------|--------|--------|--------|
A|--------|--------|--------|--------|--------|--------|--------|--------|--------|
E|--------|--------|--------|--------|--------|--------|--------|--------|--------|


E|--------|--------|--------|--------|--------|--------|--------|--------|--------|
B|--------|--------|--------|--------|--------|--------|--------|--------|--------|
G|--------|--------|--------|--------|--------|--------|--------|--------|--------|
D|--------|--------|--------|--------|--------|--------|--------|--------|--------|
A|--------|--------|--------|--------|--------|--------|--------|--------|--------|
E|--------|--------|--------|--------|--------|--------|--------|--------|--------|


E|--------|--------|--------|--------|--------|--------|--------|--------|--------|
B|--------|--------|--------|--------|--------|--------|--------|--------|--------|
G|--------|--------|--------|--------|--------|--------|--------|--------|--------|
D|--------|--------|--------|--------|--------|--------|--------|--------|--------|
A|--------|--------|--------|--------|--------|--------|--------|--------|--------|
E|--------|--------|--------|--------|--------|--------|--------|--------|--------|


E|--------|--------|--------|--------|--------|--------|--------|--------|--------|
B|--------|--------|--------|--------|--------|--------|--------|--------|--------|
G|--------|--------|--------|--------|--------|--------|--------|--------|--------|
D|--------|--------|--------|--------|--------|--------|--------|--------|--------|
A|--------|--------|--------|--------|--------|--------|--------|--------|--------|
E|--------|--------|--------|--------|--------|--------|--------|--------|--------|


E|--------|--------|--------|--------|--------|--------|--------|--------|--------|
B|--------|--------|--------|--------|--------|--------|--------|--------|--------|
G|--------|--------|--------|--------|--------|--------|--------|--------|--------|
D|--------|--------|--------|--------|--------|--------|--------|--------|--------|
A|--------|--------|--------|--------|--------|--------|--------|--------|--------|
E|--------|--------|--------|--------|--------|--------|--------|--------|--------|


E|--------|--------|--------|--------|--------|--------|--------|--------|--------|
B|--------|--------|--------|--------|--------|--------|--------|--------|--------|
G|--------|--------|--------|--------|--------|--------|--------|--------|--------|
D|--------|--------|--------|--------|--------|--------|--------|--------|--------|
A|--------|--------|--------|--------|--------|--------|--------|--------|--------|
E|--------|--------|--------|--------|--------|--------|--------|--------|--------|


E|--------|--------|--------|--------|--------|--------|--------|--------|--------|
B|--------|--------|--------|--------|--------|--------|--------|--------|--------|
G|--------|--------|--------|--------|--------|--------|--------|--------|--------|
D|--------|--------|--------|--------|--------|--------|--------|--------|--------|
A|--------|--------|--------|--------|--------|--------|--------|--------|--------|
E|--------|--------|--------|--------|--------|--------|--------|--------|--------|


E|--------|--------|--------|--------|--------|--------|--------|--------|--------|
B|--------|--------|--------|--------|--------|--------|--------|--------|--------|
G|--------|--------|--------|--------|--------|--------|--------|--------|--------|
D|--------|--------|--------|--------|--------|--------|--------|--------|--------|
A|--------|--------|--------|--------|--------|--------|--------|--------|--------|
E|--------|--------|--------|--------|--------|--------|--------|--------|--------|


E|--------|--------|--------|--------|--------|--------|--------|--------|--------|
B|--------|--------|--------|--------|--------|--------|--------|--------|--------|
G|--------|--------|--------|--------|--------|--------|--------|--------|--------|
D|--------|--------|--------|--------|--------|--------|--------|--------|--------|
A|--------|--------|--------|--------|--------|--------|--------|--------|--------|
E|--------|--------|--------|--------|--------|--------|--------|--------|--------|


E|--------|--------|--------|--------|--------|--------|--------|--------|--------|
B|--------|--------|--------|--------|--------|--------|--------|--------|--------|
G|--------|--------|--------|--------|--------|--------|--------|--------|--------|
D|--------|--------|--------|--------|--------|--------|--------|--------|--------|
A|--------|--------|--------|--------|--------|--------|--------|--------|--------|
E|--------|--------|--------|--------|--------|--------|--------|--------|--------|


E|--------|--------|--------|--------|--------|--------|--------|--------|----------------|
B|--------|--------|--------|--------|--------|--------|--------|--------|----------------|
G|--------|--------|--------|--------|--------|--------|--------|--------|----------------|
D|--------|--------|--------|--------|--------|--------|--------|--------|----------------|
A|--------|--------|--------|--------|--------|--------|--------|--------|----------------|
E|--------|--------|--------|--------|--------|--------|--------|--------|----------------|


E|--------|--------|--------|--------|--------|--------|--------|--------|--------|
B|--------|--------|--------|--------|--------|--------|--------|--------|--------|
G|--------|--------|--------|--------|--------|--------|--------|--------|--------|
D|--------|--------|--------|--------|--------|--------|--------|--------|--------|
A|--------|--------|--------|--------|--------|--------|--------|--------|--------|
E|--------|--------|--------|--------|--------|--------|--------|--------|--------|


E|--------|--------|--------|--------|--------|--------|--------|--------|--------|
B|--------|--------|--------|--------|--------|--------|--------|--------|--------|
G|--------|--------|--------|--------|--------|--------|--------|--------|--------|
D|--------|--------|--------|--------|--------|--------|--------|--------|--------|
A|--------|--------|--------|--------|--------|--------|--------|--------|--------|
E|--------|--------|--------|--------|--------|--------|--------|--------|--------|


E|--------|--------|--------|--------|--------|--------|--------|--------|--------|
B|--------|--------|--------|--------|--------|--------|--------|--------|--------|
G|--------|--------|--------|--------|--------|--------|--------|--------|--------|
D|--------|--------|--------|--------|--------|--------|--------|--------|--------|
A|--------|--------|--------|--------|--------|--------|--------|--------|--------|
E|--------|--------|--------|--------|--------|--------|--------|--------|--------|


E|--------|--------|--------|--------|--------|--------|--------|--------|--------|
B|--------|--------|--------|--------|--------|--------|--------|--------|--------|
G|--------|--------|--------|--------|--------|--------|--------|--------|--------|
D|--------|--------|--------|--------|--------|--------|--------|--------|--------|
A|--------|--------|--------|--------|--------|--------|--------|--------|--------|
E|--------|--------|--------|--------|--------|--------|--------|--------|--------|


E|--------|--------|--------|--------|--------|--------|--------|--------|--------|
B|--------|--------|--------|--------|--------|--------|--------|--------|--------|
G|--------|--------|--------|--------|--------|--------|--------|--------|--------|
D|--------|--------|--------|--------|--------|--------|--------|--------|--------|
A|--------|--------|--------|--------|--------|--------|--------|--------|--------|
E|--------|--------|--------|--------|--------|--------|--------|--------|--------|


E|--------|--------|--------|--------|--------|--------|--------|--------|--------|
B|--------|--------|--------|--------|--------|--------|--------|--------|--------|
G|--------|--------|--------|--------|--------|--------|--------|--------|--------|
D|--------|--------|--------|--------|--------|--------|--------|--------|--------|
A|--------|--------|--------|--------|--------|--------|--------|--------|--------|
E|--------|--------|--------|--------|--------|--------|--------|--------|--------|


E|--------|--------|--------|--------|--------|--------|--------|--------|--------|
B|--------|--------|--------|--------|--------|--------|--------|--------|--------|
G|--------|--------|--------|--------|--------|--------|--------|--------|--------|
D|--------|--------|--------|--------|--------|--------|--------|--------|--------|
A|--------|--------|--------|--------|--------|--------|--------|--------|--------|
E|--------|--------|--------|--------|--------|--------|--------|--------|--------|


E|--------|--------|--------|--------|--------|--------|--------|--------|--------|
B|--------|--------|--------|--------|--------|--------|--------|--------|--------|
G|--------|--------|--------|--------|--------|--------|--------|--------|--------|
D|--------|--------|--------|--------|--------|--------|--------|--------|--------|
A|--------|--------|--------|--------|--------|--------|--------|--------|--------|
E|--------|--------|--------|--------|--------|--------|--------|--------|--------|


E|--------|--------|--------|--------|
B|--------|--------|--------|--------|
G|--------|--------|--------|--------|
D|--------|--------|--------|--------|
A|--------|--------|--------|--------|
E|--------|--------|--------|--------|





Track 6: Jimmy Sloas

G|--------|--------|--------|--------|--------|--------|--------|------------|---------------------------------|
D|--------|--------|--------|--------|--------|--------|--------|------------|---------------------------------|
A|--------|--------|--------|--------|--------|--------|--------|--------0---|-0-------0-------0-------0-------|
E|--------|--------|--------|--------|--------|--------|--------|------------|---------------------------------|


G|---------------------------------|---------------------------------|---------------------------------|
D|---------------------------------|---------------------------------|---------------------------------|
A|-0-------0-------0-------0-------|-0-------0-------0-------0-------|-0-------0-------0-------0-------|
E|---------------------------------|---------------------------------|---------------------------------|


G|---------------------------------|---------------------------------|---------------------------------|
D|---------------------------------|---------------------------------|---------------------------------|
A|-0-------0-------0-------0-------|-0-------0-------0-------0-------|-0-------0-------0-------0-------|
E|---------------------------------|---------------------------------|-----------------------------0---|


G|---------------------------------|-------------------------------------|-------------------------------------|
D|---------------------------------|-------------------------------------|-------------------------------------|
A|-----------------------------0---|-0---0--0--0---0--0--0---0---0---0---|-0---0--0--0---0--0--0---0---0---0---|
E|-0---0---0---0---0---0---0-------|-------------------------------------|-------------------------------------|


G|-------------------------------------|-------------------------------------|-------------------------------------|
D|-------------------------------------|-------------------------------------|-------------------------------------|
A|-0---0--0--0---0--0--0---0---0---0---|-0---0--0--0---0--0--0---0---0---0---|-0---0--0--0---0--0--0---0---0---0---|
E|-------------------------------------|-------------------------------------|-------------------------------------|


G|-------------------------------------|-------------------------------------|---------------------------------------|
D|-------------------------------------|-------------------------------------|---------------------------------------|
A|-0---0--0--0---0--0--0---0---0---5---|-5---0--0--0---0--0--0---5---0---7---|-7---------------------------------0---|
E|-------------------------------------|-------------------------------------|-----0--0--0---0--0--0---0--0--0-------|


G|-------------------------------------|-------------------------------------|-------------------------------------|
D|-------------------------------------|-------------------------------------|-------------------------------------|
A|-0---0--0--0---0--0--0---0---0---0---|-0---0--0--0---0--0--0---0---0---0---|-0---0--0--0---0--0--0---0---0---0---|
E|-------------------------------------|-------------------------------------|-------------------------------------|


G|-------------------------------------|-------------------------------------|---------------------------------|
D|-------------------------------------|-------------------------------------|---------------------------------|
A|-0---0--0--0---0--0--0---0---0-------|-------------------------------------|-----0---0---0---0---0---0---0---|
E|---------------------------------1---|-1---1--1--1---1--1--1---1---1---0---|-0-------------------------------|


G|---------------------------------|------------------------------|---------------------------------|
D|-----------------5---4-----------|------------------------------|-----------------5---4-----------|
A|-0---0---3---0-----------5-------|-----3---5--------3---5---0---|-0---0---3---0-----------5-------|
E|-----------------------------2---|-2-----------1----------------|-----------------------------2---|


G|------------------------------|---------------------------------|------------------------------|
D|------------------------------|-----------------5---4-----------|------------------------------|
A|-----3---5--------3---5---0---|-0---0---3---0-----------5-------|-----3---5--------3---5-------|
E|-2-----------1----------------|-----------------------------2---|-2-----------1------------0---|


G|--------------------|---------------------------------|-------------------------------------|
D|--------------------|---------------------------------|-------------------------------------|
A|--------------------|-----------------------------0---|-0---0--0--0---0--0--0---0---0---0---|
E|-0-----0---1----0---|-0---0---0---0---0---0---0-------|-------------------------------------|


G|-------------------------------------|-------------------------------------|-------------------------------------|
D|-------------------------------------|-------------------------------------|-------------------------------------|
A|-0---0--0--0---0--0--0---0---0---0---|-0---0--0--0---0--0--0---0---0---0---|-0---0--0--0---0--0--0---0---0---0---|
E|-------------------------------------|-------------------------------------|-------------------------------------|


G|-------------------------------------|-------------------------------------|-------------------------------------|
D|-------------------------------------|-------------------------------------|-------------------------------------|
A|-0---0--0--0---0--0--0---0---0---0---|-0---0--0--0---0--0--0---0---0---0---|-0---0--0--0---0--0--0---0---0---0---|
E|-------------------------------------|-------------------------------------|-------------------------------------|


G|---------------------------------|-------------------------------------|-------------------------------------|
D|---------------------------------|-------------------------------------|-------------------------------------|
A|-0---0---0---0---0---0---0---0---|-0---0--0--0---0--0--0---0---0---0---|-0---0--0--0---0--0--0---0---0---0---|
E|---------------------------------|-------------------------------------|-------------------------------------|


G|-------------------------------------|-------------------------------------|-------------------------------------|
D|-------------------------------------|-------------------------------------|-------------------------------------|
A|-0---0--0--0---0--0--0---0---0---0---|-0---0--0--0---0--0--0---0---0---0---|-0---0--0--0---0--0--0---0---0---0---|
E|-------------------------------------|-------------------------------------|-------------------------------------|


G|-------------------------------------|-------------------------------------|---------------------------------------|
D|-------------------------------------|-------------------------------------|---------------------------------------|
A|-0---0--0--0---0--0--0---0---0---5---|-5---0--0--0---0--0--0---5---0---7---|-7---------------------------------0---|
E|-------------------------------------|-------------------------------------|-----0--0--0---0--0--0---0--0--0-------|


G|-------------------------------------|-------------------------------------|-------------------------------------|
D|-------------------------------------|-------------------------------------|-------------------------------------|
A|-0---0--0--0---0--0--0---0---0---0---|-0---0--0--0---0--0--0---0---0---0---|-0---0--0--0---0--0--0---0---0---0---|
E|-------------------------------------|-------------------------------------|-------------------------------------|


G|-------------------------------------|-------------------------------------|---------------------------------|
D|-------------------------------------|-------------------------------------|---------------------------------|
A|-0---0--0--0---0--0--0---0---0-------|-------------------------------------|-----0---0---0---0---0---0---0---|
E|---------------------------------1---|-1---1--1--1---1--1--1---1---1---0---|-0-------------------------------|


G|---------------------------------|------------------------------|---------------------------------|
D|-----------------5---4-----------|------------------------------|-----------------5---4-----------|
A|-0---0---3---0-----------5-------|-----3---5--------3---5---0---|-0---0---3---0-----------5-------|
E|-----------------------------2---|-2-----------1----------------|-----------------------------2---|


G|------------------------------|---------------------------------|------------------------------|
D|------------------------------|-----------------5---4-----------|------------------------------|
A|-----3---5--------3---5---0---|-0---0---3---0-----------5-------|-----3---5--------3---5-------|
E|-2-----------1----------------|-----------------------------2---|-2-----------1------------0---|


G|--------------------|---------------------------------|---------------------------------|
D|--------------------|---------------------------------|-----------------5---4-----------|
A|--------------------|-----------------------------0---|-0---0---3---0-----------5-------|
E|-0-----0---1----0---|-0---0---0---0---0---0---0-------|-----------------------------2---|


G|------------------------------|---------------------------------|------------------------------|
D|------------------------------|-----------------5---4-----------|------------------------------|
A|-----3---5--------3---5---0---|-0---0---3---0-----------5-------|-----3---5--------3---5---0---|
E|-2-----------1----------------|-----------------------------2---|-2-----------1----------------|


G|---------------------------------|------------------------------|--------------------|
D|-----------------5---4-----------|------------------------------|--------------------|
A|-0---0---3---0-----------5-------|-----3---5--------3---5-------|--------------------|
E|-----------------------------2---|-2-----------1------------0---|-0-----0---1----0---|


G|---------------------------------|------------------------------|------------------------------|
D|---------------------------------|------------------------------|------------------------------|
A|-----------------------------0---|-0---0----0---0---0---0-------|------------------------------|
E|-0---0---0---0---0---0---0-------|--------------------------3---|-3---3----3---3---3---3---2---|


G|------------------------------|------------------------------|------------------------------|
D|------------------------------|------------------------------|------------------------------|
A|------------------------------|--------------------------0---|-0---0----0---0---0---0-------|
E|-2---2----2---2---2---2---1---|-1---1----1---1---1---1-------|--------------------------3---|


G|------------------------------|------------------------------|------------------------------|
D|------------------------------|------------------------------|------------------------------|
A|------------------------------|------------------------------|--------------------------0---|
E|-3---3----3---3---3---3---2---|-2---2----2---2---2---2---1---|-1---1----1---1---1---1-------|


G|------------------------|------------------------|------------------------------|
D|------------------------|------------------------|------------------------------|
A|-0---0----0---7---------|--------------5---------|--------------5---5-----------|
E|--------------------3---|-3---3----3---------2---|-2---2----2-----------2---1---|


G|------------------------------|------------------------|------------------------|
D|--------------5---------------|------------------------|------------------------|
A|--------------------------0---|-0---0----0---7---------|--------------5---------|
E|-1---1----1-------1---3-------|--------------------3---|-3---3----3---------2---|


G|------------------------------|---------------------------------|-------------------------------------|
D|------------------------------|---------------------------------|-------------------------------------|
A|--------------5---5-----------|-----------------------------0---|-0---0--0--0---0--0--0---0---0---0---|
E|-2---2----2-----------2---1---|-1---1---1---1---1---1---1-------|-------------------------------------|


G|-------------------------------------|-------------------------------------|-------------------------------------|
D|-------------------------------------|-------------------------------------|-------------------------------------|
A|-0---0--0--0---0--0--0---0---0---0---|-0---0--0--0---0--0--0---0---0---0---|-0---0--0--0---0--0--0---0---0---0---|
E|-------------------------------------|-------------------------------------|-------------------------------------|


G|-------------------------------------|-------------------------------------|-------------------------------------|
D|-------------------------------------|-------------------------------------|-------------------------------------|
A|-0---0--0--0---0--0--0---0---0---0---|-0---0--0--0---0--0--0---0---0---0---|-0---0--0--0---0--0--0---0---0---0---|
E|-------------------------------------|-------------------------------------|-------------------------------------|


G|---------------------------------|-------------------------------------|-------------------------------------|
D|---------------------------------|-------------------------------------|-------------------------------------|
A|-0---0---0---0---0---0---0---0---|-0---0--0--0---0--0--0---0---0---0---|-0---0--0--0---0--0--0---0---0---0---|
E|---------------------------------|-------------------------------------|-------------------------------------|


G|-------------------------------------|-------------------------------------|-------------------------------------|
D|-------------------------------------|-------------------------------------|-------------------------------------|
A|-0---0--0--0---0--0--0---0---0---0---|-0---0--0--0---0--0--0---0---0---0---|-0---0--0--0---0--0--0---0---0---0---|
E|-------------------------------------|-------------------------------------|-------------------------------------|


G|-------------------------------------|-------------------------------------|---------------------------------|
D|-------------------------------------|-------------------------------------|---------------------------------|
A|-0---0--0--0---0--0--0---0---0---0---|-0---0--0--0---0--0--0---0---0---0---|-0---0---0---0---0---0---0---0---|
E|-------------------------------------|-------------------------------------|---------------------------------|


G|------------------------------|------------------------------|--------------------------5---|
D|------------------------------|------------------------------|----------------------7-------|
A|-0---0---0---0----0---0-------|--------------------------5---|-5---5---5---5----7-----------|
E|--------------------------3---|-3---3---3---3----3---5-------|------------------------------|


G|-5----------------------------|------------------------------|------------------------------|
D|---------7--------------------|------------------------------|------------------------------|
A|-----7--------------------0---|-0---0---0---0----0---0-------|--------------------------5---|
E|-------------0----0---0-------|--------------------------3---|-3---3---3---3----3---3-------|


G|------------------------------|---------------------------------|------------------------------|
D|------------------------------|---------------------------------|------------------------------|
A|-5---5---5---5----5---5---7---|-7---------------------------0---|-0---0---0---0----0---0-------|
E|------------------------------|-----0---0---0---0---0---0-------|--------------------------3---|


G|------------------------------|--------------------------5---|-5----------------------------|
D|------------------------------|----------------------7-------|---------7--------------------|
A|--------------------------5---|-5---5---5---5----7-----------|-----7--------------------0---|
E|-3---3---3---3----3---5-------|------------------------------|-------------0----0---0-------|


G|------------------------------|------------------------------|------------------------------|
D|------------------------------|------------------------------|------------------------------|
A|-0---0---0---0----0---0-------|--------------------------5---|-5---5---5---5----5---5---7---|
E|--------------------------3---|-3---3---3---3----3---3-------|------------------------------|


G|---------------------------------|---------------------------|------------------------------|
D|---------------------------------|---------------------------|------------------------------|
A|-7---------------------------0---|-0---0---0-----0---0---0---|-0---0---0---0----0---0---0---|
E|-----0---0---0---0---0---0-------|---------------------------|------------------------------|


G|---------------------------|------------------------------|---------------------------|
D|---------------------------|------------------------------|---------------------------|
A|-0---0---0-----0---0---0---|-0---0---0---0----0---0---0---|-0---0---0-----0---0---0---|
E|---------------------------|------------------------------|---------------------------|


G|------------------------------|-9-----7----------|---------------------|--------|
D|------------------------------|-------------10---|-10--9-----7----6----|--------|
A|-0---0---0---0----0---0---0---|------------------|---------------------|-0------|
E|------------------------------|------------------|---------------------|--------|


G|-----------------------------------------|--------|-----------------------------------------|
D|-----------------------------------------|--------|-----------------------------------------|
A|-0---0--0--0---0--0--0---0--0--0---0--0--|-0------|-0---0--0--0---0--0--0---0--0--0---0--0--|
E|-----------------------------------------|--------|-----------------------------------------|


G|--------|-----------------------------------------|--------|-----------------------------------------|
D|--------|-----------------------------------------|--------|-----------------------------------------|
A|-0------|-0---0--0--0---0--0--0---0--0--0---0--0--|-0------|-0---0--0--0---0--0--0---0--0--0---0--0--|
E|--------|-----------------------------------------|--------|-----------------------------------------|


G|-----------------------------------------|-----------------------------------------|
D|-----------------------------------------|-----------------------------------------|
A|-0---0--0--0---0--0--0---0--0--0--0--2---|-2---0--0--0---0--0--0---0--0--0--0--3---|
E|-----------------------------------------|-----------------------------------------|


G|-----------------------------------------|--------------------------------------|
D|-----------------------------------------|--------------------------------------|
A|-3---0--0--0---0--0--0---0--0--0--0------|-----0--0--0--0-------0--0--0--0------|
E|-------------------------------------3---|-3---------------2----------------1---|


G|---------------------------------------------|---------------------------------------------|
D|---------------------------------------------|---------------------------------------------|
A|-----------------------------------------8---|-8---8--8--8--8--8--8--8--8--8--8--8--8------|
E|-1---1--1--1--1--1--1--1--1--1--1--1--1------|-----------------------------------------0---|


G|---------------------------------|------------------------------|-----------------------------------------|
D|---------------------------------|------------------------------|-----------------------------------------|
A|-----6---7-------------------5---|-5----------------2---3---0---|-0---0--0--0---0--0--0---0--0--0--0--2---|
E|-0-----------0---8---7---5-------|-----3---2---0----------------|-----------------------------------------|


G|-----------------------------------------|-----------------------------------------|
D|-----------------------------------------|-----------------------------------------|
A|-2---0--0--0---0--0--0---0--0--0--0--3---|-3---0--0--0---0--0--0---0--0--0--0------|
E|-----------------------------------------|-------------------------------------3---|


G|--------------------------------------|---------------------------------------------|
D|--------------------------------------|---------------------------------------------|
A|-----0--0--0--0-------0--0--0--0------|-----------------------------------------8---|
E|-3---------------2----------------1---|-1---1--1--1--1--1--1--1--1--1--1--1--1------|


G|---------------------------------------------|---------------------------------|
D|---------------------------------------------|---------------------------------|
A|-8---8--8--8--8--8--8--8--8--8--8--8--8------|-----6---7-------------------5---|
E|-----------------------------------------0---|-0-----------0---8---7---5-------|


G|------------------------------|-----------------------------------------|-----------------------------------------|
D|------------------------------|-----------------------------------------|-----------------------------------------|
A|-5----------------2---3---0---|-0---0--0--0---0--0--0---0--0--0--0--2---|-2---0--0--0---0--0--0---0--0--0--0--3---|
E|-----3---2---0----------------|-----------------------------------------|-----------------------------------------|


G|-----------------------------------------|--------------------------------------|
D|-----------------------------------------|--------------------------------------|
A|-3---0--0--0---0--0--0---0--0--0--0------|-----0--0--0--0-------0--0--0--0------|
E|-------------------------------------3---|-3---------------2----------------1---|


G|---------------------------------------------|---------------------------------------------|
D|---------------------------------------------|---------------------------------------------|
A|-----------------------------------------8---|-8---8--8--8--8--8--8--8--8--8--8--8--8------|
E|-1---1--1--1--1--1--1--1--1--1--1--1--1------|-----------------------------------------0---|


G|---------------------------------|------------------------------|-----------------------------------------|
D|---------------------------------|------------------------------|-----------------------------------------|
A|-----6---7-------------------5---|-5----------------2---3---0---|-0---0--0--0---0--0--0---0--0--0--0--2---|
E|-0-----------0---8---7---5-------|-----3---2---0----------------|-----------------------------------------|


G|-----------------------------------------|-----------------------------------------|
D|-----------------------------------------|-----------------------------------------|
A|-2---0--0--0---0--0--0---0--0--0--0--3---|-3---0--0--0---0--0--0---0--0--0--0------|
E|-----------------------------------------|-------------------------------------3---|


G|--------------------------------------|---------------------------------------------|
D|--------------------------------------|---------------------------------------------|
A|-----0--0--0--0-------0--0--0--0------|-----------------------------------------8---|
E|-3---------------2----------------1---|-1---1--1--1--1--1--1--1--1--1--1--1--1------|


G|---------------------------------------------|---------------------------------|
D|---------------------------------------------|---------------------------------|
A|-8---8--8--8--8--8--8--8--8--8--8--8--8------|-----6---7-------------------5---|
E|-----------------------------------------0---|-0-----------0---8---7---5-------|


G|------------------------------|--------|-----------------------------------------|
D|------------------------------|--------|-----------------------------------------|
A|-5----------------2---3---0---|-0------|-0---0--0--0---0--0--0---0--0--0---0--0--|
E|-----3---2---0----------------|--------|-----------------------------------------|


G|--------|-----------------------------------------|--------|-----------------------------------------|
D|--------|-----------------------------------------|--------|-----------------------------------------|
A|-0------|-0---0--0--0---0--0--0---0--0--0---0--0--|-0------|-0---0--0--0---0--0--0---0--0--0---0--0--|
E|--------|-----------------------------------------|--------|-----------------------------------------|


G|--------|-----------------------------------------|--------|--------|--------|--------|
D|--------|-----------------------------------------|--------|--------|--------|--------|
A|-0------|-0---0--0--0---0--0--0---0--0--0---0--0--|-0------|-0------|-0------|-0------|
E|--------|-----------------------------------------|--------|--------|--------|--------|