Menu:

 

Search:

 

megadeth - take no prisoners:

 



Title: Take No Prisoners
Artist: 
Album: Rust In Peace
Author: Dave Mustaine


Track 1: Dave Mustaine

E|-------------------------------------------|-------------------------------------------|
B|-------------------------------------------|-------------------------------------------|
G|-------------------------------------------|-------------------------------------------|
D|-------------------------------------------|-------------------------------------------|
A|-4------4--4-----4------4------------------|-4------4--4-----4------4------------------|
E|-2------2--2-----2------2---0--3--0--2--0--|-2------2--2-----2------2---0--3--0--2--0--|


E|-------------------------------------------|---------------------------------------------|
B|-------------------------------------------|---------------------------------------------|
G|-------------------------------------------|---------------------------------------------|
D|-------------------------------------------|---------------------------------------------|
A|-4------4--4-----4------4------------------|---------------------------------------------|
E|-2------2--2-----2------2---0--3--0--2--0--|-2--1--0--3--3---2--1--0--5--5---2--1--0--2--|


E|-------------------------------------------|-------------------------------------------|
B|-------------------------------------------|-------------------------------------------|
G|-------------------------------------------|-------------------------------------------|
D|-------------------------------------------|-------------------------------------------|
A|-4------4--4-----4------4------------------|-4------4--4-----4------4------------------|
E|-2------2--2-----2------2---0--3--0--2--0--|-2------2--2-----2------2---0--3--0--2--0--|


E|-------------------------------------------|---------------------------------------------|
B|-------------------------------------------|---------------------------------------------|
G|-------------------------------------------|---------------------------------------------|
D|-------------------------------------------|---------------------------------------------|
A|-4------4--4-----4------4------------------|---------------------------------------------|
E|-2------2--2-----2------2---0--3--0--2--0--|-2--1--0--3--3---2--1--0--5--5---2--1--0--2--|


E|-------------------------------------------|---------------------------------------------|
B|-------------------------------------------|---------------------------------------------|
G|-------------------------------------------|---------------------------------------------|
D|-------------------------------------------|---------------------------------------------|
A|-4------4--4-----4------4------------------|---------------------------------------------|
E|-2------2--2-----2------2---0--3--0--2--0--|-2--1--0--3--3---2--1--0--5--5---2--1--0--2--|


E|-------------------------------------------|---------------------------------------------|
B|-------------------------------------------|---------------------------------------------|
G|-------------------------------------------|---------------------------------------------|
D|-------------------------------------------|---------------------------------------------|
A|-4------4--4-----4------4------------------|---------------------------------------------|
E|-2------2--2-----2------2---0--3--0--2--0--|-2--1--0--3--3---2--1--0--5--5---2--1--0--2--|


E|-------------------------------------------|---------------------------------------------|
B|-------------------------------------------|---------------------------------------------|
G|-------------------------------------------|---------------------------------------------|
D|-------------------------------------------|---------------------------------------------|
A|-4------4--4-----4------4------------------|---------------------------------------------|
E|-2------2--2-----2------2---0--3--0--2--0--|-2--1--0--3--3---2--1--0--5--5---2--1--0--2--|


E|---------------------------------------------|---------------------------------------------|
B|---------------------------------------------|---------------------------------------------|
G|---------------------------------------------|---------------------------------------------|
D|---------------------------------------------|---------------------------------------------|
A|---------------------------------------------|---------------------------------------------|
E|-2--1--0--3--3---2--1--0--5--5---2--1--0--2--|-2--1--0--3--3---2--1--0--5--5---2--1--0--2--|


E|-------------------------------------------------|-------------------------------------------------|
B|-------------------------------------------------|-------------------------------------------------|
G|-------------------------------------------------|-------------------------------------------------|
D|-------------------------------------------------|-------------------------------------------------|
A|-------------------------------------------------|-------------------------------------------------|
E|-2--1--0--3--2--0--2--1--0--3--2--0--3--2--1--0--|-2--1--0--3--2--0--2--1--0--3--2--0--3--2--1--0--|


E|-------------------------------------------------|-------------------------------------------------|
B|-------------------------------------------------|-------------------------------------------------|
G|-------------------------------------------------|-------------------------------------------------|
D|-------------------------------------------------|-------------------------------------------------|
A|-------------------------------------------------|-------------------------------------------------|
E|-2--1--0--3--2--0--2--1--0--3--2--0--3--2--1--0--|-2--1--0--3--2--0--2--1--0--3--2--0--3--2--1--0--|


E|-------------------------------------------------|-------------------------------------------------|
B|-------------------------------------------------|-------------------------------------------------|
G|-------------------------------------------------|-------------------------------------------------|
D|-------------------------------------------------|-------------------------------------------------|
A|-------------------------------------------------|-------------------------------------------------|
E|-2--1--0--3--2--0--2--1--0--3--2--0--3--2--1--0--|-2--1--0--3--2--0--2--1--0--3--2--0--3--2--1--0--|


E|-------------------------------------------------|-------------------------------------------------|
B|-------------------------------------------------|-------------------------------------------------|
G|-------------------------------------------------|-------------------------------------------------|
D|-------------------------------------------------|-------------------------------------------------|
A|-------------------------------------------------|-------------------------------------------------|
E|-2--1--0--3--2--0--2--1--0--3--2--0--3--2--1--0--|-2--1--0--3--2--0--2--1--0--3--2--0--3--2--1--0--|


E|-----------------------------------------|-----------------------------------------|
B|-----------------------------------------|-----------------------------------------|
G|-----------------------------------------|-----------------------------------------|
D|---------------------------0---------5---|---------------------------0---------5---|
A|-4--4--4--5--5--5--4---4---0---------3---|-4--4--4--5--5--5--4---4---0---------3---|
E|-2--2--2--3--3--3--2---2-------2--2--3---|-2--2--2--3--3--3--2---2-------2--2--3---|


E|-----------------------------------------|-----------------------------------------|
B|-----------------------------------------|-----------------------------------------|
G|-----------------------------------------|-----------------------------------------|
D|---------------------------0---------5---|---------------------------0---------5---|
A|-4--4--4--5--5--5--4---4---0---------3---|-4--4--4--5--5--5--4---4---0---------3---|
E|-2--2--2--3--3--3--2---2-------2--2--3---|-2--2--2--3--3--3--2---2-------2--2--3---|


E|-----------------------------------------|-----------------------------------------|
B|-----------------------------------------|-----------------------------------------|
G|-----------------------------------------|-----------------------------------------|
D|---------------------------0---------5---|---------------------------0---------5---|
A|-4--4--4--5--5--5--4---4---0---------3---|-4--4--4--5--5--5--4---4---0---------3---|
E|-2--2--2--3--3--3--2---2-------2--2--3---|-2--2--2--3--3--3--2---2-------2--2--3---|


E|-----------------------------------------|-----------------------------------------|
B|-----------------------------------------|-----------------------------------------|
G|-----------------------------------------|-----------------------------------------|
D|---------------------------0---------5---|---------------------------0---------5---|
A|-4--4--4--5--5--5--4---4---0---------3---|-4--4--4--5--5--5--4---4---0---------3---|
E|-2--2--2--3--3--3--2---2-------2--2--3---|-2--2--2--3--3--3--2---2-------2--2--3---|


E|-----------------------------------|-----------------------------------|-----------------------------------|
B|-----------------------------------|-----------------------------------|-----------------------------------|
G|-----------------------------------|-----------------------------------|-----------------------------------|
D|-----------------------0-------5---|-----------------------0-------5---|-----------------------0-------5---|
A|-4------5--5---4---4---0---4---3---|-4------5--5---4---4---0---4---3---|-4------5--5---4---4---0---4---3---|
E|-2------3--3---2---2-------2---3---|-2------3--3---2---2-------2---3---|-2------3--3---2---2-------2---3---|


E|-----------------------------------|-----------------------------------|-----------------------------------|
B|-----------------------------------|-----------------------------------|-----------------------------------|
G|-----------------------------------|-----------------------------------|-----------------------------------|
D|-----------------------0-------5---|-----------------------0-------5---|-----------------------0-------5---|
A|-4------5--5---4---4---0---4---3---|-4------5--5---4---4---0---4---3---|-4------5--5---4---4---0---4---3---|
E|-2------3--3---2---2-------2---3---|-2------3--3---2---2-------2---3---|-2------3--3---2---2-------2---3---|


E|-----------------------------------|-----------------------------------|-----------------------------------------|
B|-----------------------------------|-----------------------------------|-----------------------------------------|
G|-----------------------------------|-----------------------------------|-----------------------------------------|
D|-----------------------0-------5---|-----------------------0-------5---|---------------------------4---------7---|
A|-4------5--5---4---4---0---4---3---|-4------5--5---4---4---0---4---3---|-6--6--6--7--7--7--6---6---2---------5---|
E|-2------3--3---2---2-------2---3---|-2------3--3---2---2-------2---3---|-4--4--4--5--5--5--4---4-------4--4------|


E|-----------------------------------------|-----------------------------------------|
B|-----------------------------------------|-----------------------------------------|
G|-----------------------------------------|-----------------------------------------|
D|---------------------------4---------7---|---------------------------4---------7---|
A|-6--6--6--7--7--7--6---6---2---------5---|-6--6--6--7--7--7--6---6---2---------5---|
E|-4--4--4--5--5--5--4---4-------4--4------|-4--4--4--5--5--5--4---4-------4--4------|


E|-----------------------------------------|-----------------------------------|-----------------------------------|
B|-----------------------------------------|-----------------------------------|-----------------------------------|
G|-----------------------------------------|-----------------------------------|-----------------------------------|
D|---------------------------4---------7---|-----------------------0-------5---|-----------------------0-------5---|
A|-6--6--6--7--7--7--6---6---2---------5---|-4------5--5---4---4---0---4---3---|-4------5--5---4---4---0---4---3---|
E|-4--4--4--5--5--5--4---4-------4--4------|-2------3--3---2---2-------2---3---|-2------3--3---2---2-------2---3---|


E|-----------------------------------|-----------------------------------|-------------------------------------------|
B|-----------------------------------|-----------------------------------|-------------------------------------------|
G|-----------------------------------|-----------------------------------|-------------------------------------------|
D|-----------------------0-------5---|-----------------------0-----------|-------------------------------------------|
A|-4------5--5---4---4---0---4---3---|-4------5--5---4---4---0---4-------|-------------------------------------------|
E|-2------3--3---2---2-------2---3---|-2------3--3---2---2-------2---9---|-14--12-13-13-11-12--10-11--9--10-8--9--7--|


E|-------------------------------------------|-------------------------------------------|
B|-------------------------------------------|-------------------------------------------|
G|-------------------------------------------|-------------------------------------------|
D|-------------------------------------------|-------------------------------------------|
A|-------------------------------------------|-4---0--4--4--0--4---0--4------------------|
E|-9---6--7--7--5--6---4--5---3--4--2--3--1--|-2---0--2--2--0--2---0--2---0--3--0--2--0--|


E|-------------------------------|-------------------------------------------|-------------------------------------------|
B|-------------------------------|-------------------------------------------|-------------------------------------------|
G|------2----4---------2----4----|-------------------------------------------|-------------------------------------------|
D|-4----2----4----4----2----4----|-------------------------------------------|-------------------------------------------|
A|-4--------------4--------------|-------------------------------------------|-------------------------------------------|
E|-------------------------------|-14--12-13-13-11-12--10-11--9--10-8--9--7--|-9---6--7--7--5--6---4--5---3--4--2--3--1--|


E|-------------------------------------------|-------------------------------|-------------------------------------------|
B|-------------------------------------------|-------------------------------|-------------------------------------------|
G|-------------------------------------------|-------------------------------|-------------------------------------------|
D|-------------------------------------------|-2----0----2----3----2----0----|-------------------------------------------|
A|-4---0--4--4--0--4---0--4------------------|-2----0----2----3----2----0----|-4---0--4--4--0--4---0--4------------------|
E|-2---0--2--2--0--2---0--2---0--3--0--2--0--|-------------------------------|-2---0--2--2--0--2---0--2---0--3--0--2--0--|


E|-------------------------------|-------------------------------------------|-------------------------------|
B|-------------------------------|-------------------------------------------|-------------------------------|
G|------2----4---------2----4----|-------------------------------------------|-------------------------------|
D|-4----2----4----4----2----4----|-------------------------------------------|-2----0----2----3----2----0----|
A|-4--------------4--------------|-4---0--4--4--0--4---0--4------------------|-2----0----2----3----2----0----|
E|-------------------------------|-2---0--2--2--0--2---0--2---0--3--0--2--0--|-------------------------------|


E|-------------------------------------------|-------------------------------------------|
B|-------------------------------------------|-------------------------------------------|
G|-------------------------------------------|-------------------------------------------|
D|-------------------------------------------|-------------------------------------------|
A|-------------------------------------------|-------------------------------------------|
E|-14--12-13-13-11-12--10-11--9--10-8--9--7--|-9---6--7--7--5--6---4--5---3--4--2--3--1--|


E|------------------------------------|----------------------|-------------------------------------------|
B|------------------------------------|----------------------|-------------------------------------------|
G|-------------------------------4----|-11-------------------|-------------------------------------------|
D|-------------------------------4----|-11-------------------|-------------------------------------------|
A|-4---0--4--4--0--4---0--4-----------|-9--------------------|-4---0--4--4--0--4---0--4------------------|
E|-2---0--2--2--0--2---0--2---0-------|----------------------|-2---0--2--2--0--2---0--2---0--3--0--2--0--|


E|-------------------------------------------------|-------------------------------------------|
B|-------------------------------------------------|-------------------------------------------|
G|-------------------------------------------------|-------------------------------------------|
D|-------------------------------------------------|-------------------------------------------|
A|-------2--3--2-----------------2--3--2-----------|-4---0--4--4--0--4---0--4------------------|
E|-2--5-----------5--2--0--2--5-----------5--2--0--|-2---0--2--2--0--2---0--2---0--3--0--2--0--|


E|-------------------------------------------------|-------------------------------------------|
B|-------------------------------------------------|-------------------------------------------|
G|-------------------------------------------------|-------------------------------------------|
D|-------------------------------------------------|-------------------------------------------|
A|-------0--1--0-----------------0--1--0-----------|-4---0--4--4--0--4---0--4------------------|
E|-0--3-----------3--0--0--0--3-----------3--0--0--|-2---0--2--2--0--2---0--2---0--3--0--2--0--|


E|-------------------------------------------------|-------------------------------------------|
B|-------------------------------------------------|-------------------------------------------|
G|-------------------------------------------------|-------------------------------------------|
D|-------------------------------------------------|-------------------------------------------|
A|-------2--3--2-----------------2--3--2-----------|-4---0--4--4--0--4---0--4------------------|
E|-2--5-----------5--2--0--2--5-----------5--2--0--|-2---0--2--2--0--2---0--2---0--3--0--2--0--|


E|-------------------------------------------------|-------------------------------------------|
B|-------------------------------------------------|-------------------------------------------|
G|-------------------------------------------------|-------------------------------------------|
D|-------------------------------------------------|-------------------------------------------|
A|-------0--1--0-----------------0--1--0-----------|-4---0--4--4--0--4---0--4------------------|
E|-0--3-----------3--0--0--0--3-----------3--0--0--|-2---0--2--2--0--2---0--2---0--3--0--2--0--|


E|-------------------------------------------------|-------------------------------------------|
B|-------------------------------------------------|-------------------------------------------|
G|-------------------------------------------------|-------------------------------------------|
D|-------------------------------------------------|-------------------------------------------|
A|-------2--3--2-----------------2--3--2-----------|-4---0--4--4--0--4---0--4------------------|
E|-2--5-----------5--2--0--2--5-----------5--2--0--|-2---0--2--2--0--2---0--2---0--3--0--2--0--|


E|-------------------------------------------------|-------------------------------------------|
B|-------------------------------------------------|-------------------------------------------|
G|-------------------------------------------------|-------------------------------------------|
D|-------------------------------------------------|-------------------------------------------|
A|-------0--1--0-----------------0--1--0-----------|-------------------------------------------|
E|-0--3-----------3--0--0--0--3-----------3--0--0--|-14--12-13-13-11-12--10-11--9--10-8--9--7--|


E|-------------------------------------------|-------------------------------------------|
B|-------------------------------------------|-------------------------------------------|
G|-------------------------------------------|-------------------------------------------|
D|-------------------------------------------|-------------------------------------------|
A|-------------------------------------------|-4---0--4--4--0--4---0--4------------------|
E|-8---6--7--7--5--6---4--5---3--4--2--3--1--|-2---0--2--2--0--2---0--2---0--3--0--2--0--|


E|--------------------|-----------------------------------------|-----------------------------------------|
B|--------------------|-----------------------------------------|-----------------------------------------|
G|--------------------|-----------------------------------------|-----------------------------------------|
D|--------------------|-4--3--2-----4-------4--3--2--0----------|-----------------------------------------|
A|-4------------------|----------4----------------------2-------|-3--2--1--0----------1--0----------------|
E|-2------------------|-----------------------------------------|-------------3-------------3--2--1-------|


E|-------------------------------------------|--------------------|-------------------------------------------|
B|-------------------------------------------|--------------------|-------------------------------------------|
G|-------------------------------------------|--------------------|-------------------------------------------|
D|-------------------------------------------|--------------------|-------------------------------------------|
A|-5---0--4--4--0--5---0--4------------------|-4------------------|-5---0--4--4--0--5---0--4------------------|
E|-3---0--2--2--0--3---0--2---0--3--0--2--0--|-2------------------|-3---0--2--2--0--3---0--2---0--3--0--2--0--|


E|-----------------------------------------------|-------------------------------------------|
B|-----------------------------------------------|-------------------------------------------|
G|-----------------------------------------------|-------------------------------------------|
D|-4--2-----2------------------------------------|-------------------------------------------|
A|-------4-----4--0--4--3--3--3--0-----2--0------|-5---0--4--4--0--5---0--4------------------|
E|----------------------------------2--------0---|-3---0--2--2--0--3---0--2---0--3--0--2--0--|


E|--------------------|-------------------------------------------|-----------------------------------------------|
B|--------------------|-------------------------------------------|-----------------------------------------------|
G|--------------------|-------------------------------------------|-----------------------------------------------|
D|--------------------|-------------------------------------------|-4--2-----2------------------------------------|
A|-4------------------|-5---0--4--4--0--5---0--4------------------|-------4-----4--0--4--3--3--3--0-----2--0------|
E|-2------------------|-3---0--2--2--0--3---0--2---0--3--0--2--0--|----------------------------------2--------0---|


E|---------------------------------|---------------------------------|-------------------------------------------|
B|---------------------------------|---------------------------------|-------------------------------------------|
G|-6----7--7---6---6---------------|---------------------------------|-------------------------------------------|
D|-4----5--5---4---4---6---7-------|---------------------------------|-------------------------------------------|
A|---------------------4---5---7---|-6----7--7---6---6---4---6---7---|-5---0--4--4--0--5---0--4------------------|
E|-----------------------------5---|-4----5--5---4---4---2---4---5---|-3---0--2--2--0--3---0--2---0--3--0--2--0--|


E|-----------------------------------------------|---------------------------------|
B|-----------------------------------------------|---------------------------------|
G|-----------------------------------------------|-6----7--7---6---6---------------|
D|-------------------------------------2--3--4---|-4----5--5---4---4---6---7-------|
A|-------2--3--2--0--2--2--2--3--4--5------------|---------------------4---5---7---|
E|-2--5------------------------------------------|-----------------------------5---|


E|---------------------------------|-------------------------------------------|-----------------------------------------------|
B|---------------------------------|-------------------------------------------|-----------------------------------------------|
G|---------------------------------|-------------------------------------------|-----------------------------------------------|
D|---------------------------------|-------------------------------------------|-4--2-----2------------------------------------|
A|-6----7--7---6---6---4---6---7---|-5---0--4--4--0--5---0--4------------------|-------4-----4--0--4--3--3--3--0-----2--0------|
E|-4----5--5---4---4---2---4---5---|-3---0--2--2--0--3---0--2---0--3--0--2--0--|----------------------------------2--------0---|


E|-------------------------------------------|-----------------------------------------------|
B|-------------------------------------------|-----------------------------------------------|
G|-------------------------------------------|-----------------------------------------------|
D|-------------------------------------------|-------------------------------------2--3--4---|
A|-5---0--4--4--0--5---0--4------------------|-------2--3--2--0--2--2--2--3--4--5------------|
E|-3---0--2--2--0--3---0--2---0--3--0--2--0--|-2--5------------------------------------------|


E|-------------------------------------------|-----------------------------------------------|
B|-------------------------------------------|-----------------------------------------------|
G|-------------------------------------------|-----------------------------------------------|
D|-------------------------------------------|-4--2-----2------------------------------------|
A|-5---0--4--4--0--5---0--4------------------|-------4-----4--0--4--3--3--3--0-----2--0------|
E|-3---0--2--2--0--3---0--2---0--3--0--2--0--|----------------------------------2--------0---|


E|---------------------------------|---------------------------------|---------------------------------|
B|---------------------------------|---------------------------------|---------------------------------|
G|-6----7--7---6---6---------------|---------------------------------|-6----7--7---6---6---------------|
D|-4----5--5---4---4---6---7-------|---------------------------------|-4----5--5---4---4---6---7-------|
A|---------------------4---5---7---|-6----7--7---6---6---4---6---7---|---------------------4---5---7---|
E|-----------------------------5---|-4----5--5---4---4---2---4---5---|-----------------------------5---|


E|---------------------------------|--------|--------|--------|--------|--------|--------|
B|---------------------------------|--------|--------|--------|--------|--------|--------|
G|-6----7--7---6---6---------------|--------|--------|--------|--------|--------|--------|
D|-4----5--5---4---4---6---7-------|--------|--------|--------|--------|--------|--------|
A|---------------------4---5---7---|--------|--------|--------|--------|--------|--------|
E|-----------------------------5---|--------|--------|--------|--------|--------|--------|


E|--------|--------|--------|--------|--------|--------|--------|--------|--------|
B|--------|--------|--------|--------|--------|--------|--------|--------|--------|
G|--------|--------|--------|--------|--------|--------|--------|--------|--------|
D|--------|--------|--------|--------|--------|--------|--------|--------|--------|
A|--------|--------|--------|--------|--------|--------|--------|--------|--------|
E|--------|--------|--------|--------|--------|--------|--------|--------|--------|


E|--------|--------|--------|--------|--------|--------|--------|--------|--------|
B|--------|--------|--------|--------|--------|--------|--------|--------|--------|
G|--------|--------|--------|--------|--------|--------|--------|--------|--------|
D|--------|--------|--------|--------|--------|--------|--------|--------|--------|
A|--------|--------|--------|--------|--------|--------|--------|--------|--------|
E|--------|--------|--------|--------|--------|--------|--------|--------|--------|


E|--------|--------|--------|
B|--------|--------|--------|
G|--------|--------|--------|
D|--------|--------|--------|
A|--------|--------|--------|
E|--------|--------|--------|





Track 2: Dave Mustaine

E|--------|--------|--------|--------|--------|--------|--------|--------|--------|
B|--------|--------|--------|--------|--------|--------|--------|--------|--------|
G|--------|--------|--------|--------|--------|--------|--------|--------|--------|
D|--------|--------|--------|--------|--------|--------|--------|--------|--------|
A|--------|--------|--------|--------|--------|--------|--------|--------|--------|
E|--------|--------|--------|--------|--------|--------|--------|--------|--------|


E|--------|--------|--------|--------|--------|--------|--------|--------|--------|
B|--------|--------|--------|--------|--------|--------|--------|--------|--------|
G|--------|--------|--------|--------|--------|--------|--------|--------|--------|
D|--------|--------|--------|--------|--------|--------|--------|--------|--------|
A|--------|--------|--------|--------|--------|--------|--------|--------|--------|
E|--------|--------|--------|--------|--------|--------|--------|--------|--------|


E|--------|--------|--------|--------|--------|--------|--------|--------|--------|
B|--------|--------|--------|--------|--------|--------|--------|--------|--------|
G|--------|--------|--------|--------|--------|--------|--------|--------|--------|
D|--------|--------|--------|--------|--------|--------|--------|--------|--------|
A|--------|--------|--------|--------|--------|--------|--------|--------|--------|
E|--------|--------|--------|--------|--------|--------|--------|--------|--------|


E|--------|--------|--------|--------|--------|--------|--------|--------|--------|
B|--------|--------|--------|--------|--------|--------|--------|--------|--------|
G|--------|--------|--------|--------|--------|--------|--------|--------|--------|
D|--------|--------|--------|--------|--------|--------|--------|--------|--------|
A|--------|--------|--------|--------|--------|--------|--------|--------|--------|
E|--------|--------|--------|--------|--------|--------|--------|--------|--------|


E|--------|--------|--------|--------|--------|--------|--------|--------|--------|
B|--------|--------|--------|--------|--------|--------|--------|--------|--------|
G|--------|--------|--------|--------|--------|--------|--------|--------|--------|
D|--------|--------|--------|--------|--------|--------|--------|--------|--------|
A|--------|--------|--------|--------|--------|--------|--------|--------|--------|
E|--------|--------|--------|--------|--------|--------|--------|--------|--------|


E|--------|--------|--------|--------|--------|--------|--------|--------|--------|
B|--------|--------|--------|--------|--------|--------|--------|--------|--------|
G|--------|--------|--------|--------|--------|--------|--------|--------|--------|
D|--------|--------|--------|--------|--------|--------|--------|--------|--------|
A|--------|--------|--------|--------|--------|--------|--------|--------|--------|
E|--------|--------|--------|--------|--------|--------|--------|--------|--------|


E|--------|--------|--------|--------|--------|--------|--------|--------|--------|
B|--------|--------|--------|--------|--------|--------|--------|--------|--------|
G|--------|--------|--------|--------|--------|--------|--------|--------|--------|
D|--------|--------|--------|--------|--------|--------|--------|--------|--------|
A|--------|--------|--------|--------|--------|--------|--------|--------|--------|
E|--------|--------|--------|--------|--------|--------|--------|--------|--------|


E|--------|--------|--------|--------|--------|--------|--------|--------|--------|
B|--------|--------|--------|--------|--------|--------|--------|--------|--------|
G|--------|--------|--------|--------|--------|--------|--------|--------|--------|
D|--------|--------|--------|--------|--------|--------|--------|--------|--------|
A|--------|--------|--------|--------|--------|--------|--------|--------|--------|
E|--------|--------|--------|--------|--------|--------|--------|--------|--------|


E|--------|--------|--------|--------|--------|--------|--------|--------|--------|
B|--------|--------|--------|--------|--------|--------|--------|--------|--------|
G|--------|--------|--------|--------|--------|--------|--------|--------|--------|
D|--------|--------|--------|--------|--------|--------|--------|--------|--------|
A|--------|--------|--------|--------|--------|--------|--------|--------|--------|
E|--------|--------|--------|--------|--------|--------|--------|--------|--------|


E|--------|--------|--------|--------|--------|--------|--------|--------|--------|
B|--------|--------|--------|--------|--------|--------|--------|--------|--------|
G|--------|--------|--------|--------|--------|--------|--------|--------|--------|
D|--------|--------|--------|--------|--------|--------|--------|--------|--------|
A|--------|--------|--------|--------|--------|--------|--------|--------|--------|
E|--------|--------|--------|--------|--------|--------|--------|--------|--------|


E|--------|--------|--------|--------|--------|--------|--------|--------|--------|
B|--------|--------|--------|--------|--------|--------|--------|--------|--------|
G|--------|--------|--------|--------|--------|--------|--------|--------|--------|
D|--------|--------|--------|--------|--------|--------|--------|--------|--------|
A|--------|--------|--------|--------|--------|--------|--------|--------|--------|
E|--------|--------|--------|--------|--------|--------|--------|--------|--------|


E|--------|--------|--------|--------|--------|--------|--------|-----------------------------------|
B|--------|--------|--------|--------|--------|--------|--------|-----------------------------------|
G|--------|--------|--------|--------|--------|--------|--------|-----------------------------------|
D|--------|--------|--------|--------|--------|--------|--------|-----------------------0-------5---|
A|--------|--------|--------|--------|--------|--------|--------|-4------5--5---4---4---0---4---3---|
E|--------|--------|--------|--------|--------|--------|--------|-2------3--3---2---2-------2---3---|


E|-----------------------------------|-----------------------------------|-----------------------------------|
B|-----------------------------------|-----------------------------------|-----------------------------------|
G|-----------------------------------|-----------------------------------|-----------------------------------|
D|-----------------------0-------5---|-----------------------0-------5---|-----------------------0-------5---|
A|-4------5--5---4---4---0---4---3---|-4------5--5---4---4---0---4---3---|-4------5--5---4---4---0---4---3---|
E|-2------3--3---2---2-------2---3---|-2------3--3---2---2-------2---3---|-2------3--3---2---2-------2---3---|


E|-----------------------------------|-----------------------------------|-----------------------------------|
B|-----------------------------------|-----------------------------------|-----------------------------------|
G|-----------------------------------|-----------------------------------|-----------------------------------|
D|-----------------------0-------5---|-----------------------0-------5---|-----------------------0-------5---|
A|-4------5--5---4---4---0---4---3---|-4------5--5---4---4---0---4---3---|-4------5--5---4---4---0---4---3---|
E|-2------3--3---2---2-------2---3---|-2------3--3---2---2-------2---3---|-2------3--3---2---2-------2---3---|


E|--------|--------|--------|--------|--------|--------|--------|--------|--------|
B|--------|--------|--------|--------|--------|--------|--------|--------|--------|
G|--------|--------|--------|--------|--------|--------|--------|--------|--------|
D|--------|--------|--------|--------|--------|--------|--------|--------|--------|
A|--------|--------|--------|--------|--------|--------|--------|--------|--------|
E|--------|--------|--------|--------|--------|--------|--------|--------|--------|


E|--------|--------|--------|--------|--------|--------|--------|--------|--------|
B|--------|--------|--------|--------|--------|--------|--------|--------|--------|
G|--------|--------|--------|--------|--------|--------|--------|--------|--------|
D|--------|--------|--------|--------|--------|--------|--------|--------|--------|
A|--------|--------|--------|--------|--------|--------|--------|--------|--------|
E|--------|--------|--------|--------|--------|--------|--------|--------|--------|


E|--------|--------|
B|--------|--------|
G|--------|--------|
D|--------|--------|
A|--------|--------|
E|--------|--------|





Track 3: Marty Friedman

E|--------|--------|--------|--------|--------|--------|--------|--------|--------|
B|--------|--------|--------|--------|--------|--------|--------|--------|--------|
G|--------|--------|--------|--------|--------|--------|--------|--------|--------|
D|--------|--------|--------|--------|--------|--------|--------|--------|--------|
A|--------|--------|--------|--------|--------|--------|--------|--------|--------|
E|--------|--------|--------|--------|--------|--------|--------|--------|--------|


E|--------|--------|--------|--------|--------|--------|--------|--------|--------|
B|--------|--------|--------|--------|--------|--------|--------|--------|--------|
G|--------|--------|--------|--------|--------|--------|--------|--------|--------|
D|--------|--------|--------|--------|--------|--------|--------|--------|--------|
A|--------|--------|--------|--------|--------|--------|--------|--------|--------|
E|--------|--------|--------|--------|--------|--------|--------|--------|--------|


E|--------|--------|--------|--------|--------|--------|--------|--------|--------|
B|--------|--------|--------|--------|--------|--------|--------|--------|--------|
G|--------|--------|--------|--------|--------|--------|--------|--------|--------|
D|--------|--------|--------|--------|--------|--------|--------|--------|--------|
A|--------|--------|--------|--------|--------|--------|--------|--------|--------|
E|--------|--------|--------|--------|--------|--------|--------|--------|--------|


E|--------|--------|--------|--------|--------|--------|--------|--------|--------|
B|--------|--------|--------|--------|--------|--------|--------|--------|--------|
G|--------|--------|--------|--------|--------|--------|--------|--------|--------|
D|--------|--------|--------|--------|--------|--------|--------|--------|--------|
A|--------|--------|--------|--------|--------|--------|--------|--------|--------|
E|--------|--------|--------|--------|--------|--------|--------|--------|--------|


E|--------|--------|--------|--------|--------|--------|--------|--------|--------|
B|--------|--------|--------|--------|--------|--------|--------|--------|--------|
G|--------|--------|--------|--------|--------|--------|--------|--------|--------|
D|--------|--------|--------|--------|--------|--------|--------|--------|--------|
A|--------|--------|--------|--------|--------|--------|--------|--------|--------|
E|--------|--------|--------|--------|--------|--------|--------|--------|--------|


E|--------|--------|--------|--------|--------|--------|--------|--------|--------|
B|--------|--------|--------|--------|--------|--------|--------|--------|--------|
G|--------|--------|--------|--------|--------|--------|--------|--------|--------|
D|--------|--------|--------|--------|--------|--------|--------|--------|--------|
A|--------|--------|--------|--------|--------|--------|--------|--------|--------|
E|--------|--------|--------|--------|--------|--------|--------|--------|--------|


E|--------|--------|--------|--------|--------|--------|--------|--------|--------|
B|--------|--------|--------|--------|--------|--------|--------|--------|--------|
G|--------|--------|--------|--------|--------|--------|--------|--------|--------|
D|--------|--------|--------|--------|--------|--------|--------|--------|--------|
A|--------|--------|--------|--------|--------|--------|--------|--------|--------|
E|--------|--------|--------|--------|--------|--------|--------|--------|--------|


E|--------|--------|--------|--------|--------|--------|--------|--------|--------|
B|--------|--------|--------|--------|--------|--------|--------|--------|--------|
G|--------|--------|--------|--------|--------|--------|--------|--------|--------|
D|--------|--------|--------|--------|--------|--------|--------|--------|--------|
A|--------|--------|--------|--------|--------|--------|--------|--------|--------|
E|--------|--------|--------|--------|--------|--------|--------|--------|--------|


E|--------|--------|--------|--------|--------|--------|--------|--------|--------|
B|--------|--------|--------|--------|--------|--------|--------|--------|--------|
G|--------|--------|--------|--------|--------|--------|--------|--------|--------|
D|--------|--------|--------|--------|--------|--------|--------|--------|--------|
A|--------|--------|--------|--------|--------|--------|--------|--------|--------|
E|--------|--------|--------|--------|--------|--------|--------|--------|--------|


E|--------|--------|-----------------------------------------------|--------|--------------------|
B|--------|--------|-----------------------------------------------|--------|--------------------|
G|--------|--------|-----------------------------------------------|--------|--------------------|
D|--------|--------|-------------------------------------2--3--4---|--------|--------------------|
A|--------|--------|-------2--3--2--0--2--2--2--3--4--5------------|--------|-4------------------|
E|--------|--------|-2--5------------------------------------------|--------|-2------------------|


E|--------|-----------------------------------------------|--------|--------|--------|
B|--------|-----------------------------------------------|--------|--------|--------|
G|--------|-----------------------------------------------|--------|--------|--------|
D|--------|-------------------------------------2--3--4---|--------|--------|--------|
A|--------|-------2--3--2--0--2--2--2--3--4--5------------|--------|--------|--------|
E|--------|-2--5------------------------------------------|--------|--------|--------|


E|--------|--------|--------|--------|--------|--------|--------|--------|--------|
B|--------|--------|--------|--------|--------|--------|--------|--------|--------|
G|--------|--------|--------|--------|--------|--------|--------|--------|--------|
D|--------|--------|--------|--------|--------|--------|--------|--------|--------|
A|--------|--------|--------|--------|--------|--------|--------|--------|--------|
E|--------|--------|--------|--------|--------|--------|--------|--------|--------|


E|--------|--------|--------|--------|--------|--------|--------|--------|--------|
B|--------|--------|--------|--------|--------|--------|--------|--------|--------|
G|--------|--------|--------|--------|--------|--------|--------|--------|--------|
D|--------|--------|--------|--------|--------|--------|--------|--------|--------|
A|--------|--------|--------|--------|--------|--------|--------|--------|--------|
E|--------|--------|--------|--------|--------|--------|--------|--------|--------|


E|--------|--------|--------|--------|--------|--------|--------|--------|--------|
B|--------|--------|--------|--------|--------|--------|--------|--------|--------|
G|--------|--------|--------|--------|--------|--------|--------|--------|--------|
D|--------|--------|--------|--------|--------|--------|--------|--------|--------|
A|--------|--------|--------|--------|--------|--------|--------|--------|--------|
E|--------|--------|--------|--------|--------|--------|--------|--------|--------|


E|--------|--------|--------|--------|--------|--------|--------|--------|--------|
B|--------|--------|--------|--------|--------|--------|--------|--------|--------|
G|--------|--------|--------|--------|--------|--------|--------|--------|--------|
D|--------|--------|--------|--------|--------|--------|--------|--------|--------|
A|--------|--------|--------|--------|--------|--------|--------|--------|--------|
E|--------|--------|--------|--------|--------|--------|--------|--------|--------|


E|--------|--------|--------|--------|--------|--------|
B|--------|--------|--------|--------|--------|--------|
G|--------|--------|--------|--------|--------|--------|
D|--------|--------|--------|--------|--------|--------|
A|--------|--------|--------|--------|--------|--------|
E|--------|--------|--------|--------|--------|--------|





Track 4: Dave Mustaine

E|--------|--------|--------|--------|--------|--------|--------|--------|--------|
B|--------|--------|--------|--------|--------|--------|--------|--------|--------|
G|--------|--------|--------|--------|--------|--------|--------|--------|--------|
D|--------|--------|--------|--------|--------|--------|--------|--------|--------|
A|--------|--------|--------|--------|--------|--------|--------|--------|--------|
E|--------|--------|--------|--------|--------|--------|--------|--------|--------|


E|--------|--------|--------|--------|--------|--------|--------|--------|--------|
B|--------|--------|--------|--------|--------|--------|--------|--------|--------|
G|--------|--------|--------|--------|--------|--------|--------|--------|--------|
D|--------|--------|--------|--------|--------|--------|--------|--------|--------|
A|--------|--------|--------|--------|--------|--------|--------|--------|--------|
E|--------|--------|--------|--------|--------|--------|--------|--------|--------|


E|--------|--------|--------|--------|--------|--------|--------|--------|--------|
B|--------|--------|--------|--------|--------|--------|--------|--------|--------|
G|--------|--------|--------|--------|--------|--------|--------|--------|--------|
D|--------|--------|--------|--------|--------|--------|--------|--------|--------|
A|--------|--------|--------|--------|--------|--------|--------|--------|--------|
E|--------|--------|--------|--------|--------|--------|--------|--------|--------|


E|--------|--------|--------|--------|--------|--------|--------|--------|--------|
B|--------|--------|--------|--------|--------|--------|--------|--------|--------|
G|--------|--------|--------|--------|--------|--------|--------|--------|--------|
D|--------|--------|--------|--------|--------|--------|--------|--------|--------|
A|--------|--------|--------|--------|--------|--------|--------|--------|--------|
E|--------|--------|--------|--------|--------|--------|--------|--------|--------|


E|--------|--------|--------|--------|--------|--------|--------|--------|--------|
B|--------|--------|--------|--------|--------|--------|--------|--------|--------|
G|--------|--------|--------|--------|--------|--------|--------|--------|--------|
D|--------|--------|--------|--------|--------|--------|--------|--------|--------|
A|--------|--------|--------|--------|--------|--------|--------|--------|--------|
E|--------|--------|--------|--------|--------|--------|--------|--------|--------|


E|--------|--------|--------|--------|--------|--------|--------|--------|--------|
B|--------|--------|--------|--------|--------|--------|--------|--------|--------|
G|--------|--------|--------|--------|--------|--------|--------|--------|--------|
D|--------|--------|--------|--------|--------|--------|--------|--------|--------|
A|--------|--------|--------|--------|--------|--------|--------|--------|--------|
E|--------|--------|--------|--------|--------|--------|--------|--------|--------|


E|--------|--------|--------|--------|--------|--------|--------|--------|--------|
B|--------|--------|--------|--------|--------|--------|--------|--------|--------|
G|--------|--------|--------|--------|--------|--------|--------|--------|--------|
D|--------|--------|--------|--------|--------|--------|--------|--------|--------|
A|--------|--------|--------|--------|--------|--------|--------|--------|--------|
E|--------|--------|--------|--------|--------|--------|--------|--------|--------|


E|--------|--------|--------|--------|--------|--------|--------|--------|--------|
B|--------|--------|--------|--------|--------|--------|--------|--------|--------|
G|--------|--------|--------|--------|--------|--------|--------|--------|--------|
D|--------|--------|--------|--------|--------|--------|--------|--------|--------|
A|--------|--------|--------|--------|--------|--------|--------|--------|--------|
E|--------|--------|--------|--------|--------|--------|--------|--------|--------|


E|--------|--------|--------|--------|--------|--------|--------|--------|--------|
B|--------|--------|--------|--------|--------|--------|--------|--------|--------|
G|--------|--------|--------|--------|--------|--------|--------|--------|--------|
D|--------|--------|--------|--------|--------|--------|--------|--------|--------|
A|--------|--------|--------|--------|--------|--------|--------|--------|--------|
E|--------|--------|--------|--------|--------|--------|--------|--------|--------|


E|--------|--------|--------|--------|--------|--------|--------|--------|--------|
B|--------|--------|--------|--------|--------|--------|--------|--------|--------|
G|--------|--------|--------|--------|--------|--------|--------|--------|--------|
D|--------|--------|--------|--------|--------|--------|--------|--------|--------|
A|--------|--------|--------|--------|--------|--------|--------|--------|--------|
E|--------|--------|--------|--------|--------|--------|--------|--------|--------|


E|--------|--------|--------|--------|--------|--------|--------|--------|--------|
B|--------|--------|--------|--------|--------|--------|--------|--------|--------|
G|--------|--------|--------|--------|--------|--------|--------|--------|--------|
D|--------|--------|--------|--------|--------|--------|--------|--------|--------|
A|--------|--------|--------|--------|--------|--------|--------|--------|--------|
E|--------|--------|--------|--------|--------|--------|--------|--------|--------|


E|--------|--------|--------|--------|--------|--------|--------|--------|--------|
B|--------|--------|--------|--------|--------|--------|--------|--------|--------|
G|--------|--------|--------|--------|--------|--------|--------|--------|--------|
D|--------|--------|--------|--------|--------|--------|--------|--------|--------|
A|--------|--------|--------|--------|--------|--------|--------|--------|--------|
E|--------|--------|--------|--------|--------|--------|--------|--------|--------|


E|--------|--------|--------|--------|--------|--------|--------|--------|--------|
B|--------|--------|--------|--------|--------|--------|--------|--------|--------|
G|--------|--------|--------|--------|--------|--------|--------|--------|--------|
D|--------|--------|--------|--------|--------|--------|--------|--------|--------|
A|--------|--------|--------|--------|--------|--------|--------|--------|--------|
E|--------|--------|--------|--------|--------|--------|--------|--------|--------|


E|--------|--------|--------|--------|--------|--------|--------|--------|--------|
B|--------|--------|--------|--------|--------|--------|--------|--------|--------|
G|--------|--------|--------|--------|--------|--------|--------|--------|--------|
D|--------|--------|--------|--------|--------|--------|--------|--------|--------|
A|--------|--------|--------|--------|--------|--------|--------|--------|--------|
E|--------|--------|--------|--------|--------|--------|--------|--------|--------|


E|--------|--------|--------|--------|--------|--------|--------|
B|--------|--------|--------|--------|--------|--------|--------|
G|--------|--------|--------|--------|--------|--------|--------|
D|--------|--------|--------|--------|--------|--------|--------|
A|--------|--------|--------|--------|--------|--------|--------|
E|--------|--------|--------|--------|--------|--------|--------|





Track 5: Dave Mustaine

E|--------|--------|--------|--------|--------|--------|--------|--------|--------|
B|--------|--------|--------|--------|--------|--------|--------|--------|--------|
G|--------|--------|--------|--------|--------|--------|--------|--------|--------|
D|--------|--------|--------|--------|--------|--------|--------|--------|--------|
A|--------|--------|--------|--------|--------|--------|--------|--------|--------|
E|--------|--------|--------|--------|--------|--------|--------|--------|--------|


E|--------|--------|--------|--------|--------|--------|--------|--------|--------|
B|--------|--------|--------|--------|--------|--------|--------|--------|--------|
G|--------|--------|--------|--------|--------|--------|--------|--------|--------|
D|--------|--------|--------|--------|--------|--------|--------|--------|--------|
A|--------|--------|--------|--------|--------|--------|--------|--------|--------|
E|--------|--------|--------|--------|--------|--------|--------|--------|--------|


E|--------|--------|--------|--------|--------|--------|--------|--------|--------|
B|--------|--------|--------|--------|--------|--------|--------|--------|--------|
G|--------|--------|--------|--------|--------|--------|--------|--------|--------|
D|--------|--------|--------|--------|--------|--------|--------|--------|--------|
A|--------|--------|--------|--------|--------|--------|--------|--------|--------|
E|--------|--------|--------|--------|--------|--------|--------|--------|--------|


E|--------|--------|--------|--------|--------|--------|--------|--------|--------|
B|--------|--------|--------|--------|--------|--------|--------|--------|--------|
G|--------|--------|--------|--------|--------|--------|--------|--------|--------|
D|--------|--------|--------|--------|--------|--------|--------|--------|--------|
A|--------|--------|--------|--------|--------|--------|--------|--------|--------|
E|--------|--------|--------|--------|--------|--------|--------|--------|--------|


E|--------|--------|--------|--------|--------|--------|--------|--------|--------|
B|--------|--------|--------|--------|--------|--------|--------|--------|--------|
G|--------|--------|--------|--------|--------|--------|--------|--------|--------|
D|--------|--------|--------|--------|--------|--------|--------|--------|--------|
A|--------|--------|--------|--------|--------|--------|--------|--------|--------|
E|--------|--------|--------|--------|--------|--------|--------|--------|--------|


E|--------|--------|--------|--------|--------|--------|--------|--------|--------|
B|--------|--------|--------|--------|--------|--------|--------|--------|--------|
G|--------|--------|--------|--------|--------|--------|--------|--------|--------|
D|--------|--------|--------|--------|--------|--------|--------|--------|--------|
A|--------|--------|--------|--------|--------|--------|--------|--------|--------|
E|--------|--------|--------|--------|--------|--------|--------|--------|--------|


E|--------|--------|--------|--------|--------|--------|--------|--------|--------|
B|--------|--------|--------|--------|--------|--------|--------|--------|--------|
G|--------|--------|--------|--------|--------|--------|--------|--------|--------|
D|--------|--------|--------|--------|--------|--------|--------|--------|--------|
A|--------|--------|--------|--------|--------|--------|--------|--------|--------|
E|--------|--------|--------|--------|--------|--------|--------|--------|--------|


E|--------|--------|--------|--------|--------|--------|--------|--------|--------|
B|--------|--------|--------|--------|--------|--------|--------|--------|--------|
G|--------|--------|--------|--------|--------|--------|--------|--------|--------|
D|--------|--------|--------|--------|--------|--------|--------|--------|--------|
A|--------|--------|--------|--------|--------|--------|--------|--------|--------|
E|--------|--------|--------|--------|--------|--------|--------|--------|--------|


E|--------|--------|--------|--------|--------|--------|--------|--------|--------|
B|--------|--------|--------|--------|--------|--------|--------|--------|--------|
G|--------|--------|--------|--------|--------|--------|--------|--------|--------|
D|--------|--------|--------|--------|--------|--------|--------|--------|--------|
A|--------|--------|--------|--------|--------|--------|--------|--------|--------|
E|--------|--------|--------|--------|--------|--------|--------|--------|--------|


E|--------|--------|--------|--------|--------|--------|--------|--------|--------|
B|--------|--------|--------|--------|--------|--------|--------|--------|--------|
G|--------|--------|--------|--------|--------|--------|--------|--------|--------|
D|--------|--------|--------|--------|--------|--------|--------|--------|--------|
A|--------|--------|--------|--------|--------|--------|--------|--------|--------|
E|--------|--------|--------|--------|--------|--------|--------|--------|--------|


E|--------|--------|--------|--------|--------|--------|--------|--------|--------|
B|--------|--------|--------|--------|--------|--------|--------|--------|--------|
G|--------|--------|--------|--------|--------|--------|--------|--------|--------|
D|--------|--------|--------|--------|--------|--------|--------|--------|--------|
A|--------|--------|--------|--------|--------|--------|--------|--------|--------|
E|--------|--------|--------|--------|--------|--------|--------|--------|--------|


E|--------|--------|--------|--------|--------|--------|--------|--------|--------|
B|--------|--------|--------|--------|--------|--------|--------|--------|--------|
G|--------|--------|--------|--------|--------|--------|--------|--------|--------|
D|--------|--------|--------|--------|--------|--------|--------|--------|--------|
A|--------|--------|--------|--------|--------|--------|--------|--------|--------|
E|--------|--------|--------|--------|--------|--------|--------|--------|--------|


E|--------|--------|--------|--------|--------|--------|--------|--------|--------|
B|--------|--------|--------|--------|--------|--------|--------|--------|--------|
G|--------|--------|--------|--------|--------|--------|--------|--------|--------|
D|--------|--------|--------|--------|--------|--------|--------|--------|--------|
A|--------|--------|--------|--------|--------|--------|--------|--------|--------|
E|--------|--------|--------|--------|--------|--------|--------|--------|--------|


E|--------|--------|--------|--------|--------|--------|--------|--------|--------|
B|--------|--------|--------|--------|--------|--------|--------|--------|--------|
G|--------|--------|--------|--------|--------|--------|--------|--------|--------|
D|--------|--------|--------|--------|--------|--------|--------|--------|--------|
A|--------|--------|--------|--------|--------|--------|--------|--------|--------|
E|--------|--------|--------|--------|--------|--------|--------|--------|--------|


E|--------|--------|--------|--------|--------|--------|--------|
B|--------|--------|--------|--------|--------|--------|--------|
G|--------|--------|--------|--------|--------|--------|--------|
D|--------|--------|--------|--------|--------|--------|--------|
A|--------|--------|--------|--------|--------|--------|--------|
E|--------|--------|--------|--------|--------|--------|--------|





Track 6: Marty Friedman (solo)

E|--------|--------|--------|--------|--------|--------|--------|--------|--------|
B|--------|--------|--------|--------|--------|--------|--------|--------|--------|
G|--------|--------|--------|--------|--------|--------|--------|--------|--------|
D|--------|--------|--------|--------|--------|--------|--------|--------|--------|
A|--------|--------|--------|--------|--------|--------|--------|--------|--------|
E|--------|--------|--------|--------|--------|--------|--------|--------|--------|


E|--------|--------|--------|--------|--------|--------|--------|--------|--------|
B|--------|--------|--------|--------|--------|--------|--------|--------|--------|
G|--------|--------|--------|--------|--------|--------|--------|--------|--------|
D|--------|--------|--------|--------|--------|--------|--------|--------|--------|
A|--------|--------|--------|--------|--------|--------|--------|--------|--------|
E|--------|--------|--------|--------|--------|--------|--------|--------|--------|


E|--------|--------|--------|--------|--------|--------|--------|--------|--------|
B|--------|--------|--------|--------|--------|--------|--------|--------|--------|
G|--------|--------|--------|--------|--------|--------|--------|--------|--------|
D|--------|--------|--------|--------|--------|--------|--------|--------|--------|
A|--------|--------|--------|--------|--------|--------|--------|--------|--------|
E|--------|--------|--------|--------|--------|--------|--------|--------|--------|


E|--------|--------|--------|--------|--------|--------|--------|--------|--------|
B|--------|--------|--------|--------|--------|--------|--------|--------|--------|
G|--------|--------|--------|--------|--------|--------|--------|--------|--------|
D|--------|--------|--------|--------|--------|--------|--------|--------|--------|
A|--------|--------|--------|--------|--------|--------|--------|--------|--------|
E|--------|--------|--------|--------|--------|--------|--------|--------|--------|


E|--------|--------|--------|--------|--------|--------|--------|--------|--------|
B|--------|--------|--------|--------|--------|--------|--------|--------|--------|
G|--------|--------|--------|--------|--------|--------|--------|--------|--------|
D|--------|--------|--------|--------|--------|--------|--------|--------|--------|
A|--------|--------|--------|--------|--------|--------|--------|--------|--------|
E|--------|--------|--------|--------|--------|--------|--------|--------|--------|


E|--------|--------|--------|--------|--------|--------|--------|--------|--------|
B|--------|--------|--------|--------|--------|--------|--------|--------|--------|
G|--------|--------|--------|--------|--------|--------|--------|--------|--------|
D|--------|--------|--------|--------|--------|--------|--------|--------|--------|
A|--------|--------|--------|--------|--------|--------|--------|--------|--------|
E|--------|--------|--------|--------|--------|--------|--------|--------|--------|


E|--------|--------|--------|--------|--------|--------|--------|--------|--------|
B|--------|--------|--------|--------|--------|--------|--------|--------|--------|
G|--------|--------|--------|--------|--------|--------|--------|--------|--------|
D|--------|--------|--------|--------|--------|--------|--------|--------|--------|
A|--------|--------|--------|--------|--------|--------|--------|--------|--------|
E|--------|--------|--------|--------|--------|--------|--------|--------|--------|


E|--------|--------|--------|--------|--------|--------|--------|--------|--------|
B|--------|--------|--------|--------|--------|--------|--------|--------|--------|
G|--------|--------|--------|--------|--------|--------|--------|--------|--------|
D|--------|--------|--------|--------|--------|--------|--------|--------|--------|
A|--------|--------|--------|--------|--------|--------|--------|--------|--------|
E|--------|--------|--------|--------|--------|--------|--------|--------|--------|


E|--------|--------|--------|--------|--------|--------|--------|--------|--------|
B|--------|--------|--------|--------|--------|--------|--------|--------|--------|
G|--------|--------|--------|--------|--------|--------|--------|--------|--------|
D|--------|--------|--------|--------|--------|--------|--------|--------|--------|
A|--------|--------|--------|--------|--------|--------|--------|--------|--------|
E|--------|--------|--------|--------|--------|--------|--------|--------|--------|


E|--------|--------|--------|--------|--------|--------|--------|--------|--------|
B|--------|--------|--------|--------|--------|--------|--------|--------|--------|
G|--------|--------|--------|--------|--------|--------|--------|--------|--------|
D|--------|--------|--------|--------|--------|--------|--------|--------|--------|
A|--------|--------|--------|--------|--------|--------|--------|--------|--------|
E|--------|--------|--------|--------|--------|--------|--------|--------|--------|


E|--------|--------|--------|--------|--------|--------|--------|--------|--------|
B|--------|--------|--------|--------|--------|--------|--------|--------|--------|
G|--------|--------|--------|--------|--------|--------|--------|--------|--------|
D|--------|--------|--------|--------|--------|--------|--------|--------|--------|
A|--------|--------|--------|--------|--------|--------|--------|--------|--------|
E|--------|--------|--------|--------|--------|--------|--------|--------|--------|


E|--------|--------|--------|--------|--------|--------|--------|--------|--------|
B|--------|--------|--------|--------|--------|--------|--------|--------|--------|
G|--------|--------|--------|--------|--------|--------|--------|--------|--------|
D|--------|--------|--------|--------|--------|--------|--------|--------|--------|
A|--------|--------|--------|--------|--------|--------|--------|--------|--------|
E|--------|--------|--------|--------|--------|--------|--------|--------|--------|


E|--------|--------|--------|--------|--------|-----------------------|-----------------------------|
B|--------|--------|--------|--------|--------|-------------------7---|-7----7-------7----7--5------|
G|--------|--------|--------|--------|--------|-----------------------|----------5--------------6---|
D|--------|--------|--------|--------|--------|-----------------------|-----------------------------|
A|--------|--------|--------|--------|--------|-----0-----0-----------|-----------------------------|
E|--------|--------|--------|--------|--------|-----0-----0-----------|-----------------------------|


E|-------------|-------------14--19---17-------21-17-|---------------------------|
B|-------------|------14-14--------------19----------|-19---------------------10-|
G|-5------14---|-16-------------------------18-------|----18---18---18----11-----|
D|-------------|-------------------------------------|---------------------------|
A|-------------|-------------------------------------|---------------------------|
E|-------------|-------------------------------------|---------------------------|


E|-----------------------------------------------------|------------------------------|
B|-9--------------------------10-12-10-12-10----10-12--|-12--12--12--12--12-----------|
G|----9--11-9--11-9-----9--11----------------11--------|----------------------5--13---|
D|-------------------12--------------------------------|------------------------------|
A|-----------------------------------------------------|------------------------------|
E|-----------------------------------------------------|------------------------------|


E|---------------------------------------------------|--------------------|------14------------14-------17---|
B|-------------13-15-14-191815-191815----15----------|----------------17--|-17------17-14-17------17-14------|
G|----13-14-18------------------------18----18-17-14-|------------0-------|----------------------------------|
D|-16------------------------------------------------|-16----16---0-------|----------------------------------|
A|---------------------------------------------------|--------------------|----------------------------------|
E|---------------------------------------------------|--------------------|----------------------------------|


E|-17----17--0-----|-16-21-14-16-21-14-16-------------------------------|-------------|
B|-----------0-----|----------------------14-17-21-14-17----------------|-17-----0----|
G|-----------------|-------------------------------------14-14-14-18-21-|--------0----|
D|-----------------|----------------------------------------------------|-------------|
A|-----------------|----------------------------------------------------|-------------|
E|-----------------|----------------------------------------------------|-------------|


E|------------------------------------------------|-------------|---------------------------------------------------|
B|-17---17-17-17-19-17----17-19-16-17-16----16----|-------------|-14--13--12----------------------------------------|
G|---------------------18----------------18----18-|-17-----17---|-------------14--13--12--11--13--16----------------|
D|------------------------------------------------|-------------|-------------------------------------18--18-16-----|
A|------------------------------------------------|-------------|-----------------------------------------------17--|
E|------------------------------------------------|-------------|---------------------------------------------------|


E|-------------------|-----------------|--------|--------------------|
B|-------------------|-----------------|--------|--------------------|
G|-------------------|-----------------|--------|--------------------|
D|-------------10-10-|-10----10----10--|-10-----|-10----10-----------|
A|-16----16----------|-----------------|--------|--------------------|
E|-------------------|-----------------|--------|--------------------|





Track 7: Dave Mustaine

E|--------|--------|--------|--------|--------|--------|--------|--------|--------|
B|--------|--------|--------|--------|--------|--------|--------|--------|--------|
G|--------|--------|--------|--------|--------|--------|--------|--------|--------|
D|--------|--------|--------|--------|--------|--------|--------|--------|--------|
A|--------|--------|--------|--------|--------|--------|--------|--------|--------|
E|--------|--------|--------|--------|--------|--------|--------|--------|--------|


E|--------|--------|--------|--------|--------|--------|--------|--------|--------|
B|--------|--------|--------|--------|--------|--------|--------|--------|--------|
G|--------|--------|--------|--------|--------|--------|--------|--------|--------|
D|--------|--------|--------|--------|--------|--------|--------|--------|--------|
A|--------|--------|--------|--------|--------|--------|--------|--------|--------|
E|--------|--------|--------|--------|--------|--------|--------|--------|--------|


E|--------|--------|--------|--------|--------|--------|--------|--------|--------|
B|--------|--------|--------|--------|--------|--------|--------|--------|--------|
G|--------|--------|--------|--------|--------|--------|--------|--------|--------|
D|--------|--------|--------|--------|--------|--------|--------|--------|--------|
A|--------|--------|--------|--------|--------|--------|--------|--------|--------|
E|--------|--------|--------|--------|--------|--------|--------|--------|--------|


E|--------|--------|--------|--------|--------|--------|--------|--------|--------|
B|--------|--------|--------|--------|--------|--------|--------|--------|--------|
G|--------|--------|--------|--------|--------|--------|--------|--------|--------|
D|--------|--------|--------|--------|--------|--------|--------|--------|--------|
A|--------|--------|--------|--------|--------|--------|--------|--------|--------|
E|--------|--------|--------|--------|--------|--------|--------|--------|--------|


E|--------|--------|--------|--------|--------|--------|--------|--------|--------|
B|--------|--------|--------|--------|--------|--------|--------|--------|--------|
G|--------|--------|--------|--------|--------|--------|--------|--------|--------|
D|--------|--------|--------|--------|--------|--------|--------|--------|--------|
A|--------|--------|--------|--------|--------|--------|--------|--------|--------|
E|--------|--------|--------|--------|--------|--------|--------|--------|--------|


E|--------|--------|--------|--------|--------|--------|--------|--------|--------|
B|--------|--------|--------|--------|--------|--------|--------|--------|--------|
G|--------|--------|--------|--------|--------|--------|--------|--------|--------|
D|--------|--------|--------|--------|--------|--------|--------|--------|--------|
A|--------|--------|--------|--------|--------|--------|--------|--------|--------|
E|--------|--------|--------|--------|--------|--------|--------|--------|--------|


E|--------|--------|--------|--------|--------|--------|--------|--------|--------|
B|--------|--------|--------|--------|--------|--------|--------|--------|--------|
G|--------|--------|--------|--------|--------|--------|--------|--------|--------|
D|--------|--------|--------|--------|--------|--------|--------|--------|--------|
A|--------|--------|--------|--------|--------|--------|--------|--------|--------|
E|--------|--------|--------|--------|--------|--------|--------|--------|--------|


E|--------|--------|--------|--------|--------|--------|--------|--------|--------|
B|--------|--------|--------|--------|--------|--------|--------|--------|--------|
G|--------|--------|--------|--------|--------|--------|--------|--------|--------|
D|--------|--------|--------|--------|--------|--------|--------|--------|--------|
A|--------|--------|--------|--------|--------|--------|--------|--------|--------|
E|--------|--------|--------|--------|--------|--------|--------|--------|--------|


E|--------|--------|--------|--------|--------|--------|--------|--------|--------|
B|--------|--------|--------|--------|--------|--------|--------|--------|--------|
G|--------|--------|--------|--------|--------|--------|--------|--------|--------|
D|--------|--------|--------|--------|--------|--------|--------|--------|--------|
A|--------|--------|--------|--------|--------|--------|--------|--------|--------|
E|--------|--------|--------|--------|--------|--------|--------|--------|--------|


E|--------|--------|--------|--------|--------|--------|--------|--------|--------|
B|--------|--------|--------|--------|--------|--------|--------|--------|--------|
G|--------|--------|--------|--------|--------|--------|--------|--------|--------|
D|--------|--------|--------|--------|--------|--------|--------|--------|--------|
A|--------|--------|--------|--------|--------|--------|--------|--------|--------|
E|--------|--------|--------|--------|--------|--------|--------|--------|--------|


E|--------|--------|--------|--------|--------|--------|--------|--------|--------|
B|--------|--------|--------|--------|--------|--------|--------|--------|--------|
G|--------|--------|--------|--------|--------|--------|--------|--------|--------|
D|--------|--------|--------|--------|--------|--------|--------|--------|--------|
A|--------|--------|--------|--------|--------|--------|--------|--------|--------|
E|--------|--------|--------|--------|--------|--------|--------|--------|--------|


E|--------|--------|--------|--------|--------|--------|--------|--------|--------|
B|--------|--------|--------|--------|--------|--------|--------|--------|--------|
G|--------|--------|--------|--------|--------|--------|--------|--------|--------|
D|--------|--------|--------|--------|--------|--------|--------|--------|--------|
A|--------|--------|--------|--------|--------|--------|--------|--------|--------|
E|--------|--------|--------|--------|--------|--------|--------|--------|--------|


E|--------|--------|--------|--------|--------|-----------------------------------|
B|--------|--------|--------|--------|--------|-----------------------------------|
G|--------|--------|--------|--------|--------|-----------------------------------|
D|--------|--------|--------|--------|--------|-----------------------0-------5---|
A|--------|--------|--------|--------|--------|-4------5--5---4---4---0---4---3---|
E|--------|--------|--------|--------|--------|-2------3--3---2---2-------2---3---|


E|-----------------------------------|-------------------------------------------------|
B|-----------------------------------|-------------------------------------------------|
G|-----------------------------------|-------------------------------------------------|
D|--------0--0---5---4----0--0---4---|-------------------------------------------------|
A|-4------0--0---3---2----0--0---2---|-3--3--3--3--3--3--3--3--3--3--3--3--3--3--3--3--|
E|-2---------------------------------|-------------------------------------------------|


E|-----------------------------------|-----------------------------------------|-----------------------------------|
B|-----------------------------------|-----------------------------------------|-----------------------------------|
G|-----------------------------------|-----------------------------------------|-----------------------------------|
D|--------0--0---5---4----0--0-------|-----------------------------------------|--------0--0---5---4----0--0---4---|
A|-4------0--0---3---2----0--0---5---|-4------4--4-----2---4------4--4-----2---|-4------0--0---3---2----0--0---2---|
E|-2-----------------------------3---|-2------2--2-----0---2------2--2-----0---|-2---------------------------------|


E|-------------------------------------------------|-----------------------------------|
B|-------------------------------------------------|-----------------------------------|
G|-------------------------------------------------|-----------------------------------|
D|-------------------------------------------------|--------0--0---5---4----0--0-------|
A|-3--3--3--3--3--3--3--3--3--3--3--3--3--3--3--3--|-4------0--0---3---2----0--0---5---|
E|-------------------------------------------------|-2-----------------------------3---|


E|-----------------------------------------|-----------------------------------|-------------------------------------------------|
B|-----------------------------------------|-----------------------------------|-------------------------------------------------|
G|-----------------------------------------|-----------------------------------|-------------------------------------------------|
D|-----------------------------------------|--------0--0---5---4----0--0---4---|-------------------------------------------------|
A|-4------4--4-----2---4------4--4-----2---|-4------0--0---3---2----0--0---2---|-3--3--3--3--3--3--3--3--3--3--3--3--3--3--3--3--|
E|-2------2--2-----0---2------2--2-----0---|-2---------------------------------|-------------------------------------------------|


E|-----------------------------------|-----------------------------------------|-----------------------------------|
B|-----------------------------------|-----------------------------------------|-----------------------------------|
G|-----------------------------------|-----------------------------------------|-----------------------------------|
D|--------0--0---5---4----0--0-------|-----------------------------------------|--------0--0---5---4----0--0---4---|
A|-4------0--0---3---2----0--0---5---|-4------4--4-----2---4------4--4-----2---|-4------0--0---3---2----0--0---2---|
E|-2-----------------------------3---|-2------2--2-----0---2------2--2-----0---|-2---------------------------------|


E|-------------------------------------------------|-----------------------------------|
B|-------------------------------------------------|-----------------------------------|
G|-------------------------------------------------|-----------------------------------|
D|-------------------------------------------------|--------0--0---5---4----0--0-------|
A|-3--3--3--3--3--3--3--3--3--3--3--3--3--3--3--3--|-4------0--0---3---2----0--0---5---|
E|-------------------------------------------------|-2-----------------------------3---|


E|-----------------------------------------|-----------------------------------------|
B|-----------------------------------------|-----------------------------------------|
G|-----------------------------------------|-----------------------------------------|
D|-----------------------------------------|-----------------------------------------|
A|-4------4--4-----2---4------4--4-----2---|-4------4--4-----2---4------4--4-----2---|
E|-2------2--2-----0---2------2--2-----0---|-2------2--2-----0---2------2--2-----0---|


E|-----------------------------------------|-------------------------------|
B|-----------------------------------------|-------------------------------|
G|-----------------------------------------|-------------------------------|
D|-----------------------------------------|---------------------11--------|
A|-4------4--4-----2---4------4--4-----2---|-4------4--4-----2---9---------|
E|-2------2--2-----0---2------2--2-----0---|-2------2--2-----0-------------|





Track 8: Dave Ellefson

G|--------|--------|--------|---------------------------------------------|--------|
D|--------|--------|--------|---------------------------------------------|--------|
A|--------|--------|--------|---------------------------------------------|--------|
E|--------|--------|--------|-2--1--0--3--3---2--1--0--5--5---2--1--0--2--|--------|


G|--------|--------|---------------------------------------------|--------|---------------------------------------------|
D|--------|--------|---------------------------------------------|--------|---------------------------------------------|
A|--------|--------|---------------------------------------------|--------|---------------------------------------------|
E|--------|--------|-2--1--0--3--3---2--1--0--5--5---2--1--0--2--|--------|-2--1--0--3--3---2--1--0--5--5---2--1--0--2--|


G|--------|---------------------------------------------|--------|---------------------------------------------|
D|--------|---------------------------------------------|--------|---------------------------------------------|
A|--------|---------------------------------------------|--------|---------------------------------------------|
E|--------|-2--1--0--3--3---2--1--0--5--5---2--1--0--2--|--------|-2--1--0--3--3---2--1--0--5--5---2--1--0--2--|


G|---------------------------------------------|---------------------------------------------|
D|---------------------------------------------|---------------------------------------------|
A|---------------------------------------------|---------------------------------------------|
E|-2--1--0--3--3---2--1--0--5--5---2--1--0--2--|-2--1--0--3--3---2--1--0--5--5---2--1--0--2--|


G|--------|--------|-------------------------------------------------|-------------------------------------------------|
D|--------|--------|-------------------------------------------------|-------------------------------------------------|
A|--------|--------|-------------------------------------------------|-------------------------------------------------|
E|--------|--------|-2--1--0--3--2--0--2--1--0--3--2--0--3--2--1--0--|-2--1--0--3--2--0--2--1--0--3--2--0--3--2--1--0--|


G|--------|--------|-------------------------------------------------|-------------------------------------------------|
D|--------|--------|-------------------------------------------------|-------------------------------------------------|
A|--------|--------|-------------------------------------------------|-------------------------------------------------|
E|--------|--------|-2--1--0--3--2--0--2--1--0--3--2--0--3--2--1--0--|-2--1--0--3--2--0--2--1--0--3--2--0--3--2--1--0--|


G|-----------------------------------------|-----------------------------------------|
D|-----------------------------------------|-----------------------------------------|
A|---------------------------0---------3---|---------------------------0---------3---|
E|-2--2--2--3--3--3--2---2-------2--2------|-2--2--2--3--3--3--2---2-------2--2------|


G|-----------------------------------------|-----------------------------------------|
D|-----------------------------------------|-----------------------------------------|
A|---------------------------0---------3---|---------------------------0---------3---|
E|-2--2--2--3--3--3--2---2-------2--2------|-2--2--2--3--3--3--2---2-------2--2------|


G|-----------------------------------------|-----------------------------------------|
D|-----------------------------------------|-----------------------------------------|
A|---------------------------0---------3---|---------------------------0---------3---|
E|-2--2--2--3--3--3--2---2-------2--2------|-2--2--2--3--3--3--2---2-------2--2------|


G|-----------------------------------------|-----------------------------------------|
D|-----------------------------------------|-----------------------------------------|
A|---------------------------0---------3---|---------------------------0---------3---|
E|-2--2--2--3--3--3--2---2-------2--2------|-2--2--2--3--3--3--2---2-------2--2------|


G|-----------------------------------|-----------------------------------|-----------------------------------|
D|-----------------------------------|-----------------------------------|-----------------------------------|
A|-----------------------0-------3---|-----------------------0-------3---|-----------------------0-------3---|
E|-2------3--3---2---2-------2-------|-2------3--3---2---2-------2-------|-2------3--3---2---2-------2-------|


G|-----------------------------------|-----------------------------------|-----------------------------------|
D|-----------------------------------|-----------------------------------|-----------------------------------|
A|-----------------------0-------3---|-----------------------0-------3---|-----------------------0-------3---|
E|-2------3--3---2---2-------2-------|-2------3--3---2---2-------2-------|-2------3--3---2---2-------2-------|


G|-----------------------------------|-----------------------------------|-----------------------------------------|
D|-----------------------------------|-----------------------------------|-----------------------------------------|
A|-----------------------0-------3---|-----------------------0-------3---|-------------------2---2---4---------5---|
E|-2------3--3---2---2-------2-------|-2------3--3---2---2-------2-------|-4--4--4--5--5--4--------------4--4------|


G|-----------------------------------------|-----------------------------------------|
D|-----------------------------------------|-----------------------------------------|
A|-------------------2---2---4---------5---|-------------------2---2---4---------5---|
E|-4--4--4--5--5--4--------------4--4------|-4--4--4--5--5--4--------------4--4------|


G|-----------------------------------------|-----------------------------------|-----------------------------------|
D|-----------------------------------------|-----------------------------------|-----------------------------------|
A|-------------------2---2---4---------5---|-----------------------0-------3---|-----------------------0-------3---|
E|-4--4--4--5--5--4--------------4--4------|-2------3--3---2---2-------2-------|-2------3--3---2---2-------2-------|


G|-----------------------------------|-----------------------------------|-------------------------------------------|
D|-----------------------------------|-----------------------------------|-------------------------------------------|
A|-----------------------0-------3---|-----------------------0-------3---|-------------------------------------------|
E|-2------3--3---2---2-------2-------|-2------3--3---2---2-------2-------|-14--12-13-13-11-12--10-11--9--10-8--9--7--|


G|-------------------------------------------|-------------------------------------------|
D|-------------------------------------------|-------------------------------------------|
A|-------------------------------------------|-------------------------------------------|
E|-9---6--7--7--5--6---4--5---3--4--2--3--1--|-2---0--2--2--0--2---0--2---0--3--0--2--0--|


G|--------|-------------------------------------------|-------------------------------------------|
D|--------|-------------------------------------------|-------------------------------------------|
A|--------|-------------------------------------------|-------------------------------------------|
E|--------|-14--12-13-13-11-12--10-11--9--10-8--9--7--|-9---6--7--7--5--6---4--5---3--4--2--3--1--|


G|-------------------------------------------|--------|-------------------------------------------|
D|-------------------------------------------|--------|-------------------------------------------|
A|-------------------------------------------|--------|-------------------------------------------|
E|-2---0--2--2--0--2---0--2---0--3--0--2--0--|--------|-2---0--2--2--0--2---0--2---0--3--0--2--0--|


G|--------|-------------------------------------------|--------|-------------------------------------------|
D|--------|-------------------------------------------|--------|-------------------------------------------|
A|--------|-------------------------------------------|--------|-------------------------------------------|
E|--------|-2---0--2--2--0--2---0--2---0--3--0--2--0--|--------|-14--12-13-13-11-12--10-11--9--10-8--9--7--|


G|-------------------------------------------|------------------------------------|
D|-------------------------------------------|------------------------------------|
A|-------------------------------------------|------------------------------------|
E|-9---6--7--7--5--6---4--5---3--4--2--3--1--|-2---0--2--2--0--2---0--2---0-------|


G|--------|-------------------------------------------|-------------------------------------------------|
D|--------|-------------------------------------------|-------------------------------------------------|
A|--------|-------------------------------------------|-------2--3--2-----------------2--3--2-----------|
E|--------|-2---0--2--2--0--2---0--2---0--3--0--2--0--|-2--5-----------5--2--0--2--5-----------5--2--0--|


G|-------------------------------------------|-------------------------------------------------|
D|-------------------------------------------|-------------------------------------------------|
A|-------------------------------------------|-------0--1--0-----------------0--1--0-----------|
E|-2---0--2--2--0--2---0--2---0--3--0--2--0--|-0--3-----------3--0--0--0--3-----------3--0--0--|


G|-------------------------------------------|-------------------------------------------------|
D|-------------------------------------------|-------------------------------------------------|
A|-------------------------------------------|-------2--3--2-----------------2--3--2-----------|
E|-2---0--2--2--0--2---0--2---0--3--0--2--0--|-2--5-----------5--2--0--2--5-----------5--2--0--|


G|-------------------------------------------|-------------------------------------------------|
D|-------------------------------------------|-------------------------------------------------|
A|-------------------------------------------|-------0--1--0-----------------0--1--0-----------|
E|-2---0--2--2--0--2---0--2---0--3--0--2--0--|-0--3-----------3--0--0--0--3-----------3--0--0--|


G|-------------------------------------------|-------------------------------------------------|
D|-------------------------------------------|-------------------------------------------------|
A|-------------------------------------------|-------2--3--2-----------------2--3--2-----------|
E|-2---0--2--2--0--2---0--2---0--3--0--2--0--|-2--5-----------5--2--0--2--5-----------5--2--0--|


G|-------------------------------------------|-------------------------------------------------|
D|-------------------------------------------|-------------------------------------------------|
A|-------------------------------------------|-------0--1--0-----------------0--1--0-----------|
E|-2---0--2--2--0--2---0--2---0--3--0--2--0--|-0--3-----------3--0--0--0--3-----------3--0--0--|


G|-------------------------------------------|-------------------------------------------|
D|-------------------------------------------|-------------------------------------------|
A|-------------------------------------------|-------------------------------------------|
E|-14--12-13-13-11-12--10-11--9--10-8--9--7--|-9---6--7--7--5--6---4--5---3--4--2--3--1--|


G|-------------------------------------------|--------------------|-----------------------------------------|
D|-------------------------------------------|--------------------|-4--3--2-----4-------4--3--2--0----------|
A|-------------------------------------------|-2------------------|----------4----------------------2-------|
E|-2---0--2--2--0--2---0--2---0--3--0--2--0--|--------------------|-----------------------------------------|


G|-----------------------------------------|-------------------------------------------|
D|-----------------------------------------|-------------------------------------------|
A|-3--2--1--0----------1--0----------------|-------------------------------------------|
E|-------------3-------------3--2--1-------|-3---0--2--2--0--3---0--2---0--3--0--2--0--|


G|--------------------|-------------------------------------------|--------------------|
D|--------------------|-------------------------------------------|--------------------|
A|-2------------------|-------------------------------------------|-2------------------|
E|--------------------|-3---0--2--2--0--3---0--2---0--3--0--2--0--|--------------------|


G|-------------------------------------------|--------------------|-------------------------------------------|
D|-------------------------------------------|--------------------|-------------------------------------------|
A|-------------------------------------------|-2------------------|-------------------------------------------|
E|-3---0--2--2--0--3---0--2---0--3--0--2--0--|--------------------|-3---0--2--2--0--3---0--2---0--3--0--2--0--|


G|-----------------------------------------------|---------------------------------|
D|-4--2-----2------------------------------------|-4----5--5---4---4---------------|
A|-------4-----4--0--3--3--3--2--0-----2--0------|---------------------4---5-------|
E|----------------------------------2--------0---|-----------------------------5---|


G|---------------------------------|-------------------------------------------|-----------------------------------------------|
D|---------------------------------|-------------------------------------------|-4--2-----2------------------------------------|
A|---------------------------------|-------------------------------------------|-------4-----4--0--3--3--3--2--0-----2--0------|
E|-4----5--5---4---4---2---4---5---|-3---0--2--2--0--3---0--2---0--3--0--2--0--|----------------------------------2--------0---|


G|---------------------------------|---------------------------------|-------------------------------------------|
D|-4----5--5---4---4---------------|---------------------------------|-------------------------------------------|
A|---------------------4---5-------|---------------------------------|-------------------------------------------|
E|-----------------------------5---|-4----5--5---4---4---2---4---5---|-3---0--2--2--0--3---0--2---0--3--0--2--0--|


G|-----------------------------------------------|-------------------------------------------|
D|-4--2-----2------------------------------------|-------------------------------------------|
A|-------4-----4--0--3--3--3--2--0-----2--0------|-------------------------------------------|
E|----------------------------------2--------0---|-3---0--2--2--0--3---0--2---0--3--0--2--0--|


G|-----------------------------------------------|-------------------------------------------|
D|-4--2-----2------------------------------------|-------------------------------------------|
A|-------4-----4--0--3--3--3--2--0-----2--0------|-------------------------------------------|
E|----------------------------------2--------0---|-3---0--2--2--0--3---0--2---0--3--0--2--0--|


G|-----------------------------------------------|---------------------------------|
D|-4--2-----2------------------------------------|-4----5--5---4---4---------------|
A|-------4-----4--0--3--3--3--2--0-----2--0------|---------------------4---5-------|
E|----------------------------------2--------0---|-----------------------------5---|


G|---------------------------------|---------------------------------|---------------------------------|
D|---------------------------------|-4----5--5---4---4---------------|-4----5--5---4---4---------------|
A|---------------------------------|---------------------4---5-------|---------------------4---5-------|
E|-4----5--5---4---4---2---4---5---|-----------------------------5---|-----------------------------5---|


G|-----------------------------------|-----------------------------------|-----------------------------------|
D|-----------------------------------|-----------------------------------|-----------------------------------|
A|-----------------------0-------3---|-----------------------0-------3---|-----------------------0-------3---|
E|-2------3--3---2---2-------2-------|-2------3--3---2---2-------2-------|-2------3--3---2---2-------2-------|


G|-----------------------------------|-----------------------------------|-----------------------------------|
D|-----------------------------------|-----------------------------------|-----------------------------------|
A|-----------------------0-------3---|-----------------------0-------3---|-----------------------0-------3---|
E|-2------3--3---2---2-------2-------|-2------3--3---2---2-------2-------|-2------3--3---2---2-------2-------|


G|-----------------------------------|-----------------------------------|-----------------------------------|
D|-----------------------------------|-----------------------------------|-----------------------------------|
A|-----------------------0-------3---|-----------------------0-------3---|--------0--0---3---2----0--0---2---|
E|-2------3--3---2---2-------2-------|-2------3--3---2---2-------2-------|-2---------------------------------|


G|-------------------------------------------------|-----------------------------------|
D|-------------------------------------------------|-----------------------------------|
A|-3--3--3--3--3--3--3--3--3--3--3--3--3--3--3--3--|--------0--0---3---2----0--0-------|
E|-------------------------------------------------|-2-----------------------------3---|


G|-----------------------------------------|-----------------------------------|-------------------------------------------------|
D|-----------------------------------------|-----------------------------------|-------------------------------------------------|
A|-----------------------------------------|--------0--0---3---2----0--0---2---|-3--3--3--3--3--3--3--3--3--3--3--3--3--3--3--3--|
E|-2------2--2-----0---2------2--2-----0---|-2---------------------------------|-------------------------------------------------|


G|-----------------------------------|-----------------------------------------|-----------------------------------|
D|-----------------------------------|-----------------------------------------|-----------------------------------|
A|--------0--0---3---2----0--0-------|-----------------------------------------|--------0--0---3---2----0--0---2---|
E|-2-----------------------------3---|-2------2--2-----0---2------2--2-----0---|-2---------------------------------|


G|-------------------------------------------------|-----------------------------------|
D|-------------------------------------------------|-----------------------------------|
A|-3--3--3--3--3--3--3--3--3--3--3--3--3--3--3--3--|--------0--0---3---2----0--0-------|
E|-------------------------------------------------|-2-----------------------------3---|


G|-----------------------------------------|-----------------------------------|-------------------------------------------------|
D|-----------------------------------------|-----------------------------------|-------------------------------------------------|
A|-----------------------------------------|--------0--0---3---2----0--0---2---|-3--3--3--3--3--3--3--3--3--3--3--3--3--3--3--3--|
E|-2------2--2-----0---2------2--2-----0---|-2---------------------------------|-------------------------------------------------|


G|-----------------------------------|-----------------------------------------|-----------------------------------------|
D|-----------------------------------|-----------------------------------------|-----------------------------------------|
A|--------0--0---3---2----0--0-------|-----------------------------------------|-----------------------------------------|
E|-2-----------------------------3---|-2------2--2-----0---2------2--2-----0---|-2------2--2-----0---2------2--2-----0---|


G|-----------------------------------------|-------------------------------|
D|-----------------------------------------|-------------------------------|
A|-----------------------------------------|---------------------9---------|
E|-2------2--2-----0---2------2--2-----0---|-2------2--2-----0-------------|





Track 9: Dave Ellefson (overdub)

G|--------|--------|--------|--------|--------|--------|--------|--------|--------|
D|--------|--------|--------|--------|--------|--------|--------|--------|--------|
A|--------|--------|--------|--------|--------|--------|--------|--------|--------|
E|--------|--------|--------|--------|--------|--------|--------|--------|--------|


G|--------|--------|--------|--------|--------|--------|--------|--------|--------|
D|--------|--------|--------|--------|--------|--------|--------|--------|--------|
A|--------|--------|--------|--------|--------|--------|--------|--------|--------|
E|--------|--------|--------|--------|--------|--------|--------|--------|--------|


G|--------|--------|--------|--------|--------|--------|--------|--------|--------|
D|--------|--------|--------|--------|--------|--------|--------|--------|--------|
A|--------|--------|--------|--------|--------|--------|--------|--------|--------|
E|--------|--------|--------|--------|--------|--------|--------|--------|--------|


G|--------|--------|--------|--------|--------|--------|--------|--------|--------|
D|--------|--------|--------|--------|--------|--------|--------|--------|--------|
A|--------|--------|--------|--------|--------|--------|--------|--------|--------|
E|--------|--------|--------|--------|--------|--------|--------|--------|--------|


G|--------|--------|--------|--------|--------|--------|--------|--------|--------|
D|--------|--------|--------|--------|--------|--------|--------|--------|--------|
A|--------|--------|--------|--------|--------|--------|--------|--------|--------|
E|--------|--------|--------|--------|--------|--------|--------|--------|--------|


G|--------|--------|--------|--------|--------|--------|--------|--------|--------|
D|--------|--------|--------|--------|--------|--------|--------|--------|--------|
A|--------|--------|--------|--------|--------|--------|--------|--------|--------|
E|--------|--------|--------|--------|--------|--------|--------|--------|--------|


G|--------|--------|--------|--------|--------|--------|--------|--------|--------|
D|--------|--------|--------|--------|--------|--------|--------|--------|--------|
A|--------|--------|--------|--------|--------|--------|--------|--------|--------|
E|--------|--------|--------|--------|--------|--------|--------|--------|--------|


G|----------11----------11----------11----------11-|--------|--------|--------|--------|
D|-9--11-------9--11-------9--11-------9--11-------|--------|--------|--------|--------|
A|-------9-----------9-----------9-----------9-----|--------|--------|--------|--------|
E|-------------------------------------------------|--------|--------|--------|--------|


G|--------|--------|--------|--------|--------|--------|--------|--------|--------|
D|--------|--------|--------|--------|--------|--------|--------|--------|--------|
A|--------|--------|--------|--------|--------|--------|--------|--------|--------|
E|--------|--------|--------|--------|--------|--------|--------|--------|--------|


G|--------|--------|--------|--------|--------|--------|--------|--------|--------|
D|--------|--------|--------|--------|--------|--------|--------|--------|--------|
A|--------|--------|--------|--------|--------|--------|--------|--------|--------|
E|--------|--------|--------|--------|--------|--------|--------|--------|--------|


G|--------|--------|--------|--------|--------|--------|--------|--------|--------|
D|--------|--------|--------|--------|--------|--------|--------|--------|--------|
A|--------|--------|--------|--------|--------|--------|--------|--------|--------|
E|--------|--------|--------|--------|--------|--------|--------|--------|--------|


G|--------|--------|--------|--------|--------|--------|--------|--------|--------|
D|--------|--------|--------|--------|--------|--------|--------|--------|--------|
A|--------|--------|--------|--------|--------|--------|--------|--------|--------|
E|--------|--------|--------|--------|--------|--------|--------|--------|--------|


G|--------|--------|--------|--------|--------|--------|--------|--------|--------|
D|--------|--------|--------|--------|--------|--------|--------|--------|--------|
A|--------|--------|--------|--------|--------|--------|--------|--------|--------|
E|--------|--------|--------|--------|--------|--------|--------|--------|--------|


G|--------|--------|--------|--------|--------|--------|--------|--------|--------|
D|--------|--------|--------|--------|--------|--------|--------|--------|--------|
A|--------|--------|--------|--------|--------|--------|--------|--------|--------|
E|--------|--------|--------|--------|--------|--------|--------|--------|--------|


G|--------|--------|--------|--------|--------|--------|--------|--------|--------|
D|--------|--------|--------|--------|--------|--------|--------|--------|--------|
A|--------|--------|--------|--------|--------|--------|--------|--------|--------|
E|--------|--------|--------|--------|--------|--------|--------|--------|--------|


G|--------|--------|
D|--------|--------|
A|--------|--------|
E|--------|--------|