Menu:

 

Search:

 

megadeth - sweating bullets:

 



Title: Sweating Bullets
Artist: 
Album: Countdown To Extinction
Author: Dave Mustaine


Track 1: Solo Guitar

E|--------|---------------------|-----------------------|---------------------|---------------------|
B|--------|---------------------|-----------------------|---------------------|-------7---4---------|
G|--------|-----------4-----7---|-6-----4---3-----3--4--|-----------4-----7---|-6---------------4---|
D|--------|-5-----7-------------|-----------------------|-5-----7-------------|---------------------|
A|--------|---------------------|-----------------------|---------------------|---------------------|
E|--------|---------------------|-----------------------|---------------------|---------------------|


E|---------------------|-----------------------|--------|------------------|--------|
B|---------------------|-----------------------|--------|------------------|--------|
G|-----------4-----7---|-6-----4---3-----3--4--|--------|------------------|--------|
D|-5-----7-------------|-----------------------|-5------|-5------5---------|--------|
A|---------------------|-----------------------|--------|-----------8--7---|--------|
E|---------------------|-----------------------|--------|-----------6--5---|--------|


E|--------|--------|--------|--------|--------|--------|--------|--------|--------|
B|--------|--------|--------|--------|--------|--------|--------|--------|--------|
G|--------|--------|--------|--------|--------|--------|--------|--------|--------|
D|--------|--------|--------|--------|--------|--------|--------|--------|--------|
A|--------|--------|--------|--------|--------|--------|--------|--------|--------|
E|--------|--------|--------|--------|--------|--------|--------|--------|--------|


E|--------|--------|--------|--------|--------|--------|---------------------------|
B|--------|--------|--------|--------|--------|--------|---------------------------|
G|--------|--------|--------|--------|--------|--------|---------------------------|
D|--------|--------|--------|--------|--------|--------|-----------2-----------3---|
A|--------|--------|--------|--------|--------|--------|-2----5----0---5---5---1---|
E|--------|--------|--------|--------|--------|--------|-0----3--------3---3-------|


E|------------------------|---------------------------|------------------------|---------------------------|
B|------------------------|---------------------------|------------------------|---------------------------|
G|------------------------|---------------------------|------------------------|---------------------------|
D|-3----2------------2----|-----------2-----------3---|-3----2-----------------|-----------2-----------3---|
A|-1----0----5---5---0----|-2----5----0---5---5---1---|-1----0----5---5---3----|-2----5----0---5---5---1---|
E|-----------3---3--------|-0----3--------3---3-------|-----------3---3---1----|-0----3--------3---3-------|


E|------------------------|---------------------------|--------|---------------------------|
B|------------------------|---------------------------|--------|---------------------------|
G|------------------------|---------------------------|--------|---------------------------|
D|-3----2------------2----|-----------2---------------|--------|-----------2-----------3---|
A|-1----0----5---5---0----|-2----5----0---5---5---2---|-2------|-2----5----0---5---5---1---|
E|-----------3---3--------|-0----3--------3---3---0---|-0------|-0----3--------3---3-------|


E|------------------------|---------------------------|------------------------|---------------------------|
B|------------------------|---------------------------|------------------------|---------------------------|
G|------------------------|---------------------------|------------------------|---------------------------|
D|-3----2------------2----|-----------2-----------3---|-3----2-----------------|-----------2-----------3---|
A|-1----0----5---5---0----|-2----5----0---5---5---1---|-1----0----5---5---3----|-2----5----0---5---5---1---|
E|-----------3---3--------|-0----3--------3---3-------|-----------3---3---1----|-0----3--------3---3-------|


E|------------------------|------------------------|-------------|-----------------|
B|------------------------|------------------------|-------------|-----------------|
G|------------------------|------------------------|-------------|-----------------|
D|-3----2------------2----|-3----2-----------------|-------9-----|-7---9-----9-----|
A|-1----0----5---5---0----|-1----0----5----3---2---|-2-----7-----|-5---7-----7-----|
E|-----------3---3--------|-----------3----1---0---|-0-----------|-----------------|


E|--------------------|--------|--------|--------|--------|--------|--------|--------|
B|--------------------|--------|--------|--------|--------|--------|--------|--------|
G|--------------------|--------|--------|--------|--------|--------|--------|--------|
D|-9-----9------------|--------|--------|--------|--------|--------|--------|--------|
A|-7-----7---8---7----|--------|--------|--------|--------|--------|--------|--------|
E|-----------6---5----|--------|--------|--------|--------|--------|--------|--------|


E|--------|--------|--------|--------|--------|--------|--------|--------|--------|
B|--------|--------|--------|--------|--------|--------|--------|--------|--------|
G|--------|--------|--------|--------|--------|--------|--------|--------|--------|
D|--------|--------|--------|--------|--------|--------|--------|--------|--------|
A|--------|--------|--------|--------|--------|--------|--------|--------|--------|
E|--------|--------|--------|--------|--------|--------|--------|--------|--------|


E|---------------------------|------------------------|---------------------------|
B|---------------------------|------------------------|---------------------------|
G|---------------------------|------------------------|---------------------------|
D|-----------2-----------3---|-3----2------------2----|-----------2-----------3---|
A|-2----5----0---5---5---1---|-1----0----5---5---0----|-2----5----0---5---5---1---|
E|-0----3--------3---3-------|-----------3---3--------|-0----3--------3---3-------|


E|------------------------|---------------------------|------------------------|---------------------------|
B|------------------------|---------------------------|------------------------|---------------------------|
G|------------------------|---------------------------|------------------------|---------------------------|
D|-3----2-----------------|-----------2-----------3---|-3----2------------2----|-----------2---------------|
A|-1----0----5---5---3----|-2----5----0---5---5---1---|-1----0----5---5---0----|-2----5----0---5---5---2---|
E|-----------3---3---1----|-0----3--------3---3-------|-----------3---3--------|-0----3--------3---3---0---|


E|--------|---------------------------|------------------------|---------------------------|
B|--------|---------------------------|------------------------|---------------------------|
G|--------|---------------------------|------------------------|---------------------------|
D|--------|-----------2-----------3---|-3----2------------2----|-----------2-----------3---|
A|-2------|-2----5----0---5---5---1---|-1----0----5---5---0----|-2----5----0---5---5---1---|
E|-0------|-0----3--------3---3-------|-----------3---3--------|-0----3--------3---3-------|


E|------------------------|---------------------------|------------------------|------------------------|
B|------------------------|---------------------------|------------------------|------------------------|
G|------------------------|---------------------------|------------------------|------------------------|
D|-3----2-----------------|-----------2-----------3---|-3----2------------2----|-3----2-----------------|
A|-1----0----5---5---3----|-2----5----0---5---5---1---|-1----0----5---5---0----|-1----0----5----3---2---|
E|-----------3---3---1----|-0----3--------3---3-------|-----------3---3--------|-----------3----1---0---|


E|-------------|-----------------|--------|--------|--------|--------|--------|--------|
B|-------------|-----------------|--------|--------|--------|--------|--------|--------|
G|-------------|-----------------|--------|--------|--------|--------|--------|--------|
D|-------9-----|-7---9-----9-----|-9------|--------|--------|--------|--------|--------|
A|-2-----7-----|-5---7-----7-----|-7------|--------|--------|--------|--------|--------|
E|-0-----------|-----------------|--------|--------|--------|--------|--------|--------|


E|--------|--------|--------|--------|--------|--------|--------|--------|--------------------|
B|--------|--------|--------|--------|--------|--------|--------|--------|--------------------|
G|--------|--------|--------|--------|--------|--------|--------|--------|--------------------|
D|--------|--------|--------|--------|--------|--------|--------|--------|--------------------|
A|--------|--------|--------|--------|--------|--------|--------|--------|--------------------|
E|--------|--------|--------|--------|--------|--------|--------|-3------|-3-----6---5---1----|


E|-------------|-12---------------------|-15--14--13--12----------------------------------|
B|-------------|-----12-----------------|-----------------16--15--14--13------------------|
G|-------------|---------12--12---------|---------------------------------16--15--14--13--|
D|-------------|------------------12----|-------------------------------------------------|
A|-------7-----|------------------12----|-------------------------------------------------|
E|-0-----------|------------------12----|-------------------------------------------------|


E|-11--10--9---8-----------------------------------|-7---6---5---4-----------------------------------|
B|-----------------12--11--10--9-------------------|-----------------8---7---6---5-------------------|
G|---------------------------------12--11--10--9---|---------------------------------8---7---6---5---|
D|-------------------------------------------------|-------------------------------------------------|
A|-------------------------------------------------|-------------------------------------------------|
E|-------------------------------------------------|-------------------------------------------------|


E|-------------------------------------------------|-------------------------------------------------|
B|-8---7---6---5-----------------------------------|-------------------------------------------------|
G|-----------------8---7---6---5-------------------|-------------------------------------------------|
D|---------------------------------9---8---7---6---|-------------------------------------9-------9---|
A|-------------------------------------------------|-------------10------10--12--10--12------12------|
E|-------------------------------------------------|-12--10--12------12------------------------------|


E|------------------------------------------|-------------------------------------------------|
B|------------------------------------------|-------------------------------------------------|
G|-------------9-------9---12--10--9---10---|-9---10--9-------9---10--12--10--9---10--9-------|
D|-12--9---12------12-----------------------|-------------12------------------------------12--|
A|------------------------------------------|-------------------------------------------------|
E|------------------------------------------|-------------------------------------------------|


E|-------------------------------------------------|-------------------------------------------------|
B|-------------------------------------------------|-------------------------------------------------|
G|-9---10--9---7---9---7---7-----------------------|-4---5---4-------4---5---7---5---4---5---4-------|
D|-----------------------------10--9---10--9---7---|-------------7-------------------------------7---|
A|-------------------------------------------------|-------------------------------------------------|
E|-------------------------------------------------|-------------------------------------------------|


E|------------------------------------------|-------------------------------------------------|
B|------------------------------------------|-------------------------------------------------|
G|-4----------------------------------------|-------------------------------------------------|
D|-----7---5---7---5-------5----------------|-------------5---5---5---4---4---4---7---7---7---|
A|---------------------7-------7---5---7----|-7---7---7---------------------------------------|
E|------------------------------------------|-------------------------------------------------|


E|-------------------------------------------------|-------------------------------------------------|
B|-------------------------------------------------|-------------------------------------------------|
G|-5---5---5---4---4---4---------------------------|-------------------------------------------------|
D|-------------------------7---7---7---5---5---5---|-4---4---4---------------4---4---4---5---5---5---|
A|-------------------------------------------------|-------------7---7---7---------------------------|
E|-------------------------------------------------|-------------------------------------------------|


E|------------------------------------------|-15------16------17------18------|-19------20------21------22------|
B|------------------------------------------|-----14------15------16------17--|-----18------19------20------21--|
G|-------------4---4---4---5---5---5---7----|---------------------------------|---------------------------------|
D|-7---7---7--------------------------------|---------------------------------|---------------------------------|
A|------------------------------------------|---------------------------------|---------------------------------|
E|------------------------------------------|---------------------------------|---------------------------------|


E|-22-----|-22-----|-22----------|--------|--------|--------|--------|--------|--------|
B|--------|--------|-------------|--------|--------|--------|--------|--------|--------|
G|--------|--------|-------------|--------|--------|--------|--------|--------|--------|
D|--------|--------|-------------|--------|--------|--------|--------|--------|--------|
A|--------|--------|-------------|--------|--------|--------|--------|--------|--------|
E|--------|--------|-------------|--------|--------|--------|--------|--------|--------|


E|-------------------------------------------------|-------------------------------------------------|
B|-------------------------------------------------|-------------------------------------------------|
G|-------------------------------------------------|-------------------------------------------------|
D|-------------------------------------------------|-------------------------------------------------|
A|-5-----------4-----------3-----------2-----------|-1-----------0-----------0-----------------------|
E|----0--2--3-----0--2--3-----0--2--3-----0--2--3--|----0--2--3-----0--2--3-----3--2--1--1--1--2--3--|


E|-------------------------------------------------|-------------------------------------------------|
B|-------------------------------------------------|-------------------------------------------------|
G|-------------------------------------------------|-------------------------------------------------|
D|-------------------------------------------------|-------------------------------------------------|
A|-5-----------4-----------3-----------2-----------|-1-----------0-----------0-----------------------|
E|----0--2--3-----0--2--3-----0--2--3-----0--2--3--|----0--2--3-----0--2--3-----3--2--1--1--1--2--3--|


E|-------------------------------------------------|-------------------------------------------------|
B|-------------------------------------------------|-------------------------------------------------|
G|-------------------------------------------------|-------------------------------------------------|
D|-------------------------------------------------|-------------------------------------------------|
A|-5-----------4-----------3-----------2-----------|-1-----------0-----------0-----------------------|
E|----0--2--3-----0--2--3-----0--2--3-----0--2--3--|----0--2--3-----0--2--3-----3--2--1--1--1--2--3--|


E|-------------------------------------------------|-------------------------------------------------|
B|-------------------------------------------------|-------------------------------------------------|
G|-------------------------------------------------|-------------------------------------------------|
D|-------------------------------------------------|-------------------------------------------------|
A|-5-----------4-----------3-----------2-----------|-1-----------0-----------0-----------------------|
E|----0--2--3-----0--2--3-----0--2--3-----0--2--3--|----0--2--3-----0--2--3-----3--2--1--1--1--2--3--|


E|-------------------------------|-------------|-------------|-------------|-------------|
B|-------------------------------|-------------|-------------|-------------|-------------|
G|-------------------------------|-------------|-------------|-------------|-------------|
D|-6--5--4--3--------------------|-------------|-------------|-------------|-------------|
A|-------------------------2-----|-------2-----|-------2-----|-------2-----|-------2-----|
E|-------------4--3--2--1--0-----|-------0-----|-------0-----|-------0-----|-------0-----|


E|-------------|-------------|-------------|--------------------|-------------|-------------|
B|-------------|-------------|-------------|--------------------|-------------|-------------|
G|-------------|-------------|-------------|--------------------|-------------|-------------|
D|-------------|-------------|-------------|--------------------|-------------|-------------|
A|-------2-----|-------2-----|-------2-----|-2---8---7----------|-------------|-------------|
E|-------0-----|-------0-----|-------0-----|-0---6---5----------|-------------|-------------|


E|-------------|-------------|-------------|-------------|-------------|-------------|
B|-------------|-------------|-------------|-------------|-------------|-------------|
G|-------------|-------------|-------------|-------------|-------------|-------------|
D|-------------|-------------|-------------|-------------|-------------|-------------|
A|-------------|-------------|-------------|-------------|-------------|-------------|
E|-------------|-------------|-------------|-------------|-------------|-------------|


E|-------------|-------------|-------------|-------------|-------------|-------------|
B|-------------|-------------|-------------|-------------|-------------|-------------|
G|-------------|-------------|-------------|-------------|-------------|-------------|
D|-------------|-------------|-------------|-------------|-------------|-------------|
A|-------------|-------------|-------------|-------------|-------------|-------------|
E|-------------|-------------|-------------|-------------|-------------|-------------|


E|-------------|-----------------|---------------------------|------------------------|
B|-------------|-----------------|---------------------------|------------------------|
G|-------------|-----------------|---------------------------|------------------------|
D|-------------|-----------------|-2-----------3---3----2----|---------2--------------|
A|-------------|-------2----5----|-0---5---5---1---1----0----|-5---5---0----2----5----|
E|-------------|-------0----3----|-----3---3-----------------|-3---3--------0----3----|


E|---------------------------|------------------------|---------------------------|
B|---------------------------|------------------------|---------------------------|
G|---------------------------|------------------------|---------------------------|
D|-2-----------3---3----2----|------------------------|-2-----------3---3----2----|
A|-0---5---5---1---1----0----|-5---5---3----2----5----|-0---5---5---1---1----0----|
E|-----3---3-----------------|-3---3---1----0----3----|-----3---3-----------------|


E|------------------------|-----------------------|-----------------|---------------------------|
B|------------------------|-----------------------|-----------------|---------------------------|
G|------------------------|-----------------------|-----------------|---------------------------|
D|---------2--------------|-2---------------------|-----------------|-2-----------3---3----2----|
A|-5---5---0----2----5----|-0---5---5---2---2-----|-------2----5----|-0---5---5---1---1----0----|
E|-3---3--------0----3----|-----3---3---0---0-----|-------0----3----|-----3---3-----------------|


E|------------------------|---------------------------|------------------------|---------------------------|
B|------------------------|---------------------------|------------------------|---------------------------|
G|------------------------|---------------------------|------------------------|---------------------------|
D|---------2--------------|-2-----------3---3----2----|------------------------|-2-----------3---3----2----|
A|-5---5---0----2----5----|-0---5---5---1---1----0----|-5---5---3----2----5----|-0---5---5---1---1----0----|
E|-3---3--------0----3----|-----3---3-----------------|-3---3---1----0----3----|-----3---3-----------------|


E|------------------------|--------------------|-------------|--------|--------|--------|
B|------------------------|--------------------|-------------|--------|--------|--------|
G|------------------------|--------------------|-------------|--------|--------|--------|
D|---------2----3----2----|--------------------|-9-----------|--------|--------|--------|
A|-5---5---0----1----0----|-5----3---2---2-----|-7-----------|--------|--------|--------|
E|-3---3------------------|-3----1---0---0-----|-------------|--------|--------|--------|


E|--------|--------|--------|--------|--------|--------|--------|--------|--------|
B|--------|--------|--------|--------|--------|--------|--------|--------|--------|
G|--------|--------|--------|--------|--------|--------|--------|--------|--------|
D|--------|--------|--------|--------|--------|--------|--------|--------|--------|
A|--------|--------|--------|--------|--------|--------|--------|--------|--------|
E|--------|--------|--------|--------|--------|--------|--------|--------|--------|


E|--------|--------|--------|--------|--------|--------|--------|
B|--------|--------|--------|--------|--------|--------|--------|
G|--------|--------|--------|--------|--------|--------|--------|
D|--------|--------|--------|--------|--------|--------|--------|
A|--------|--------|--------|--------|--------|--------|--------|
E|--------|--------|--------|--------|--------|--------|--------|





Track 2: Rhythm Guitar

E|--------|--------|--------|--------|--------|--------|--------|--------|--------|
B|--------|--------|--------|--------|--------|--------|--------|--------|--------|
G|--------|--------|--------|--------|--------|--------|--------|--------|--------|
D|--------|--------|--------|--------|--------|--------|--------|--------|--------|
A|--------|--------|--------|--------|--------|--------|--------|--------|--------|
E|--------|--------|--------|--------|--------|--------|--------|--------|--------|


E|--------|--------|--------|--------|--------|--------|--------|--------|--------|
B|--------|--------|--------|--------|--------|--------|--------|--------|--------|
G|--------|--------|--------|--------|--------|--------|--------|--------|--------|
D|--------|--------|--------|--------|--------|--------|--------|--------|--------|
A|--------|--------|--------|--------|--------|--------|--------|--------|--------|
E|--------|--------|--------|--------|--------|--------|--------|--------|--------|


E|--------|--------|--------|--------|--------|--------|--------|-12---12--12--12--12------11--|
B|--------|--------|--------|--------|--------|--------|--------|-15---15--15--15--15------14--|
G|--------|--------|--------|--------|--------|--------|--------|------------------------------|
D|--------|--------|--------|--------|--------|--------|--------|------------------------------|
A|--------|--------|--------|--------|--------|--------|--------|------------------------------|
E|--------|--------|--------|--------|--------|--------|--------|------------------------------|


E|-11---11--11--11--11-------|-10---10--10--10--10------9---|-9----9---9---9---9--------|
B|-14---14--14--14--14-------|-13---13--13--13--13------12--|-12---12--12--12--12-------|
G|---------------------------|------------------------------|---------------------------|
D|---------------------------|------------------------------|---------------------------|
A|---------------------------|------------------------------|---------------------------|
E|---------------------------|------------------------------|---------------------------|


E|-8----8---8---8---8-------7---|-7----7---7---7---7--------|-6----6---6---6---6-----------|
B|-11---11--11--11--11------10--|-10---10--10--10--10-------|-9----9---9---9---9-----------|
G|------------------------------|---------------------------|----------------------4---0---|
D|------------------------------|---------------------------|------------------------------|
A|------------------------------|---------------------------|------------------------------|
E|------------------------------|---------------------------|------------------------------|


E|--------|-12---12--12--12--12------11--|-11---11--11--11--11-------|-10---10--10--10--10------9---|
B|--------|-15---15--15--15--15------14--|-14---14--14--14--14-------|-13---13--13--13--13------12--|
G|-0------|------------------------------|---------------------------|------------------------------|
D|--------|------------------------------|---------------------------|------------------------------|
A|--------|------------------------------|---------------------------|------------------------------|
E|--------|------------------------------|---------------------------|------------------------------|


E|-9----9---9---9---9--------|-8----8---8---8---8-------7---|-7----7---7---7---7--------|
B|-12---12--12--12--12-------|-11---11--11--11--11------10--|-10---10--10--10--10-------|
G|---------------------------|------------------------------|---------------------------|
D|---------------------------|------------------------------|---------------------------|
A|---------------------------|------------------------------|---------------------------|
E|---------------------------|------------------------------|---------------------------|


E|------------------------|-------------|-----------------|--------------------|--------|
B|------------------------|-------------|-----------------|--------------------|--------|
G|------------------------|-------------|-----7-----7-----|-7-----7------------|--------|
D|-3----2-----------------|-------9-----|-7---9-----9-----|-9-----9------------|--------|
A|-1----0----5----3---2---|-2-----7-----|-5---7-----7-----|-7-----7---8---7----|--------|
E|-----------3----1---0---|-0-----------|-----------------|-----------6---5----|--------|


E|--------|--------|--------|--------|--------|--------|--------|--------|--------|
B|--------|--------|--------|--------|--------|--------|--------|--------|--------|
G|--------|--------|--------|--------|--------|--------|--------|--------|--------|
D|--------|--------|--------|--------|--------|--------|--------|--------|--------|
A|--------|--------|--------|--------|--------|--------|--------|--------|--------|
E|--------|--------|--------|--------|--------|--------|--------|--------|--------|


E|--------|--------|--------|--------|--------|--------|-12---12--12--12--12------11--|
B|--------|--------|--------|--------|--------|--------|-15---15--15--15--15------14--|
G|--------|--------|--------|--------|--------|--------|------------------------------|
D|--------|--------|--------|--------|--------|--------|------------------------------|
A|--------|--------|--------|--------|--------|--------|------------------------------|
E|--------|--------|--------|--------|--------|--------|------------------------------|


E|-11---11--11--11--11-------|-10---10--10--10--10------9---|-9----9---9---9---9--------|
B|-14---14--14--14--14-------|-13---13--13--13--13------12--|-12---12--12--12--12-------|
G|---------------------------|------------------------------|---------------------------|
D|---------------------------|------------------------------|---------------------------|
A|---------------------------|------------------------------|---------------------------|
E|---------------------------|------------------------------|---------------------------|


E|-8----8---8---8---8-------7---|-7----7---7---7---7--------|-6----6---6---6---6-----------|
B|-11---11--11--11--11------10--|-10---10--10--10--10-------|-9----9---9---9---9-----------|
G|------------------------------|---------------------------|----------------------4---0---|
D|------------------------------|---------------------------|------------------------------|
A|------------------------------|---------------------------|------------------------------|
E|------------------------------|---------------------------|------------------------------|


E|--------|-12---12--12--12--12------11--|-11---11--11--11--11-------|-10---10--10--10--10------9---|
B|--------|-15---15--15--15--15------14--|-14---14--14--14--14-------|-13---13--13--13--13------12--|
G|-0------|------------------------------|---------------------------|------------------------------|
D|--------|------------------------------|---------------------------|------------------------------|
A|--------|------------------------------|---------------------------|------------------------------|
E|--------|------------------------------|---------------------------|------------------------------|


E|-9----9---9---9---9--------|-8----8---8---8---8-------7---|-7----7---7---7---7--------|
B|-12---12--12--12--12-------|-11---11--11--11--11------10--|-10---10--10--10--10-------|
G|---------------------------|------------------------------|---------------------------|
D|---------------------------|------------------------------|---------------------------|
A|---------------------------|------------------------------|---------------------------|
E|---------------------------|------------------------------|---------------------------|


E|------------------------|-------------|-----------------|--------|--------|--------|
B|------------------------|-------------|-----------------|--------|--------|--------|
G|------------------------|-------------|-----7-----7-----|-7------|--------|--------|
D|-3----2-----------------|-------9-----|-7---9-----9-----|-9------|--------|--------|
A|-1----0----5----3---2---|-2-----7-----|-5---7-----7-----|-7------|--------|--------|
E|-----------3----1---0---|-0-----------|-----------------|--------|--------|--------|


E|--------|--------|--------|--------|--------|--------|--------|--------|--------|
B|--------|--------|--------|--------|--------|--------|--------|--------|--------|
G|--------|--------|--------|--------|--------|--------|--------|--------|--------|
D|--------|--------|--------|--------|--------|--------|--------|--------|--------|
A|--------|--------|--------|--------|--------|--------|--------|--------|--------|
E|--------|--------|--------|--------|--------|--------|--------|--------|--------|


E|--------|--------|--------|--------|--------|--------|--------|--------|--------|
B|--------|--------|--------|--------|--------|--------|--------|--------|--------|
G|--------|--------|--------|--------|--------|--------|--------|--------|--------|
D|--------|--------|--------|--------|--------|--------|--------|--------|--------|
A|--------|--------|--------|--------|--------|--------|--------|--------|--------|
E|--------|--------|--------|--------|--------|--------|--------|--------|--------|


E|--------|--------|--------|--------|--------|--------|--------|--------|--------|
B|--------|--------|--------|--------|--------|--------|--------|--------|--------|
G|--------|--------|--------|--------|--------|--------|--------|--------|--------|
D|--------|--------|--------|--------|--------|--------|--------|--------|--------|
A|--------|--------|--------|--------|--------|--------|--------|--------|--------|
E|--------|--------|--------|--------|--------|--------|--------|--------|--------|


E|--------|--------|--------|--------|--------|--------|--------|--------|--------|
B|--------|--------|--------|--------|--------|--------|--------|--------|--------|
G|--------|--------|--------|--------|--------|--------|--------|--------|--------|
D|--------|--------|--------|--------|--------|--------|--------|--------|--------|
A|--------|--------|--------|--------|--------|--------|--------|--------|--------|
E|--------|--------|--------|--------|--------|--------|--------|--------|--------|


E|--------|--------|--------|--------|--------|--------|--------|--------|--------|
B|--------|--------|--------|--------|--------|--------|--------|--------|--------|
G|--------|--------|--------|--------|--------|--------|--------|--------|--------|
D|--------|--------|--------|--------|--------|--------|--------|--------|--------|
A|--------|--------|--------|--------|--------|--------|--------|--------|--------|
E|--------|--------|--------|--------|--------|--------|--------|--------|--------|


E|--------|--------|--------|--------|--------|--------|--------|--------|--------|
B|--------|--------|--------|--------|--------|--------|--------|--------|--------|
G|--------|--------|--------|--------|--------|--------|--------|--------|--------|
D|--------|--------|--------|--------|--------|--------|--------|--------|--------|
A|--------|--------|--------|--------|--------|--------|--------|--------|--------|
E|--------|--------|--------|--------|--------|--------|--------|--------|--------|


E|--------|--------|--------|--------|--------|--------|--------|--------|--------|
B|--------|--------|--------|--------|--------|--------|--------|--------|--------|
G|--------|--------|--------|--------|--------|--------|--------|--------|--------|
D|--------|--------|--------|--------|--------|--------|--------|--------|--------|
A|--------|--------|--------|--------|--------|--------|--------|--------|--------|
E|--------|--------|--------|--------|--------|--------|--------|--------|--------|


E|--------|--------|--------|--------|--------|--------|--------|--------|-------12---12--12--|
B|--------|--------|--------|--------|--------|--------|--------|--------|-------15---15--15--|
G|--------|--------|--------|--------|--------|--------|--------|--------|--------------------|
D|--------|--------|--------|--------|--------|--------|--------|--------|--------------------|
A|--------|--------|--------|--------|--------|--------|--------|--------|--------------------|
E|--------|--------|--------|--------|--------|--------|--------|--------|--------------------|


E|-12--12------11--11---11--11--|-11--11-------10---10--10--|-10--10------9---9----9---9---|
B|-15--15------14--14---14--14--|-14--14-------13---13--13--|-13--13------12--12---12--12--|
G|------------------------------|---------------------------|------------------------------|
D|------------------------------|---------------------------|------------------------------|
A|------------------------------|---------------------------|------------------------------|
E|------------------------------|---------------------------|------------------------------|


E|-9---9--------8----8---8---|-8---8-------7---7----7---7---|-7---7--------6----6---6---|
B|-12--12-------11---11--11--|-11--11------10--10---10--10--|-10--10-------9----9---9---|
G|---------------------------|------------------------------|---------------------------|
D|---------------------------|------------------------------|---------------------------|
A|---------------------------|------------------------------|---------------------------|
E|---------------------------|------------------------------|---------------------------|


E|-6---6-----------------|-------12---12--12--|-12--12------11--11---11--11--|-11--11-------10---10--10--|
B|-9---9-----------------|-------15---15--15--|-15--15------14--14---14--14--|-14--14-------13---13--13--|
G|---------4---0---0-----|--------------------|------------------------------|---------------------------|
D|-----------------------|--------------------|------------------------------|---------------------------|
A|-----------------------|--------------------|------------------------------|---------------------------|
E|-----------------------|--------------------|------------------------------|---------------------------|


E|-10--10------9---9----9---9---|-9---9--------8----8---8---|-8---8-------7---7----7---7---|
B|-13--13------12--12---12--12--|-12--12-------11---11--11--|-11--11------10--10---10--10--|
G|------------------------------|---------------------------|------------------------------|
D|------------------------------|---------------------------|------------------------------|
A|------------------------------|---------------------------|------------------------------|
E|------------------------------|---------------------------|------------------------------|


E|-7---7------------------|--------------------|-------12---12--12--|-12--12------11--11---11--11--|
B|-10--10-----------------|--------------------|-------15---15--15--|-15--15------14--14---14--14--|
G|------------------------|--------------------|--------------------|------------------------------|
D|--------------3----2----|--------------------|-9------------------|------------------------------|
A|--------------1----0----|-5----3---2---2-----|-7------------------|------------------------------|
E|------------------------|-3----1---0---0-----|--------------------|------------------------------|


E|-11--11-------10---10--10--|-10--10------9---9----9---9---|-9---9--------12---12--12--|
B|-14--14-------13---13--13--|-13--13------12--12---12--12--|-12--12-------15---15--15--|
G|---------------------------|------------------------------|---------------------------|
D|---------------------------|------------------------------|---------------------------|
A|---------------------------|------------------------------|---------------------------|
E|---------------------------|------------------------------|---------------------------|


E|-12--12------11--11---11--11--|-11--11-------10---10--10--|-10--10------9---9----9---9---|
B|-15--15------14--14---14--14--|-14--14-------13---13--13--|-13--13------12--12---12--12--|
G|------------------------------|---------------------------|------------------------------|
D|------------------------------|---------------------------|------------------------------|
A|------------------------------|---------------------------|------------------------------|
E|------------------------------|---------------------------|------------------------------|


E|-9---9--------12---12--12--|-12--12------11--11---11--11--|-11--11-------10---10--10--|
B|-12--12-------15---15--15--|-15--15------14--14---14--14--|-14--14-------13---13--13--|
G|---------------------------|------------------------------|---------------------------|
D|---------------------------|------------------------------|---------------------------|
A|---------------------------|------------------------------|---------------------------|
E|---------------------------|------------------------------|---------------------------|


E|-10--10------9---9----9---9---|-9---9--------8----8---8---|-8---8-------7---7----7---7---|
B|-13--13------12--12---12--12--|-12--12-------11---11--11--|-11--11------10--10---10--10--|
G|------------------------------|---------------------------|------------------------------|
D|------------------------------|---------------------------|------------------------------|
A|------------------------------|---------------------------|------------------------------|
E|------------------------------|---------------------------|------------------------------|


E|-7---7------------------|--------------------|-----------------|-------------|------------------------|
B|-10--10-----------------|--------------------|-----------------|-------------|------------------------|
G|------------------------|--------------------|-----------7-----|-7-----7-----|-7----------------------|
D|------------------------|--------------------|-9-----7---9-----|-9-----9-----|-9------------9---------|
A|--------------8----7----|-5----3---2---2-----|-7-----5---7-----|-7-----7-----|-7---8---7----7---------|
E|--------------6----5----|-3----1---0---0-----|-----------------|-------------|-----6---5----0---------|


E|-------------|
B|-------------|
G|-------------|
D|-------------|
A|-------------|
E|-------------|





Track 3: Untitled

G|--------|--------|--------|--------|--------|--------|--------|--------|--------|
D|--------|--------|--------|--------|--------|--------|--------|--------|--------|
A|--------|--------|--------|--------|--------|--------|--------|--------|--------|
E|--------|--------|--------|--------|--------|--------|--------|--------|--------|


G|--------|--------|--------|--------|--------|--------|--------|--------|--------|
D|--------|--------|--------|--------|--------|--------|--------|--------|--------|
A|--------|--------|--------|--------|--------|--------|--------|--------|--------|
E|--------|--------|--------|--------|--------|--------|--------|--------|--------|


G|--------|--------|--------|--------|--------|--------|--------|--------|--------|
D|--------|--------|--------|--------|--------|--------|--------|--------|--------|
A|--------|--------|--------|--------|--------|--------|--------|--------|--------|
E|--------|--------|--------|--------|--------|--------|--------|--------|--------|


G|--------|--------|--------|--------|--------|--------|--------|--------|--------|
D|--------|--------|--------|--------|--------|--------|--------|--------|--------|
A|--------|--------|--------|--------|--------|--------|--------|--------|--------|
E|--------|--------|--------|--------|--------|--------|--------|--------|--------|


G|--------|--------|--------|--------|--------|--------|--------|--------|--------|
D|--------|--------|--------|--------|--------|--------|--------|--------|--------|
A|--------|--------|--------|--------|--------|--------|--------|--------|--------|
E|--------|--------|--------|--------|--------|--------|--------|--------|--------|


G|--------|--------|--------|--------|--------|--------|--------|--------|--------|
D|--------|--------|--------|--------|--------|--------|--------|--------|--------|
A|--------|--------|--------|--------|--------|--------|--------|--------|--------|
E|--------|--------|--------|--------|--------|--------|--------|--------|--------|


G|--------|--------|--------|--------|--------|--------|--------|--------|--------|
D|--------|--------|--------|--------|--------|--------|--------|--------|--------|
A|--------|--------|--------|--------|--------|--------|--------|--------|--------|
E|--------|--------|--------|--------|--------|--------|--------|--------|--------|


G|--------|--------|--------|--------|--------|--------|--------|--------|--------|
D|--------|--------|--------|--------|--------|--------|--------|--------|--------|
A|--------|--------|--------|--------|--------|--------|--------|--------|--------|
E|--------|--------|--------|--------|--------|--------|--------|--------|--------|


G|--------|--------|--------|--------|--------|--------|--------|--------|--------|
D|--------|--------|--------|--------|--------|--------|--------|--------|--------|
A|--------|--------|--------|--------|--------|--------|--------|--------|--------|
E|--------|--------|--------|--------|--------|--------|--------|--------|--------|


G|--------|--------|--------|--------|--------|--------|--------|--------|--------|
D|--------|--------|--------|--------|--------|--------|--------|--------|--------|
A|--------|--------|--------|--------|--------|--------|--------|--------|--------|
E|--------|--------|--------|--------|--------|--------|--------|--------|--------|


G|--------|--------|--------|--------|--------|--------|--------|--------|--------|
D|--------|--------|--------|--------|--------|--------|--------|--------|--------|
A|--------|--------|--------|--------|--------|--------|--------|--------|--------|
E|--------|--------|--------|--------|--------|--------|--------|--------|--------|


G|--------|--------|--------|--------|--------|--------|--------|--------|--------|
D|--------|--------|--------|--------|--------|--------|--------|--------|--------|
A|--------|--------|--------|--------|--------|--------|--------|--------|--------|
E|--------|--------|--------|--------|--------|--------|--------|--------|--------|


G|--------|--------|--------|--------|--------|--------|--------|--------|--------|
D|--------|--------|--------|--------|--------|--------|--------|--------|--------|
A|--------|--------|--------|--------|--------|--------|--------|--------|--------|
E|--------|--------|--------|--------|--------|--------|--------|--------|--------|


G|--------|--------|--------|--------|--------|--------|--------|--------|--------|
D|--------|--------|--------|--------|--------|--------|--------|--------|--------|
A|--------|--------|--------|--------|--------|--------|--------|--------|--------|
E|--------|--------|--------|--------|--------|--------|--------|--------|--------|


G|--------|--------|--------|--------|--------|--------|--------|--------|--------|
D|--------|--------|--------|--------|--------|--------|--------|--------|--------|
A|--------|--------|--------|--------|--------|--------|--------|--------|--------|
E|--------|--------|--------|--------|--------|--------|--------|--------|--------|


G|--------|--------|--------|--------|--------|--------|--------|--------|--------|
D|--------|--------|--------|--------|--------|--------|--------|--------|--------|
A|--------|--------|--------|--------|--------|--------|--------|--------|--------|
E|--------|--------|--------|--------|--------|--------|--------|--------|--------|


G|--------|--------|--------|--------|--------|--------|--------|--------|--------|
D|--------|--------|--------|--------|--------|--------|--------|--------|--------|
A|--------|--------|--------|--------|--------|--------|--------|--------|--------|
E|--------|--------|--------|--------|--------|--------|--------|--------|--------|


G|--------|--------|--------|--------|--------|--------|--------|--------|--------|
D|--------|--------|--------|--------|--------|--------|--------|--------|--------|
A|--------|--------|--------|--------|--------|--------|--------|--------|--------|
E|--------|--------|--------|--------|--------|--------|--------|--------|--------|


G|--------|--------|--------|--------|--------|--------|--------|--------|--------|
D|--------|--------|--------|--------|--------|--------|--------|--------|--------|
A|--------|--------|--------|--------|--------|--------|--------|--------|--------|
E|--------|--------|--------|--------|--------|--------|--------|--------|--------|


G|--------|--------|--------|--------|--------|--------|--------|--------|--------|
D|--------|--------|--------|--------|--------|--------|--------|--------|--------|
A|--------|--------|--------|--------|--------|--------|--------|--------|--------|
E|--------|--------|--------|--------|--------|--------|--------|--------|--------|


G|--------|--------|--------|--------|--------|--------|
D|--------|--------|--------|--------|--------|--------|
A|--------|--------|--------|--------|--------|--------|
E|--------|--------|--------|--------|--------|--------|