Menu:

 

Search:

 

megadeth - sweating bullets:

 



Title: Sweating Bullets
Artist: 
Album: Countdown To Extinction
Author: Dave Mustaine


Track 1: Dave Mustaine

E|--------|---------------------|-----------------------|---------------------|---------------------|
B|--------|---------------------|-----------------------|---------------------|---------------------|
G|--------|---------------------|-----------------------|---------------------|---------------------|
D|--------|-----------------1---|-0---------------------|-----------------1---|-0-----4---1---------|
A|--------|-2-----1---2-----2---|-1-----2---1-----1--2--|-2-----1---2-----2---|-1-----5---2-----2---|
E|--------|-0-----2---3---------|-------3---2-----2--3--|-0-----2---3---------|-----------------3---|


E|---------------------|-----------------------|-------------|-------------------|
B|---------------------|-----------------------|-------------|-------------------|
G|---------------------|-----------------------|-------------|-------------------|
D|-----------------1---|-0---------------------|-------------|-------------------|
A|-2-----1---2-----2---|-1-----2---1-----1--2--|-2-----2-----|-2------2------7---|
E|-0-----2---3---------|-------3---2-----2--3--|-0-----0-----|-0------0---6--5---|


E|------------------|-------------|---------------------|------------------|-------------|
B|------------------|-------------|---------------------|------------------|-------------|
G|------------------|-------------|---------------------|------------------|-------------|
D|-9----------------|-------------|---------------------|-9----------------|-------------|
A|-7----------------|-------------|---------------7-----|-7----------------|-------------|
E|------------------|-------------|-----------6---5-----|------------------|-------------|


E|---------------------|------------------|-------------|---------------------|------------------|
B|---------------------|------------------|-------------|---------------------|------------------|
G|---------------------|------------------|-------------|---------------------|------------------|
D|---------------------|-9----------------|-------------|---------------------|-9----------------|
A|---------------7-----|-7----------------|-------------|---------------7-----|-7----------------|
E|-----------6---5-----|------------------|-------------|-----------6---5-----|------------------|


E|-------------|---------------------|------------------|-------------|---------------------|
B|-------------|---------------------|------------------|-------------|---------------------|
G|-------------|---------------------|------------------|-------------|---------------------|
D|-------------|---------------------|-9----------------|-------------|---------------------|
A|-------------|---------------7-----|-7----------------|-------------|---------------7-----|
E|-------------|-----------6---5-----|------------------|-------------|-----------6---5-----|


E|------------------|-------------|---------------------|------------------|-------------|
B|------------------|-------------|---------------------|------------------|-------------|
G|------------------|-------------|---------------------|------------------|-------------|
D|-9----------------|-------------|---------------------|-9----------------|-------------|
A|-7----------------|-------------|---------------7-----|-7----------------|-------------|
E|------------------|-------------|-----------6---5-----|------------------|-------------|


E|---------------------|------------------|-------------|--------|------------------|
B|---------------------|------------------|-------------|--------|------------------|
G|---------------------|------------------|-------------|--------|------------------|
D|---------------------|-9----------------|-------------|--------|------------------|
A|---------------7-----|-7----------------|-------0-----|--------|-2-----5-----7----|
E|-----------6---5-----|------------------|-------0-----|--------|-0-----3-----5----|


E|------------------------|---------------------|------------------|------------------------|
B|------------------------|---------------------|------------------|------------------------|
G|------------------------|---------------------|------------------|------------------------|
D|------------------------|---------------------|------------------|------------------------|
A|-----5----8---8-----7---|-----------8---7-----|-2-----5-----7----|-----5----8---8-----7---|
E|-0---3----6---6-----5---|------0----6---5-----|-0-----3-----5----|-0---3----6---6-----5---|


E|---------------------|------------------|------------------------|---------------------|
B|---------------------|------------------|------------------------|---------------------|
G|---------------------|------------------|------------------------|---------------------|
D|---------------------|------------------|------------------------|---------------------|
A|------5--------3-----|-2-----5-----7----|-----5----8---8-----7---|-----------8---7-----|
E|------3----0---1-----|-0-----3-----5----|-0---3----6---6-----5---|------0----6---5-----|


E|------------------|--------------------|-------------|------------------|------------------------|
B|------------------|--------------------|-------------|------------------|------------------------|
G|------------------|--------------------|-------------|------------------|------------------------|
D|------------------|--------------------|-------------|------------------|------------------------|
A|-2-----5-----7----|-----3----2---2-----|------2------|-2-----5-----7----|-----5----8---8-----7---|
E|-0-----3-----5----|-0---1----0---0-----|------0------|-0-----3-----5----|-0---3----6---6-----5---|


E|---------------------|------------------|------------------------|---------------------|
B|---------------------|------------------|------------------------|---------------------|
G|---------------------|------------------|------------------------|---------------------|
D|---------------------|------------------|------------------------|---------------------|
A|-----------8---7-----|-2-----5-----7----|-----5----8---8-----7---|------5--------3-----|
E|------0----6---5-----|-0-----3-----5----|-0---3----6---6-----5---|------3----0---1-----|


E|------------------|------------------------|---------------------|------------------|
B|------------------|------------------------|---------------------|------------------|
G|------------------|------------------------|---------------------|------------------|
D|------------------|------------------------|---------------------|------------------|
A|-2-----5-----7----|-----5----8---8-----7---|-----------8---7-----|-8-----7-----5----|
E|-0-----3-----5----|-0---3----6---6-----5---|------0----6---5-----|-6-----5-----3----|


E|--------------------|-------------|---------------------|-------------|---------------------|
B|--------------------|-------------|---------------------|-------------|---------------------|
G|--------------------|-------------|------7---7-----7----|-------7-----|------7--------------|
D|--------------------|------9------|-7----5---5-----5----|-------5-----|------5--------------|
A|-----3----2---2-----|------7------|-5-------------------|-------------|---------------7-----|
E|-----1----0---0-----|-------------|---------------------|-------------|-----------6---5-----|


E|--------|--------|--------|--------|--------|--------|--------|--------|--------|
B|--------|--------|--------|--------|--------|--------|--------|--------|--------|
G|--------|--------|--------|--------|--------|--------|--------|--------|--------|
D|--------|--------|--------|--------|--------|--------|--------|--------|--------|
A|--------|--------|--------|--------|--------|--------|--------|--------|--------|
E|--------|--------|--------|--------|--------|--------|--------|--------|--------|


E|--------|--------|--------|--------|--------|--------|--------|--------|--------|
B|--------|--------|--------|--------|--------|--------|--------|--------|--------|
G|--------|--------|--------|--------|--------|--------|--------|--------|--------|
D|--------|--------|--------|--------|--------|--------|--------|--------|--------|
A|--------|--------|--------|--------|--------|--------|--------|--------|--------|
E|--------|--------|--------|--------|--------|--------|--------|--------|--------|


E|--------|--------|--------|--------|--------|--------|------------------|------------------------|
B|--------|--------|--------|--------|--------|--------|------------------|------------------------|
G|--------|--------|--------|--------|--------|--------|------------------|------------------------|
D|--------|--------|--------|--------|--------|--------|------------------|------------------------|
A|--------|--------|--------|--------|--------|--------|-2-----5-----7----|-----5----8---8-----7---|
E|--------|--------|--------|--------|--------|--------|-0-----3-----5----|-0---3----6---6-----5---|


E|---------------------|------------------|------------------------|---------------------|
B|---------------------|------------------|------------------------|---------------------|
G|---------------------|------------------|------------------------|---------------------|
D|---------------------|------------------|------------------------|---------------------|
A|-----------8---7-----|-2-----5-----7----|-----5----8---8-----7---|------5--------3-----|
E|------0----6---5-----|-0-----3-----5----|-0---3----6---6-----5---|------3----0---1-----|


E|------------------|------------------------|---------------------|------------------|
B|------------------|------------------------|---------------------|------------------|
G|------------------|------------------------|---------------------|------------------|
D|------------------|------------------------|---------------------|------------------|
A|-2-----5-----7----|-----5----8---8-----7---|-----------8---7-----|-2-----5-----7----|
E|-0-----3-----5----|-0---3----6---6-----5---|------0----6---5-----|-0-----3-----5----|


E|--------------------|-------------|------------------|------------------------|---------------------|
B|--------------------|-------------|------------------|------------------------|---------------------|
G|--------------------|-------------|------------------|------------------------|---------------------|
D|--------------------|-------------|------------------|------------------------|---------------------|
A|-----3----2---2-----|------2------|-2-----5-----7----|-----5----8---8-----7---|-----------8---7-----|
E|-0---1----0---0-----|------0------|-0-----3-----5----|-0---3----6---6-----5---|------0----6---5-----|


E|------------------|------------------------|---------------------|------------------|
B|------------------|------------------------|---------------------|------------------|
G|------------------|------------------------|---------------------|------------------|
D|------------------|------------------------|---------------------|------------------|
A|-2-----5-----7----|-----5----8---8-----7---|------5--------3-----|-2-----5-----7----|
E|-0-----3-----5----|-0---3----6---6-----5---|------3----0---1-----|-0-----3-----5----|


E|------------------------|---------------------|------------------|--------------------|
B|------------------------|---------------------|------------------|--------------------|
G|------------------------|---------------------|------------------|--------------------|
D|------------------------|---------------------|------------------|--------------------|
A|-----5----8---8-----7---|-----------8---7-----|-8-----7-----5----|-----3----2---2-----|
E|-0---3----6---6-----5---|------0----6---5-----|-6-----5-----3----|-----1----0---0-----|


E|-------------|---------------------|--------|--------|------------------------------|
B|-------------|---------------------|--------|--------|------------------------------|
G|-------------|------7---7-----7----|--------|--------|------------------------------|
D|------9------|-7----5---5-----5----|--------|--------|------------------------------|
A|------7------|-5-------------------|--------|--------|-------------------------2----|
E|-------------|---------------------|--------|--------|-0---0---0---0---0---0---0----|


E|------------------------------|------------------------|------------------------------|
B|------------------------------|------------------------|------------------------------|
G|------------------------------|------------------------|------------------------------|
D|------------------------------|------------------------|------------------------------|
A|-----------------2------------|---------2----8---7-----|-------------------------2----|
E|-----0---0---0---0--------0---|-0---0---0----6---5-----|-0---0---0---0---0---0---0----|


E|------------------------------|------------------------|------------------------------|
B|------------------------------|------------------------|------------------------------|
G|------------------------------|------------------------|------------------------------|
D|------------------------------|------------------------|------------------------------|
A|-----------------2------------|---------2----8---7-----|-------------------------5----|
E|-----0---0---0---0--------0---|-0---0---0----6---5-----|-3---3---3---3---3---3---3----|


E|---------------------------------|------------------------|------------------------------|
B|---------------------------------|------------------------|------------------------------|
G|---------------------------------|------------------------|------------------------------|
D|---------------------------------|------------------------|------------------------------|
A|---------------------------------|---------8----7---3-----|-------------------------2----|
E|-----3---3---3---5---5---5---5---|-5---5---6----5---1-----|-0---0---0---0---0---0---0----|


E|------------------------------|------------------------|------------------------------|
B|------------------------------|------------------------|------------------------------|
G|------------------------------|------------------------|------------------------------|
D|------------------------------|------------------------|------------------------------|
A|-----------------2------------|---------2----8---7-----|-------------------------2----|
E|-----0---0---0---0--------0---|-0---0---0----6---5-----|-0---0---0---0---0---0---0----|


E|------------------------------|------------------------|------------------------------|
B|------------------------------|------------------------|------------------------------|
G|------------------------------|------------------------|------------------------------|
D|------------------------------|------------------------|------------------------------|
A|-----------------2------------|---------2----8---7-----|-------------------------2----|
E|-----0---0---0---0--------0---|-0---0---0----6---5-----|-0---0---0---0---0---0---0----|


E|------------------------------|------------------------|------------------------------|
B|------------------------------|------------------------|------------------------------|
G|------------------------------|------------------------|------------------------------|
D|------------------------------|------------------------|------------------------------|
A|-----------------2------------|---------2----8---7-----|-------------------------5----|
E|-----0---0---0---0--------0---|-0---0---0----6---5-----|-3---3---3---3---3---3---3----|


E|---------------------------------|------------------------|------------------------------|
B|---------------------------------|------------------------|------------------------------|
G|---------------------------------|------------------------|------------------------------|
D|---------------------------------|------------------------|------------------------------|
A|---------------------------------|---------8----7---3-----|-------------------------2----|
E|-----3---3---3---5---5---5---5---|-5---5---6----5---1-----|-0---0---0---0---0---0---0----|


E|------------------------------|------------------------|------------------------------|
B|------------------------------|------------------------|------------------------------|
G|------------------------------|------------------------|------------------------------|
D|------------------------------|------------------------|------------------------------|
A|-----------------2------------|---------2----8---7-----|-------------------------2----|
E|-----0---0---0---0--------0---|-0---0---0----6---5-----|-0---0---0---0---0---0---0----|


E|------------------------------|------------------------|------------------------------|
B|------------------------------|------------------------|------------------------------|
G|------------------------------|------------------------|------------------------------|
D|------------------------------|------------------------|------------------------------|
A|-----------------2------------|---------2----8---7-----|-------------------------2----|
E|-----0---0---0---0--------0---|-0---0---0----6---5-----|-0---0---0---0---0---0---0----|


E|------------------------------|------------------------|------------------------------|
B|------------------------------|------------------------|------------------------------|
G|------------------------------|------------------------|------------------------------|
D|------------------------------|------------------------|------------------------------|
A|-----------------2------------|---------2----8---7-----|-------------------------5----|
E|-----0---0---0---0--------0---|-0---0---0----6---5-----|-3---3---3---3---3---3---3----|


E|---------------------------------|------------------------|------------------------------|
B|---------------------------------|------------------------|------------------------------|
G|---------------------------------|------------------------|------------------------------|
D|---------------------------------|------------------------|------------------------------|
A|---------------------------------|---------8----7---3-----|-------------------------2----|
E|-----3---3---3---5---5---5---5---|-5---5---6----5---1-----|-0---0---0---0---0---0---0----|


E|------------------------------|------------------------|------------------------------|
B|------------------------------|------------------------|------------------------------|
G|------------------------------|------------------------|------------------------------|
D|------------------------------|------------------------|------------------------------|
A|-----------------2------------|---------2----8---7-----|-------------------------2----|
E|-----0---0---0---0--------0---|-0---0---0----6---5-----|-0---0---0---0---0---0---0----|


E|------------------------------|------------------------|------------------------------|
B|------------------------------|------------------------|------------------------------|
G|------------------------------|------------------------|------------------------------|
D|------------------------------|------------------------|------------------------------|
A|-----------------2------------|---------2----8---7-----|-------------------------2----|
E|-----0---0---0---0--------0---|-0---0---0----6---5-----|-0---0---0---0---0---0---0----|


E|------------------------------|------------------------|------------------------------|
B|------------------------------|------------------------|------------------------------|
G|------------------------------|------------------------|------------------------------|
D|------------------------------|------------------------|------------------------------|
A|-----------------2------------|---------2----8---7-----|-------------------------5----|
E|-----0---0---0---0--------0---|-0---0---0----6---5-----|-3---3---3---3---3---3---3----|


E|---------------------------------|------------------------|------------------------------|
B|---------------------------------|------------------------|------------------------------|
G|---------------------------------|------------------------|------------------------------|
D|---------------------------------|------------------------|------------------------------|
A|---------------------------------|---------8----7---3-----|-------------------------2----|
E|-----3---3---3---5---5---5---5---|-5---5---6----5---1-----|-0---0---0---0---0---0---0----|


E|------------------------------|------------------------|------------------|-----------------|
B|------------------------------|------------------------|------------------|-----------------|
G|------------------------------|------------------------|------------------|-----------------|
D|------------------------------|------------------------|-10---------------|-----------------|
A|-----------------2------------|---------2----8---7-----|-8-----10----9----|-----5-----2-----|
E|-----0---0---0---0--------0---|-0---0---0----6---5-----|-------8-----7----|-----3-----0-----|


E|-------------|------------------|-----------------|-------------|--------|--------|
B|-------------|------------------|-----------------|-------------|--------|--------|
G|-------------|------------------|-----------------|-------------|--------|--------|
D|-------------|-10---------------|-----------------|-------------|--------|--------|
A|------2------|-8-----10----9----|-----5-----2-----|------2------|--------|--------|
E|------0------|-------8-----7----|-----3-----0-----|------0------|--------|--------|


E|--------|--------|-------------|-------------|-----------------------------------|
B|--------|--------|-------------|-------------|-----------------------------------|
G|--------|--------|-------------|-------------|-----------------------------------|
D|--------|--------|-------------|-------------|-----------------------------------|
A|--------|--------|-------2-----|-2-----3-----|-3-----4---5-----------4-----------|
E|--------|--------|-------0-----|-0-----1-----|-1-----2------0--2--3-----0--2--3--|


E|-------------------------------------------------|-------------------------------------------------|
B|-------------------------------------------------|-------------------------------------------------|
G|-------------------------------------------------|-------------------------------------------------|
D|-------------------------------------------------|-------------------------------------------------|
A|-3-----------2-----------1-----------0-----------|-------------------------5-----------4-----------|
E|----0--2--3-----0--2--3-----0--2--3-----0--2--3--|-4--3--2--1--0--1--2--3-----0--2--3-----0--2--3--|


E|-------------------------------------------------|-------------------------------------------------|
B|-------------------------------------------------|-------------------------------------------------|
G|-------------------------------------------------|-------------------------------------------------|
D|-------------------------------------------------|-------------------------------------------------|
A|-3-----------2-----------1-----------0-----------|-------------------------5-----------4-----------|
E|----0--2--3-----0--2--3-----0--2--3-----0--2--3--|-4--3--2--1--0--1--2--3-----0--2--3-----0--2--3--|


E|-------------------------------------------------|-------------------------------------------------|
B|-------------------------------------------------|-------------------------------------------------|
G|-------------------------------------------------|-------------------------------------------------|
D|-------------------------------------------------|-------------------------------------------------|
A|-3-----------2-----------1-----------0-----------|-------------------------5-----------4-----------|
E|----0--2--3-----0--2--3-----0--2--3-----0--2--3--|-4--3--2--1--0--1--2--3-----0--2--3-----0--2--3--|


E|-------------------------------------------------|-------------------------------------------------|
B|-------------------------------------------------|-------------------------------------------------|
G|-------------------------------------------------|-------------------------------------------------|
D|-------------------------------------------------|-------------------------------------------------|
A|-3-----------2-----------1-----------0-----------|-------------------------11-10-9--8--------------|
E|----0--2--3-----0--2--3-----0--2--3-----0--2--3--|-4--3--2--1--0--1--2--3--------------4--3--2--1--|


E|--------|-------------|--------|--------|-------------|--------|--------|-------------|
B|--------|-------------|--------|--------|-------------|--------|--------|-------------|
G|--------|-------------|--------|--------|-------------|--------|--------|-------------|
D|--------|-------------|--------|--------|-------------|--------|--------|-------------|
A|-2------|-------2-----|--------|-2------|-------2-----|--------|-2------|-------2-----|
E|-0------|-------0-----|--------|-0------|-------0-----|--------|-0------|-------0-----|


E|--------|--------|-------------|-----------------|------------------|-------------|
B|--------|--------|-------------|-----------------|------------------|-------------|
G|--------|--------|-------------|-----------------|------------------|-------------|
D|--------|--------|-------------|-----------------|-9----------------|-------------|
A|--------|-2------|-------2-----|-----------7-----|-7----------------|-------------|
E|--------|-0------|-------0-----|-------6---5-----|------------------|-------------|


E|---------------------|------------------|-------------|---------------------|------------------|
B|---------------------|------------------|-------------|---------------------|------------------|
G|---------------------|------------------|-------------|---------------------|------------------|
D|---------------------|-9----------------|-------------|---------------------|-9----------------|
A|---------------7-----|-7----------------|-------------|---------------7-----|-7----------------|
E|-----------6---5-----|------------------|-------------|-----------6---5-----|------------------|


E|-------------|---------------------|------------------|-------------|---------------------|
B|-------------|---------------------|------------------|-------------|---------------------|
G|-------------|---------------------|------------------|-------------|---------------------|
D|-------------|---------------------|-9----------------|-------------|---------------------|
A|-------------|---------------7-----|-7----------------|-------------|---------------7-----|
E|-------------|-----------6---5-----|------------------|-------------|-----------6---5-----|


E|------------------|-------------|---------------------|------------------|-------------|
B|------------------|-------------|---------------------|------------------|-------------|
G|------------------|-------------|---------------------|------------------|-------------|
D|-9----------------|-------------|---------------------|-9----------------|-------------|
A|-7----------------|-------------|---------------7-----|-7----------------|-------------|
E|------------------|-------------|-----------6---5-----|------------------|-------------|


E|---------------------|------------------|-------------|---------------------|------------------|
B|---------------------|------------------|-------------|---------------------|------------------|
G|---------------------|------------------|-------------|---------------------|------------------|
D|---------------------|-9----------------|-------------|---------------------|-9----------------|
A|---------------7-----|-7----------------|-------------|---------------7-----|-7----------------|
E|-----------6---5-----|------------------|-------------|-----------6---5-----|------------------|


E|-------------|--------|------------------|------------------------|---------------------|
B|-------------|--------|------------------|------------------------|---------------------|
G|-------------|--------|------------------|------------------------|---------------------|
D|-------------|--------|------------------|------------------------|---------------------|
A|-------0-----|--------|-2-----5-----7----|-----5----8---8-----7---|-----------8---7-----|
E|-------0-----|--------|-0-----3-----5----|-0---3----6---6-----5---|------0----6---5-----|


E|------------------|------------------------|---------------------|------------------|
B|------------------|------------------------|---------------------|------------------|
G|------------------|------------------------|---------------------|------------------|
D|------------------|------------------------|---------------------|------------------|
A|-2-----5-----7----|-----5----8---8-----7---|------5--------3-----|-2-----5-----7----|
E|-0-----3-----5----|-0---3----6---6-----5---|------3----0---1-----|-0-----3-----5----|


E|------------------------|---------------------|------------------|--------------------|
B|------------------------|---------------------|------------------|--------------------|
G|------------------------|---------------------|------------------|--------------------|
D|------------------------|---------------------|------------------|--------------------|
A|-----5----8---8-----7---|-----------8---7-----|-2-----5-----7----|-----3----2---2-----|
E|-0---3----6---6-----5---|------0----6---5-----|-0-----3-----5----|-0---1----0---0-----|


E|-------------|------------------|------------------------|---------------------|
B|-------------|------------------|------------------------|---------------------|
G|-------------|------------------|------------------------|---------------------|
D|-------------|------------------|------------------------|---------------------|
A|------2------|-2-----5-----7----|-----5----8---8-----7---|-----------8---7-----|
E|------0------|-0-----3-----5----|-0---3----6---6-----5---|------0----6---5-----|


E|------------------|------------------------|---------------------|------------------|
B|------------------|------------------------|---------------------|------------------|
G|------------------|------------------------|---------------------|------------------|
D|------------------|------------------------|---------------------|------------------|
A|-2-----5-----7----|-----5----8---8-----7---|------5--------3-----|-2-----5-----7----|
E|-0-----3-----5----|-0---3----6---6-----5---|------3----0---1-----|-0-----3-----5----|


E|------------------------|---------------------|------------------|--------------------|
B|------------------------|---------------------|------------------|--------------------|
G|------------------------|---------------------|------------------|--------------------|
D|------------------------|---------------------|------------------|--------------------|
A|-----5----8---8-----7---|-----------8---7-----|-8-----7-----5----|-----3----2---2-----|
E|-0---3----6---6-----5---|------0----6---5-----|-6-----5-----3----|-----1----0---0-----|


E|-------------|---------------------|-----------------------|---------------------------------|
B|-------------|---------------------|-----------------------|---------------------------------|
G|-------------|------7---7-----7----|-----------------------|---------------------------------|
D|------9------|-7----5---5-----5----|-----------------------|---------------------------------|
A|------7------|-5-------------------|-----------------------|---------------------------------|
E|-------------|---------------------|-------0---0---0---3---|-3---3---5---5---5---3---3---3---|


E|---------------------------------|---------------------------------|---------------------------------|
B|---------------------------------|---------------------------------|---------------------------------|
G|---------------------------------|---------------------------------|---------------------------------|
D|---------------------------------|---------------------------------|---------------------------------|
A|---------------------------------|---------------------------------|---------------------------------|
E|-6---6---6---5---5---5---3---3---|-3---5---5---5---0---0---0---3---|-3---3---5---5---5---3---3---3---|


E|---------------------------------|---------------------------------|---------------------------------|
B|---------------------------------|---------------------------------|---------------------------------|
G|---------------------------------|---------------------------------|---------------------------------|
D|---------------------------------|---------------------------------|---------------------------------|
A|---------------------------------|---------------------------------|---------------------------------|
E|-6---6---6---5---5---5---3---3---|-3---1---1---1---0---0---0---3---|-3---3---5---5---5---3---3---3---|


E|---------------------------------|---------------------------------|---------------------------------|
B|---------------------------------|---------------------------------|---------------------------------|
G|---------------------------------|---------------------------------|---------------------------------|
D|---------------------------------|---------------------------------|---------------------------------|
A|---------------------------------|---------------------------------|---------------------------------|
E|-6---6---6---5---5---5---3---3---|-3---5---5---5---0---0---0---3---|-3---3---5---5---5---3---3---3---|


E|---------------------------------|---------------------------------|---------------------------------|
B|---------------------------------|---------------------------------|---------------------------------|
G|---------------------------------|---------------------------------|---------------------------------|
D|---------------------------------|---------------------------------|---------------------------------|
A|---------------------------------|---------------------------------|---------------------------------|
E|-6---6---6---5---5---5---3---3---|-3---1---1---1---0---0---0---3---|-3---3---5---5---5---3---3---3---|


E|---------------------------------|---------------------------------|---------------------------------|
B|---------------------------------|---------------------------------|---------------------------------|
G|---------------------------------|---------------------------------|---------------------------------|
D|---------------------------------|---------------------------------|---------------------------------|
A|---------------------------------|---------------------------------|---------------------------------|
E|-6---6---6---5---5---5---3---3---|-3---5---5---5---0---0---0---3---|-3---3---5---5---5---3---3---3---|


E|---------------------------------|---------------------------------|---------------------------------|
B|---------------------------------|---------------------------------|---------------------------------|
G|---------------------------------|---------------------------------|---------------------------------|
D|---------------------------------|---------------------------------|---------------------------------|
A|---------------------------------|---------------------------------|---------------------------------|
E|-6---6---6---5---5---5---3---3---|-3---1---1---1---0---0---0---3---|-3---3---5---5---5---3---3---3---|


E|---------------------------------|---------------------------|---------------------|
B|---------------------------------|---------------------------|---------------------|
G|---------------------------------|---------------------------|---------------------|
D|---------------------------------|---------------------------|---------------------|
A|---------------------------------|-----------------8-----7---|------5-----3----2---|
E|-6---6---6---5---5---5---3---3---|-3---5---5---5---6-----5---|------3-----1----0---|


E|-------------|--------------------|-------------|-------------|---------------------|
B|-------------|--------------------|-------------|-------------|---------------------|
G|-------------|------------7---7---|------7------|-7------7----|---------------------|
D|--------9----|-------7----5---5---|------5------|-5------5----|-----------9---------|
A|-2------7----|-------5------------|-------------|-------------|-----7-----7---------|
E|-0-----------|--------------------|-------------|-------------|-6---5---------------|


E|-------------|
B|-------------|
G|-------------|
D|-------------|
A|-------------|
E|-------------|





Track 2: Dave Mustaine

E|--------|--------|--------|--------|--------|--------|--------|--------|--------|
B|--------|--------|--------|--------|--------|--------|--------|--------|--------|
G|--------|--------|--------|--------|--------|--------|--------|--------|--------|
D|--------|--------|--------|--------|--------|--------|--------|--------|--------|
A|--------|--------|--------|--------|--------|--------|--------|--------|--------|
E|--------|--------|--------|--------|--------|--------|--------|--------|--------|


E|--------|--------|--------|--------|--------|--------|--------|--------|--------|
B|--------|--------|--------|--------|--------|--------|--------|--------|--------|
G|--------|--------|--------|--------|--------|--------|--------|--------|--------|
D|--------|--------|--------|--------|--------|--------|--------|--------|--------|
A|--------|--------|--------|--------|--------|--------|--------|--------|--------|
E|--------|--------|--------|--------|--------|--------|--------|--------|--------|


E|--------|--------|--------|--------|--------|--------|--------|--------|--------|
B|--------|--------|--------|--------|--------|--------|--------|--------|--------|
G|--------|--------|--------|--------|--------|--------|--------|--------|--------|
D|--------|--------|--------|--------|--------|--------|--------|--------|--------|
A|--------|--------|--------|--------|--------|--------|--------|--------|--------|
E|--------|--------|--------|--------|--------|--------|--------|--------|--------|


E|--------|--------|--------|--------|--------|--------|--------|--------|--------|
B|--------|--------|--------|--------|--------|--------|--------|--------|--------|
G|--------|--------|--------|--------|--------|--------|--------|--------|--------|
D|--------|--------|--------|--------|--------|--------|--------|--------|--------|
A|--------|--------|--------|--------|--------|--------|--------|--------|--------|
E|--------|--------|--------|--------|--------|--------|--------|--------|--------|


E|--------|--------|--------|--------|--------|--------|--------|--------|--------|
B|--------|--------|--------|--------|--------|--------|--------|--------|--------|
G|--------|--------|--------|--------|--------|--------|--------|--------|--------|
D|--------|--------|--------|--------|--------|--------|--------|--------|--------|
A|--------|--------|--------|--------|--------|--------|--------|--------|--------|
E|--------|--------|--------|--------|--------|--------|--------|--------|--------|


E|--------|--------|--------|--------|--------|--------|--------|--------|--------|
B|--------|--------|--------|--------|--------|--------|--------|--------|--------|
G|--------|--------|--------|--------|--------|--------|--------|--------|--------|
D|--------|--------|--------|--------|--------|--------|--------|--------|--------|
A|--------|--------|--------|--------|--------|--------|--------|--------|--------|
E|--------|--------|--------|--------|--------|--------|--------|--------|--------|


E|--------|--------|--------|--------|--------|--------|--------|--------|--------|
B|--------|--------|--------|--------|--------|--------|--------|--------|--------|
G|--------|--------|--------|--------|--------|--------|--------|--------|--------|
D|--------|--------|--------|--------|--------|--------|--------|--------|--------|
A|--------|--------|--------|--------|--------|--------|--------|--------|--------|
E|--------|--------|--------|--------|--------|--------|--------|--------|--------|


E|--------|--------|--------|--------|--------|--------|--------|--------|--------|
B|--------|--------|--------|--------|--------|--------|--------|--------|--------|
G|--------|--------|--------|--------|--------|--------|--------|--------|--------|
D|--------|--------|--------|--------|--------|--------|--------|--------|--------|
A|--------|--------|--------|--------|--------|--------|--------|--------|--------|
E|--------|--------|--------|--------|--------|--------|--------|--------|--------|


E|--------|--------|--------|--------|--------|--------|--------|--------|--------|
B|--------|--------|--------|--------|--------|--------|--------|--------|--------|
G|--------|--------|--------|--------|--------|--------|--------|--------|--------|
D|--------|--------|--------|--------|--------|--------|--------|--------|--------|
A|--------|--------|--------|--------|--------|--------|--------|--------|--------|
E|--------|--------|--------|--------|--------|--------|--------|--------|--------|


E|--------|--------|--------|--------|--------|--------|--------|--------|--------|
B|--------|--------|--------|--------|--------|--------|--------|--------|--------|
G|--------|--------|--------|--------|--------|--------|--------|--------|--------|
D|--------|--------|--------|--------|--------|--------|--------|--------|--------|
A|--------|--------|--------|--------|--------|--------|--------|--------|--------|
E|--------|--------|--------|--------|--------|--------|--------|--------|--------|


E|--------|--------|--------|--------|--------|--------|--------|--------|--------|
B|--------|--------|--------|--------|--------|--------|--------|--------|--------|
G|--------|--------|--------|--------|--------|--------|--------|--------|--------|
D|--------|--------|--------|--------|--------|--------|--------|--------|--------|
A|--------|--------|--------|--------|--------|--------|--------|--------|--------|
E|--------|--------|--------|--------|--------|--------|--------|--------|--------|


E|--------|--------|--------|--------|--------|--------|--------|--------|--------|
B|--------|--------|--------|--------|--------|--------|--------|--------|--------|
G|--------|--------|--------|--------|--------|--------|--------|--------|--------|
D|--------|--------|--------|--------|--------|--------|--------|--------|--------|
A|--------|--------|--------|--------|--------|--------|--------|--------|--------|
E|--------|--------|--------|--------|--------|--------|--------|--------|--------|


E|--------|--------|--------|--------|--------|--------|--------|--------|--------|
B|--------|--------|--------|--------|--------|--------|--------|--------|--------|
G|--------|--------|--------|--------|--------|--------|--------|--------|--------|
D|--------|--------|--------|--------|--------|--------|--------|--------|--------|
A|--------|--------|--------|--------|--------|--------|--------|--------|--------|
E|--------|--------|--------|--------|--------|--------|--------|--------|--------|


E|--------|--------|--------|--------|--------|--------|--------|--------|--------|
B|--------|--------|--------|--------|--------|--------|--------|--------|--------|
G|--------|--------|--------|--------|--------|--------|--------|--------|--------|
D|--------|--------|--------|--------|--------|--------|--------|--------|--------|
A|--------|--------|--------|--------|--------|--------|--------|--------|--------|
E|--------|--------|--------|--------|--------|--------|--------|--------|--------|


E|--------|--------|--------|--------|--------|--------|--------|--------|--------|
B|--------|--------|--------|--------|--------|--------|--------|--------|--------|
G|--------|--------|--------|--------|--------|--------|--------|--------|--------|
D|--------|--------|--------|--------|--------|--------|--------|--------|--------|
A|--------|--------|--------|--------|--------|--------|--------|--------|--------|
E|--------|--------|--------|--------|--------|--------|--------|--------|--------|


E|--------|--------|--------|--------|--------|--------|--------|--------|--------|
B|--------|--------|--------|--------|--------|--------|--------|--------|--------|
G|--------|--------|--------|--------|--------|--------|--------|--------|--------|
D|--------|--------|--------|--------|--------|--------|--------|--------|--------|
A|--------|--------|--------|--------|--------|--------|--------|--------|--------|
E|--------|--------|--------|--------|--------|--------|--------|--------|--------|


E|--------|--------|--------|--------|--------|--------|--------|--------|--------|
B|--------|--------|--------|--------|--------|--------|--------|--------|--------|
G|--------|--------|--------|--------|--------|--------|--------|--------|--------|
D|--------|--------|--------|--------|--------|--------|--------|--------|--------|
A|--------|--------|--------|--------|--------|--------|--------|--------|--------|
E|--------|--------|--------|--------|--------|--------|--------|--------|--------|


E|--------|--------|--------|--------|--------|--------|--------|--------|--------|
B|--------|--------|--------|--------|--------|--------|--------|--------|--------|
G|--------|--------|--------|--------|--------|--------|--------|--------|--------|
D|--------|--------|--------|--------|--------|--------|--------|--------|--------|
A|--------|--------|--------|--------|--------|--------|--------|--------|--------|
E|--------|--------|--------|--------|--------|--------|--------|--------|--------|


E|--------|--------|--------|--------|--------|--------|--------|--------|--------|
B|--------|--------|--------|--------|--------|--------|--------|--------|--------|
G|--------|--------|--------|--------|--------|--------|--------|--------|--------|
D|--------|--------|--------|--------|--------|--------|--------|--------|--------|
A|--------|--------|--------|--------|--------|--------|--------|--------|--------|
E|--------|--------|--------|--------|--------|--------|--------|--------|--------|


E|--------|--------|--------|--------|--------|--------|--------|--------|--------|
B|--------|--------|--------|--------|--------|--------|--------|--------|--------|
G|--------|--------|--------|--------|--------|--------|--------|--------|--------|
D|--------|--------|--------|--------|--------|--------|--------|--------|--------|
A|--------|--------|--------|--------|--------|--------|--------|--------|--------|
E|--------|--------|--------|--------|--------|--------|--------|--------|--------|


E|--------|--------|--------|--------|--------|--------|--------|--------|--------|
B|--------|--------|--------|--------|--------|--------|--------|--------|--------|
G|--------|--------|--------|--------|--------|--------|--------|--------|--------|
D|--------|--------|--------|--------|--------|--------|--------|--------|--------|
A|--------|--------|--------|--------|--------|--------|--------|--------|--------|
E|--------|--------|--------|--------|--------|--------|--------|--------|--------|


E|--------|--------|--------|--------|--------|--------|--------|--------|--------|
B|--------|--------|--------|--------|--------|--------|--------|--------|--------|
G|--------|--------|--------|--------|--------|--------|--------|--------|--------|
D|--------|--------|--------|--------|--------|--------|--------|--------|--------|
A|--------|--------|--------|--------|--------|--------|--------|--------|--------|
E|--------|--------|--------|--------|--------|--------|--------|--------|--------|


E|--------|--------|--------|--------|--------|--------|--------|--------|--------|
B|--------|--------|--------|--------|--------|--------|--------|--------|--------|
G|--------|--------|--------|--------|--------|--------|--------|--------|--------|
D|--------|--------|--------|--------|--------|--------|--------|--------|--------|
A|--------|--------|--------|--------|--------|--------|--------|--------|--------|
E|--------|--------|--------|--------|--------|--------|--------|--------|--------|


E|--------|--------|--------|--------|--------|--------|--------|--------|--------|
B|--------|--------|--------|--------|--------|--------|--------|--------|--------|
G|--------|--------|--------|--------|--------|--------|--------|--------|--------|
D|--------|--------|--------|--------|--------|--------|--------|--------|--------|
A|--------|--------|--------|--------|--------|--------|--------|--------|--------|
E|--------|--------|--------|--------|--------|--------|--------|--------|--------|


E|--------|--------|--------|--------|--------|--------|--------|--------|--------|
B|--------|--------|--------|--------|--------|--------|--------|--------|--------|
G|--------|--------|--------|--------|--------|--------|--------|--------|--------|
D|--------|--------|--------|--------|--------|--------|--------|--------|--------|
A|--------|--------|--------|--------|--------|--------|--------|--------|--------|
E|--------|--------|--------|--------|--------|--------|--------|--------|--------|


E|--------|--------|--------|--------|--------|--------|--------|--------|--------|
B|--------|--------|--------|--------|--------|--------|--------|--------|--------|
G|--------|--------|--------|--------|--------|--------|--------|--------|--------|
D|--------|--------|--------|--------|--------|--------|--------|--------|--------|
A|--------|--------|--------|--------|--------|--------|--------|--------|--------|
E|--------|--------|--------|--------|--------|--------|--------|--------|--------|


E|--------|--------|--------|--------|--------|--------|--------|--------|--------|
B|--------|--------|--------|--------|--------|--------|--------|--------|--------|
G|--------|--------|--------|--------|--------|--------|--------|--------|--------|
D|--------|--------|--------|--------|--------|--------|--------|--------|--------|
A|--------|--------|--------|--------|--------|--------|--------|--------|--------|
E|--------|--------|--------|--------|--------|--------|--------|--------|--------|


E|--------|--------|--------|--------|--------|--------|--------|--------|--------|
B|--------|--------|--------|--------|--------|--------|--------|--------|--------|
G|--------|--------|--------|--------|--------|--------|--------|--------|--------|
D|--------|--------|--------|--------|--------|--------|--------|--------|--------|
A|--------|--------|--------|--------|--------|--------|--------|--------|--------|
E|--------|--------|--------|--------|--------|--------|--------|--------|--------|


E|--------|--------|--------|--------|--------|--------|--------|--------|--------|
B|--------|--------|--------|--------|--------|--------|--------|--------|--------|
G|--------|--------|--------|--------|--------|--------|--------|--------|--------|
D|--------|--------|--------|--------|--------|--------|--------|--------|--------|
A|--------|--------|--------|--------|--------|--------|--------|--------|--------|
E|--------|--------|--------|--------|--------|--------|--------|--------|--------|


E|--------|--------|--------|--------|--------|--------|--------|--------|--------|
B|--------|--------|--------|--------|--------|--------|--------|--------|--------|
G|--------|--------|--------|--------|--------|--------|--------|--------|--------|
D|--------|--------|--------|--------|--------|--------|--------|--------|--------|
A|--------|--------|--------|--------|--------|--------|--------|--------|--------|
E|--------|--------|--------|--------|--------|--------|--------|--------|--------|





Track 3: Marty Friedman

E|--------|---------------------|-----------------------|---------------------|---------------------|
B|--------|---------------------|-----------------------|---------------------|---------------------|
G|--------|-----------------7---|-6---------------------|-----------------7---|-6-----11--8---------|
D|--------|-------7---9---------|-------9---8-----8--9--|-------7---9---------|-----------------9---|
A|--------|-10------------------|-----------------------|-10------------------|---------------------|
E|--------|---------------------|-----------------------|---------------------|---------------------|


E|---------------------|-----------------------|-------------|-------------------|
B|---------------------|-----------------------|-------------|-------------------|
G|-----------------7---|-6---------------------|-------------|-------------------|
D|-------7---9---------|-------9---8-----8--9--|-------------|-------------------|
A|-10------------------|-----------------------|-10----10----|-10-----10-----7---|
E|---------------------|-----------------------|-------------|------------6--5---|


E|--------|--------|--------|--------|--------|--------|--------|--------|--------|
B|--------|--------|--------|--------|--------|--------|--------|--------|--------|
G|--------|--------|--------|--------|--------|--------|--------|--------|--------|
D|--------|--------|--------|--------|--------|--------|--------|--------|--------|
A|--------|--------|--------|--------|--------|--------|--------|--------|--------|
E|--------|--------|--------|--------|--------|--------|--------|--------|--------|


E|--------|--------|--------|--------|--------|--------|--------|--------|--------|
B|--------|--------|--------|--------|--------|--------|--------|--------|--------|
G|--------|--------|--------|--------|--------|--------|--------|--------|--------|
D|--------|--------|--------|--------|--------|--------|--------|--------|--------|
A|--------|--------|--------|--------|--------|--------|--------|--------|--------|
E|--------|--------|--------|--------|--------|--------|--------|--------|--------|


E|--------|--------|--------|--------|--------|--------|-12----12-----|----------11--11----11--|
B|--------|--------|--------|--------|--------|--------|-15----15-----|----------14--14----14--|
G|--------|--------|--------|--------|--------|--------|--------------|------------------------|
D|--------|--------|--------|--------|--------|--------|--------------|------------------------|
A|--------|--------|--------|--------|--------|--------|--------------|------------------------|
E|--------|--------|--------|--------|--------|--------|--------------|------------------------|


E|-----------------|-10----10-----|----------9---9-----9---|-----------------|-8-----8------|
B|-----------------|-13----13-----|----------12--12----12--|-----------------|-11----11-----|
G|-----------------|--------------|------------------------|-----------------|--------------|
D|-----------------|--------------|------------------------|-----------------|--------------|
A|-----------------|--------------|------------------------|-----------------|--------------|
E|-----------------|--------------|------------------------|-----------------|--------------|


E|----------7---7-----7---|-----------------|-6-----6------|--------------------|-------------|
B|----------10--10----10--|-----------------|-9-----9------|--------------------|-------------|
G|------------------------|-----------------|--------------|-----3----0---0-----|------0------|
D|------------------------|-----------------|--------------|--------------------|-------------|
A|------------------------|-----------------|--------------|--------------------|-------------|
E|------------------------|-----------------|--------------|--------------------|-------------|


E|-12----12-----|----------11--11----11--|-----------------|-10----10-----|----------9---9-----9---|
B|-15----15-----|----------14--14----14--|-----------------|-13----13-----|----------12--12----12--|
G|--------------|------------------------|-----------------|--------------|------------------------|
D|--------------|------------------------|-----------------|--------------|------------------------|
A|--------------|------------------------|-----------------|--------------|------------------------|
E|--------------|------------------------|-----------------|--------------|------------------------|


E|-----------------|-8-----8------|----------7---7-----7---|-----------------|------------------|
B|-----------------|-11----11-----|----------10--10----10--|-----------------|------------------|
G|-----------------|--------------|------------------------|-----------------|------------------|
D|-----------------|--------------|------------------------|-----------------|------------------|
A|-----------------|--------------|------------------------|-----------------|-8-----7-----5----|
E|-----------------|--------------|------------------------|-----------------|-6-----5-----3----|


E|--------------------|-------------|---------------------|-------------|---------------------|
B|--------------------|-------------|---------------------|-------------|---------------------|
G|--------------------|-------------|---------------------|-------------|---------------------|
D|--------------------|------9------|-7----9---9-----9----|-------9-----|------9--------------|
A|-----3----2---2-----|------7------|-5----7---7-----7----|-------7-----|------7--------7-----|
E|-----1----0---0-----|-------------|------0---0-----0----|-------0-----|------0----6---5-----|


E|------------------|-------------|---------------------|------------------|-------------|
B|------------------|-------------|---------------------|------------------|-------------|
G|------------------|-------------|---------------------|------------------|-------------|
D|-9----------------|-------------|---------------------|-9----------------|-------------|
A|-7----------------|-------------|---------------7-----|-7----------------|-------------|
E|------------------|-------------|-----------6---5-----|------------------|-------------|


E|---------------------|------------------|-------------|---------------------|------------------|
B|---------------------|------------------|-------------|---------------------|------------------|
G|---------------------|------------------|-------------|---------------------|------------------|
D|---------------------|-9----------------|-------------|---------------------|-9----------------|
A|---------------7-----|-7----------------|-------------|---------------7-----|-7----------------|
E|-----------6---5-----|------------------|-------------|-----------6---5-----|------------------|


E|-------------|---------------------|------------------|-------------|---------------------|
B|-------------|---------------------|------------------|-------------|---------------------|
G|-------------|---------------------|------------------|-------------|---------------------|
D|-------------|---------------------|-9----------------|-------------|---------------------|
A|-------------|---------------7-----|-7----------------|-------------|---------------7-----|
E|-------------|-----------6---5-----|------------------|-------------|-----------6---5-----|


E|------------------|-------------|---------------------|------------------|-------------|
B|------------------|-------------|---------------------|------------------|-------------|
G|------------------|-------------|---------------------|------------------|-------------|
D|-9----------------|-------------|---------------------|-9----------------|-------------|
A|-7----------------|-------------|---------------7-----|-7----------------|-------------|
E|------------------|-------------|-----------6---5-----|------------------|-------------|


E|---------------------|------------------|-------------|--------|-12----12-----|----------11--11----11--|
B|---------------------|------------------|-------------|--------|-15----15-----|----------14--14----14--|
G|---------------------|------------------|-------------|--------|--------------|------------------------|
D|---------------------|-9----------------|-------------|--------|--------------|------------------------|
A|---------------7-----|-7----------------|-------0-----|--------|--------------|------------------------|
E|-----------6---5-----|------------------|-------0-----|--------|--------------|------------------------|


E|-----------------|-10----10-----|----------9---9-----9---|-----------------|-8-----8------|
B|-----------------|-13----13-----|----------12--12----12--|-----------------|-11----11-----|
G|-----------------|--------------|------------------------|-----------------|--------------|
D|-----------------|--------------|------------------------|-----------------|--------------|
A|-----------------|--------------|------------------------|-----------------|--------------|
E|-----------------|--------------|------------------------|-----------------|--------------|


E|----------7---7-----7---|-----------------|-6-----6------|--------------------|-------------|
B|----------10--10----10--|-----------------|-9-----9------|--------------------|-------------|
G|------------------------|-----------------|--------------|-----3----0---0-----|------0------|
D|------------------------|-----------------|--------------|--------------------|-------------|
A|------------------------|-----------------|--------------|--------------------|-------------|
E|------------------------|-----------------|--------------|--------------------|-------------|


E|-12----12-----|----------11--11----11--|-----------------|-10----10-----|----------9---9-----9---|
B|-15----15-----|----------14--14----14--|-----------------|-13----13-----|----------12--12----12--|
G|--------------|------------------------|-----------------|--------------|------------------------|
D|--------------|------------------------|-----------------|--------------|------------------------|
A|--------------|------------------------|-----------------|--------------|------------------------|
E|--------------|------------------------|-----------------|--------------|------------------------|


E|-----------------|-8-----8------|----------7---7-----7---|-----------------|------------------|
B|-----------------|-11----11-----|----------10--10----10--|-----------------|------------------|
G|-----------------|--------------|------------------------|-----------------|------------------|
D|-----------------|--------------|------------------------|-----------------|------------------|
A|-----------------|--------------|------------------------|-----------------|-8-----7-----5----|
E|-----------------|--------------|------------------------|-----------------|-6-----5-----3----|


E|--------------------|-------------|---------------------|-------------|--------|
B|--------------------|-------------|---------------------|-------------|--------|
G|--------------------|-------------|---------------------|-------------|--------|
D|--------------------|------9------|-7----9---9-----9----|-------9-----|--------|
A|-----3----2---2-----|------7------|-5----7---7-----7----|-------7-----|--------|
E|-----1----0---0-----|-------------|------0---0-----0----|-------0-----|--------|


E|--------|--------|--------|--------|--------|--------|--------|--------|--------|
B|--------|--------|--------|--------|--------|--------|--------|--------|--------|
G|--------|--------|--------|--------|--------|--------|--------|--------|--------|
D|--------|--------|--------|--------|--------|--------|--------|--------|--------|
A|--------|--------|--------|--------|--------|--------|--------|--------|--------|
E|--------|--------|--------|--------|--------|--------|--------|--------|--------|


E|--------|--------|--------|--------|--------|--------|--------|--------|--------|
B|--------|--------|--------|--------|--------|--------|--------|--------|--------|
G|--------|--------|--------|--------|--------|--------|--------|--------|--------|
D|--------|--------|--------|--------|--------|--------|--------|--------|--------|
A|--------|--------|--------|--------|--------|--------|--------|--------|--------|
E|--------|--------|--------|--------|--------|--------|--------|--------|--------|


E|--------|--------|--------|--------|--------|--------|--------|--------|--------|
B|--------|--------|--------|--------|--------|--------|--------|--------|--------|
G|--------|--------|--------|--------|--------|--------|--------|--------|--------|
D|--------|--------|--------|--------|--------|--------|--------|--------|--------|
A|--------|--------|--------|--------|--------|--------|--------|--------|--------|
E|--------|--------|--------|--------|--------|--------|--------|--------|--------|


E|--------|--------|--------|--------|--------|--------|--------|--------|--------|
B|--------|--------|--------|--------|--------|--------|--------|--------|--------|
G|--------|--------|--------|--------|--------|--------|--------|--------|--------|
D|--------|--------|--------|--------|--------|--------|--------|--------|--------|
A|--------|--------|--------|--------|--------|--------|--------|--------|--------|
E|--------|--------|--------|--------|--------|--------|--------|--------|--------|


E|--------|--------|--------|--------|--------|--------|--------|--------|--------|
B|--------|--------|--------|--------|--------|--------|--------|--------|--------|
G|--------|--------|--------|--------|--------|--------|--------|--------|--------|
D|--------|--------|--------|--------|--------|--------|--------|--------|--------|
A|--------|--------|--------|--------|--------|--------|--------|--------|--------|
E|--------|--------|--------|--------|--------|--------|--------|--------|--------|


E|--------|--------|--------|--------|--------|--------|--------|--------|--------|
B|--------|--------|--------|--------|--------|--------|--------|--------|--------|
G|--------|--------|--------|--------|--------|--------|--------|--------|--------|
D|--------|--------|--------|--------|--------|--------|--------|--------|--------|
A|--------|--------|--------|--------|--------|--------|--------|--------|--------|
E|--------|--------|--------|--------|--------|--------|--------|--------|--------|


E|--------|--------|--------|--------|--------|--------|--------|--------|--------|
B|--------|--------|--------|--------|--------|--------|--------|--------|--------|
G|--------|--------|--------|--------|--------|--------|--------|--------|--------|
D|--------|--------|--------|--------|--------|--------|--------|--------|--------|
A|--------|--------|--------|--------|--------|--------|--------|--------|--------|
E|--------|--------|--------|--------|--------|--------|--------|--------|--------|


E|--------|--------|--------|--------|--------|--------|--------|--------|--------|
B|--------|--------|--------|--------|--------|--------|--------|--------|--------|
G|--------|--------|--------|--------|--------|--------|--------|--------|--------|
D|--------|--------|--------|--------|--------|--------|--------|--------|--------|
A|--------|--------|--------|--------|--------|--------|--------|--------|--------|
E|--------|--------|--------|--------|--------|--------|--------|--------|--------|


E|--------|--------|--------|--------|--------|--------|--------|--------|--------|
B|--------|--------|--------|--------|--------|--------|--------|--------|--------|
G|--------|--------|--------|--------|--------|--------|--------|--------|--------|
D|--------|--------|--------|--------|--------|--------|--------|--------|--------|
A|--------|--------|--------|--------|--------|--------|--------|--------|--------|
E|--------|--------|--------|--------|--------|--------|--------|--------|--------|


E|--------|--------|--------|--------|--------|--------|--------|--------|--------|
B|--------|--------|--------|--------|--------|--------|--------|--------|--------|
G|--------|--------|--------|--------|--------|--------|--------|--------|--------|
D|--------|--------|--------|--------|--------|--------|--------|--------|--------|
A|--------|--------|--------|--------|--------|--------|--------|--------|--------|
E|--------|--------|--------|--------|--------|--------|--------|--------|--------|


E|--------|--------|--------|--------|--------|--------|--------|--------|--------|
B|--------|--------|--------|--------|--------|--------|--------|--------|--------|
G|--------|--------|--------|--------|--------|--------|--------|--------|--------|
D|--------|--------|--------|--------|--------|--------|--------|--------|--------|
A|--------|--------|--------|--------|--------|--------|--------|--------|--------|
E|--------|--------|--------|--------|--------|--------|--------|--------|--------|


E|--------|--------|--------|--------|--------|--------|-12----12-----|----------11--11----11--|
B|--------|--------|--------|--------|--------|--------|-15----15-----|----------14--14----14--|
G|--------|--------|--------|--------|--------|--------|--------------|------------------------|
D|--------|--------|--------|--------|--------|--------|--------------|------------------------|
A|--------|--------|--------|--------|--------|--------|--------------|------------------------|
E|--------|--------|--------|--------|--------|--------|--------------|------------------------|


E|-----------------|-10----10-----|----------9---9-----9---|-----------------|-8-----8------|
B|-----------------|-13----13-----|----------12--12----12--|-----------------|-11----11-----|
G|-----------------|--------------|------------------------|-----------------|--------------|
D|-----------------|--------------|------------------------|-----------------|--------------|
A|-----------------|--------------|------------------------|-----------------|--------------|
E|-----------------|--------------|------------------------|-----------------|--------------|


E|----------7---7-----7---|-----------------|-6-----6------|--------------------|-------------|
B|----------10--10----10--|-----------------|-9-----9------|--------------------|-------------|
G|------------------------|-----------------|--------------|-----3----0---0-----|------0------|
D|------------------------|-----------------|--------------|--------------------|-------------|
A|------------------------|-----------------|--------------|--------------------|-------------|
E|------------------------|-----------------|--------------|--------------------|-------------|


E|-12----12-----|----------11--11----11--|-----------------|-10----10-----|----------9---9-----9---|
B|-15----15-----|----------14--14----14--|-----------------|-13----13-----|----------12--12----12--|
G|--------------|------------------------|-----------------|--------------|------------------------|
D|--------------|------------------------|-----------------|--------------|------------------------|
A|--------------|------------------------|-----------------|--------------|------------------------|
E|--------------|------------------------|-----------------|--------------|------------------------|


E|-----------------|-8-----8------|----------7---7-----7---|-----------------|------------------|
B|-----------------|-11----11-----|----------10--10----10--|-----------------|------------------|
G|-----------------|--------------|------------------------|-----------------|------------------|
D|-----------------|--------------|------------------------|-----------------|------------------|
A|-----------------|--------------|------------------------|-----------------|-8-----7-----5----|
E|-----------------|--------------|------------------------|-----------------|-6-----5-----3----|


E|--------------------|-------------|---------------------|-------12----12--|----------------11--|
B|--------------------|-------------|---------------------|-------15----15--|----------------14--|
G|--------------------|-------------|---------------------|-----------------|--------------------|
D|--------------------|------9------|-7----9---9-----9----|-----------------|--------------------|
A|-----3----2---2-----|------7------|-5----7---7-----7----|-----------------|--------------------|
E|-----1----0---0-----|-------------|------0---0-----0----|-----------------|--------------------|


E|-11----11-----|-----------10----10--|----------------9---|-9-----9------|-----------12----12--|
B|-14----14-----|-----------13----13--|----------------12--|-12----12-----|-----------15----15--|
G|--------------|---------------------|--------------------|--------------|---------------------|
D|--------------|---------------------|--------------------|--------------|---------------------|
A|--------------|---------------------|--------------------|--------------|---------------------|
E|--------------|---------------------|--------------------|--------------|---------------------|


E|----------------11--|-11----11-----|-----------10----10--|----------------9---|-9-----9------|
B|----------------14--|-14----14-----|-----------13----13--|----------------12--|-12----12-----|
G|--------------------|--------------|---------------------|--------------------|--------------|
D|--------------------|--------------|---------------------|--------------------|--------------|
A|--------------------|--------------|---------------------|--------------------|--------------|
E|--------------------|--------------|---------------------|--------------------|--------------|


E|-----------12----12--|----------------11--|-11----11-----|-----------10----10--|
B|-----------15----15--|----------------14--|-14----14-----|-----------13----13--|
G|---------------------|--------------------|--------------|---------------------|
D|---------------------|--------------------|--------------|---------------------|
A|---------------------|--------------------|--------------|---------------------|
E|---------------------|--------------------|--------------|---------------------|


E|----------------9---|-9-----9------|-----------8-----8---|----------------7---|-7-----7------|
B|----------------12--|-12----12-----|-----------11----11--|----------------10--|-10----10-----|
G|--------------------|--------------|---------------------|--------------------|--------------|
D|--------------------|--------------|---------------------|--------------------|--------------|
A|--------------------|--------------|---------------------|--------------------|--------------|
E|--------------------|--------------|---------------------|--------------------|--------------|


E|---------------------|---------------------|-------------|--------------------|-------------|
B|---------------------|---------------------|-------------|--------------------|-------------|
G|---------------------|---------------------|-------------|--------------------|-------------|
D|---------------------|---------------------|--------9----|-------7----9---9---|------9------|
A|-----------8-----7---|------5-----3----2---|-2------7----|-------5----7---7---|------7------|
E|-----------6-----5---|------3-----1----0---|-0-----------|------------0---0---|------0------|


E|-------------|---------------------|-------------|
B|-------------|---------------------|-------------|
G|-------------|---------------------|-------------|
D|-9------9----|-----------9---------|-------------|
A|-7------7----|-----7-----7---------|-------------|
E|-0------0----|-6---5---------------|-------------|





Track 4: Dave Mustaine (Solo)

E|--------|--------|--------|--------|--------|--------|--------|--------|--------|
B|--------|--------|--------|--------|--------|--------|--------|--------|--------|
G|--------|--------|--------|--------|--------|--------|--------|--------|--------|
D|--------|--------|--------|--------|--------|--------|--------|--------|--------|
A|--------|--------|--------|--------|--------|--------|--------|--------|--------|
E|--------|--------|--------|--------|--------|--------|--------|--------|--------|


E|--------|--------|--------|--------|--------|--------|--------|--------|--------|
B|--------|--------|--------|--------|--------|--------|--------|--------|--------|
G|--------|--------|--------|--------|--------|--------|--------|--------|--------|
D|--------|--------|--------|--------|--------|--------|--------|--------|--------|
A|--------|--------|--------|--------|--------|--------|--------|--------|--------|
E|--------|--------|--------|--------|--------|--------|--------|--------|--------|


E|--------|--------|--------|--------|--------|--------|--------|--------|--------|
B|--------|--------|--------|--------|--------|--------|--------|--------|--------|
G|--------|--------|--------|--------|--------|--------|--------|--------|--------|
D|--------|--------|--------|--------|--------|--------|--------|--------|--------|
A|--------|--------|--------|--------|--------|--------|--------|--------|--------|
E|--------|--------|--------|--------|--------|--------|--------|--------|--------|


E|--------|--------|--------|--------|--------|--------|--------|--------|--------|
B|--------|--------|--------|--------|--------|--------|--------|--------|--------|
G|--------|--------|--------|--------|--------|--------|--------|--------|--------|
D|--------|--------|--------|--------|--------|--------|--------|--------|--------|
A|--------|--------|--------|--------|--------|--------|--------|--------|--------|
E|--------|--------|--------|--------|--------|--------|--------|--------|--------|


E|--------|--------|--------|--------|--------|--------|--------|--------|--------|
B|--------|--------|--------|--------|--------|--------|--------|--------|--------|
G|--------|--------|--------|--------|--------|--------|--------|--------|--------|
D|--------|--------|--------|--------|--------|--------|--------|--------|--------|
A|--------|--------|--------|--------|--------|--------|--------|--------|--------|
E|--------|--------|--------|--------|--------|--------|--------|--------|--------|


E|--------|--------|--------|--------|--------|--------|--------|--------|--------|
B|--------|--------|--------|--------|--------|--------|--------|--------|--------|
G|--------|--------|--------|--------|--------|--------|--------|--------|--------|
D|--------|--------|--------|--------|--------|--------|--------|--------|--------|
A|--------|--------|--------|--------|--------|--------|--------|--------|--------|
E|--------|--------|--------|--------|--------|--------|--------|--------|--------|


E|--------|--------|--------|--------|--------|--------|--------|--------|--------|
B|--------|--------|--------|--------|--------|--------|--------|--------|--------|
G|--------|--------|--------|--------|--------|--------|--------|--------|--------|
D|--------|--------|--------|--------|--------|--------|--------|--------|--------|
A|--------|--------|--------|--------|--------|--------|--------|--------|--------|
E|--------|--------|--------|--------|--------|--------|--------|--------|--------|


E|--------|--------|--------|--------|--------|--------|--------|--------|--------|
B|--------|--------|--------|--------|--------|--------|--------|--------|--------|
G|--------|--------|--------|--------|--------|--------|--------|--------|--------|
D|--------|--------|--------|--------|--------|--------|--------|--------|--------|
A|--------|--------|--------|--------|--------|--------|--------|--------|--------|
E|--------|--------|--------|--------|--------|--------|--------|--------|--------|


E|--------|--------|--------|--------|--------|--------|--------|--------|--------|
B|--------|--------|--------|--------|--------|--------|--------|--------|--------|
G|--------|--------|--------|--------|--------|--------|--------|--------|--------|
D|--------|--------|--------|--------|--------|--------|--------|--------|--------|
A|--------|--------|--------|--------|--------|--------|--------|--------|--------|
E|--------|--------|--------|--------|--------|--------|--------|--------|--------|


E|--------|--------|--------|--------|--------|--------|--------|--------|--------|
B|--------|--------|--------|--------|--------|--------|--------|--------|--------|
G|--------|--------|--------|--------|--------|--------|--------|--------|--------|
D|--------|--------|--------|--------|--------|--------|--------|--------|--------|
A|--------|--------|--------|--------|--------|--------|--------|--------|--------|
E|--------|--------|--------|--------|--------|--------|--------|--------|--------|


E|--------|--------|--------|--------|--------|--------|--------|--------|--------|
B|--------|--------|--------|--------|--------|--------|--------|--------|--------|
G|--------|--------|--------|--------|--------|--------|--------|--------|--------|
D|--------|--------|--------|--------|--------|--------|--------|--------|--------|
A|--------|--------|--------|--------|--------|--------|--------|--------|--------|
E|--------|--------|--------|--------|--------|--------|--------|--------|--------|


E|--------|--------|--------|--------|--------|--------|--------|--------|--------|
B|--------|--------|--------|--------|--------|--------|--------|--------|--------|
G|--------|--------|--------|--------|--------|--------|--------|--------|--------|
D|--------|--------|--------|--------|--------|--------|--------|--------|--------|
A|--------|--------|--------|--------|--------|--------|--------|--------|--------|
E|--------|--------|--------|--------|--------|--------|--------|--------|--------|


E|--------|--------|--------|--------|--------|--------|--------|--------|--------|
B|--------|--------|--------|--------|--------|--------|--------|--------|--------|
G|--------|--------|--------|--------|--------|--------|--------|--------|--------|
D|--------|--------|--------|--------|--------|--------|--------|--------|--------|
A|--------|--------|--------|--------|--------|--------|--------|--------|--------|
E|--------|--------|--------|--------|--------|--------|--------|--------|--------|


E|--------|--------|--------|--------|--------|--------|--------|--------|--------|
B|--------|--------|--------|--------|--------|--------|--------|--------|--------|
G|--------|--------|--------|--------|--------|--------|--------|--------|--------|
D|--------|--------|--------|--------|--------|--------|--------|--------|--------|
A|--------|--------|--------|--------|--------|--------|--------|--------|--------|
E|--------|--------|--------|--------|--------|--------|--------|--------|--------|


E|--------|--------|--------|--------|-------------|---------------------|-------------|
B|--------|--------|--------|--------|-------------|---------------------|-------------|
G|--------|--------|--------|--------|-------------|---------------------|-------------|
D|--------|--------|--------|--------|-------------|---------------------|-------------|
A|--------|--------|--------|--------|-------------|---------------------|--------7----|
E|--------|--------|--------|-3------|-------5-----|------6----5---1-----|-0-----------|


E|-------12--------------|----------------|-15--14--13--12------------------|---------------------------------|
B|-----------12----------|----------------|-----------------16--15--14--13--|-----------------16--15--14--13--|
G|---------------12------|----------------|---------------------------------|-16--15--14--13------------------|
D|-------------------12--|----------------|---------------------------------|---------------------------------|
A|-----------------------|-12-------------|---------------------------------|---------------------------------|
E|-----------------------|-----12--12-----|---------------------------------|---------------------------------|


E|---------------------------------|---------------------------------|---------------------------------|
B|---------------------------------|---------------------------------|---------------------------------|
G|-16--15--14--13------------------|-16--15--14--13------------------|---------------------------------|
D|-----------------17--16--15--14--|-----------------17--16--15--14--|-----------------17--16--15--14--|
A|---------------------------------|---------------------------------|-18--17--16--15------------------|
E|---------------------------------|---------------------------------|---------------------------------|


E|---------------------------------|---------------------------------|---------------------------------|
B|---------------------------------|---------------------------------|---------------------------------|
G|---------------------------------|---------------------------------|-----------------------------9---|
D|---------------------------------|---------------------------------|-----9-------9---12--9---12------|
A|-18--17--16--15------------------|-------------10------10--12--10--|-12------12----------------------|
E|-----------------19--18--17--16--|-12--10--12------12--------------|---------------------------------|


E|---------------------------|---------------------------------|---------------------------------|
B|---------------------------|---------------------------------|---------------------------------|
G|-----9---12--10--9---10----|-9---10--9-------9---10--12--10--|-9---10--9-------9---10--9-------|
D|-12------------------------|-------------12------------------|-------------12--------------12--|
A|---------------------------|---------------------------------|---------------------------------|
E|---------------------------|---------------------------------|---------------------------------|


E|---------------------------------|---------------------------------|---------------------------------|
B|---------------------------------|---------------------------------|---------------------------------|
G|-9-------------------------------|---------------------------------|---------------------------------|
D|-----12--12--10--9---10--9-------|-9---10--9-------9---10--12--10--|-9---10--9-------9---------------|
A|-----------------------------12--|-------------12------------------|-------------12------12--10--12--|
E|---------------------------------|---------------------------------|---------------------------------|


E|---------------------------|---------------------------------|---------------------------------|
B|---------------------------|---------------------------------|---------------------------------|
G|---------------------------|---------------------------------|---------------------------------|
D|---------------------------|---------------------------------|---------------------------------|
A|-10------10----------------|---------------------------------|-----12--12--12--15--15--15--14--|
E|-----12------12--10--12----|-12--12--12--15--15--15--14--14--|-14------------------------------|


E|---------------------------------|---------------------------------|---------------------------------|
B|---------------------------------|---------------------------------|---------------------------------|
G|---------------------------------|---------------------------------|---------------------------------|
D|---------------------------------|---------------------------------|---------------------------------|
A|-14--14--12--12--12--------------|---------------------------------|-----------------12--12--12--14--|
E|---------------------15--15--15--|-14--14--14--12--12--12--14--14--|-14--15--15--15------------------|


E|---------------------------|-15-------16-------17---|-----18-------19-------20--|
B|---------------------------|------14-------15-------|-16-------17-------18------|
G|---------------------------|------------------------|---------------------------|
D|---------------------12----|------------------------|---------------------------|
A|-14--14--15--15--15--------|------------------------|---------------------------|
E|---------------------------|------------------------|---------------------------|


E|---------21-------22-------|-22-----|-------22----|--------|-22----------|-------------|
B|-----19-------20-------21--|--------|-------------|--------|-------------|-------------|
G|---------------------------|--------|-------------|--------|-------------|-------------|
D|---------------------------|--------|-------------|--------|-------------|-------------|
A|---------------------------|--------|-------------|--------|-------------|-------------|
E|---------------------------|--------|-------------|--------|-------------|-------------|


E|--------|------------------|-----------------|-------------|------------------|-----------------|
B|--------|------------------|-----------------|-------------|------------------|-----------------|
G|--------|------------------|-----------------|-------------|------------------|-----------------|
D|--------|-10---------------|-----------------|-------------|-10---------------|-----------------|
A|--------|-8-----10----9----|-----5-----2-----|------2------|-8-----10----9----|-----5-----------|
E|--------|-------8-----7----|-----3-----0-----|------0------|-------8-----7----|-----3-----------|


E|--------|--------|--------|--------|--------|--------|--------|--------|--------|
B|--------|--------|--------|--------|--------|--------|--------|--------|--------|
G|--------|--------|--------|--------|--------|--------|--------|--------|--------|
D|--------|--------|--------|--------|--------|--------|--------|--------|--------|
A|--------|--------|--------|--------|--------|--------|--------|--------|--------|
E|--------|--------|--------|--------|--------|--------|--------|--------|--------|


E|--------|--------|--------|--------|--------|--------|--------|--------|--------|
B|--------|--------|--------|--------|--------|--------|--------|--------|--------|
G|--------|--------|--------|--------|--------|--------|--------|--------|--------|
D|--------|--------|--------|--------|--------|--------|--------|--------|--------|
A|--------|--------|--------|--------|--------|--------|--------|--------|--------|
E|--------|--------|--------|--------|--------|--------|--------|--------|--------|


E|--------|--------|--------|--------|--------|--------|--------|--------|--------|
B|--------|--------|--------|--------|--------|--------|--------|--------|--------|
G|--------|--------|--------|--------|--------|--------|--------|--------|--------|
D|--------|--------|--------|--------|--------|--------|--------|--------|--------|
A|--------|--------|--------|--------|--------|--------|--------|--------|--------|
E|--------|--------|--------|--------|--------|--------|--------|--------|--------|


E|--------|--------|--------|--------|--------|--------|--------|--------|--------|
B|--------|--------|--------|--------|--------|--------|--------|--------|--------|
G|--------|--------|--------|--------|--------|--------|--------|--------|--------|
D|--------|--------|--------|--------|--------|--------|--------|--------|--------|
A|--------|--------|--------|--------|--------|--------|--------|--------|--------|
E|--------|--------|--------|--------|--------|--------|--------|--------|--------|


E|--------|--------|--------|--------|--------|--------|--------|--------|--------|
B|--------|--------|--------|--------|--------|--------|--------|--------|--------|
G|--------|--------|--------|--------|--------|--------|--------|--------|--------|
D|--------|--------|--------|--------|--------|--------|--------|--------|--------|
A|--------|--------|--------|--------|--------|--------|--------|--------|--------|
E|--------|--------|--------|--------|--------|--------|--------|--------|--------|


E|--------|--------|--------|--------|--------|--------|--------|--------|--------|
B|--------|--------|--------|--------|--------|--------|--------|--------|--------|
G|--------|--------|--------|--------|--------|--------|--------|--------|--------|
D|--------|--------|--------|--------|--------|--------|--------|--------|--------|
A|--------|--------|--------|--------|--------|--------|--------|--------|--------|
E|--------|--------|--------|--------|--------|--------|--------|--------|--------|


E|--------|--------|--------|--------|--------|--------|--------|--------|--------|
B|--------|--------|--------|--------|--------|--------|--------|--------|--------|
G|--------|--------|--------|--------|--------|--------|--------|--------|--------|
D|--------|--------|--------|--------|--------|--------|--------|--------|--------|
A|--------|--------|--------|--------|--------|--------|--------|--------|--------|
E|--------|--------|--------|--------|--------|--------|--------|--------|--------|


E|--------|--------|--------|--------|--------|--------|--------|--------|--------|
B|--------|--------|--------|--------|--------|--------|--------|--------|--------|
G|--------|--------|--------|--------|--------|--------|--------|--------|--------|
D|--------|--------|--------|--------|--------|--------|--------|--------|--------|
A|--------|--------|--------|--------|--------|--------|--------|--------|--------|
E|--------|--------|--------|--------|--------|--------|--------|--------|--------|


E|--------|--------|--------|--------|--------|--------|--------|--------|--------|
B|--------|--------|--------|--------|--------|--------|--------|--------|--------|
G|--------|--------|--------|--------|--------|--------|--------|--------|--------|
D|--------|--------|--------|--------|--------|--------|--------|--------|--------|
A|--------|--------|--------|--------|--------|--------|--------|--------|--------|
E|--------|--------|--------|--------|--------|--------|--------|--------|--------|


E|--------|--------|--------|--------|--------|--------|--------|--------|--------|
B|--------|--------|--------|--------|--------|--------|--------|--------|--------|
G|--------|--------|--------|--------|--------|--------|--------|--------|--------|
D|--------|--------|--------|--------|--------|--------|--------|--------|--------|
A|--------|--------|--------|--------|--------|--------|--------|--------|--------|
E|--------|--------|--------|--------|--------|--------|--------|--------|--------|


E|--------|--------|--------|--------|--------|--------|--------|--------|--------|
B|--------|--------|--------|--------|--------|--------|--------|--------|--------|
G|--------|--------|--------|--------|--------|--------|--------|--------|--------|
D|--------|--------|--------|--------|--------|--------|--------|--------|--------|
A|--------|--------|--------|--------|--------|--------|--------|--------|--------|
E|--------|--------|--------|--------|--------|--------|--------|--------|--------|


E|--------|
B|--------|
G|--------|
D|--------|
A|--------|
E|--------|





Track 5: Dave Ellefson

G|--------|---------------------|-----------------------|---------------------|---------------------|
D|--------|---------------------|-----------------------|---------------------|---------------------|
A|--------|---------------------|-----------------------|---------------------|-------5-------------|
E|--------|-0-----2---3-----7---|-6-----3---2-----2--3--|-0-----2---3-----7---|-6---------7-----3---|


G|---------------------|-----------------------|-------------|-------------------|
D|---------------------|-----------------------|-------------|-------------------|
A|---------------------|-----------------------|-------------|-------------------|
E|-0-----2---3-----7---|-6-----3---2-----2--3--|-0-----0-----|-0------0---6--5---|


G|------------------|-------------|---------------------|------------------|-------------|
D|------------------|-------------|---------------------|------------------|-------------|
A|------------------|-------------|---------------------|------------------|-------------|
E|-0----------------|-------------|-----------6---5-----|-0----------------|-------------|


G|---------------------|------------------|-------------|---------------------|------------------|
D|---------------------|------------------|-------------|---------------------|------------------|
A|---------------------|------------------|-------------|---------------------|------------------|
E|-----------6---5-----|-0----------------|-------------|-----------6---5-----|-0----------------|


G|-------------|---------------------|------------------|-------------|---------------------|
D|-------------|---------------------|------------------|-------------|---------------------|
A|-------------|---------------------|------------------|-------------|---------------------|
E|-------------|-----------6---5-----|-0----------------|-------------|-----------6---5-----|


G|------------------|-------------|---------------------|------------------|-------------|
D|------------------|-------------|---------------------|------------------|-------------|
A|------------------|-------------|---------------------|------------------|-------------|
E|-0----------------|-------------|-----------6---5-----|-0----------------|-------------|


G|---------------------|------------------|-------------|--------|------------------|
D|---------------------|------------------|-------------|--------|------------------|
A|---------------------|------------------|-------------|--------|------------------|
E|-----------6---5-----|-0----------------|-------------|--------|-0-----3-----5----|


G|------------------------|---------------------|------------------|------------------------|
D|------------------------|---------------------|------------------|------------------------|
A|------------------------|---------------------|------------------|------------------------|
E|-0---3----6---6-----5---|------0----6---5-----|-0-----3-----5----|-0---3----6---6-----5---|


G|---------------------|------------------|------------------------|---------------------|
D|---------------------|------------------|------------------------|---------------------|
A|---------------------|------------------|------------------------|---------------------|
E|------3----0---1-----|-0-----3-----5----|-0---3----6---6-----5---|------0----6---5-----|


G|------------------|--------------------|-------------|------------------|------------------------|
D|------------------|--------------------|-------------|------------------|------------------------|
A|------------------|--------------------|-------------|------------------|------------------------|
E|-0-----3-----6----|-0---1----0---0-----|------0------|-0-----3-----5----|-0---3----6---6-----5---|


G|---------------------|------------------|------------------------|---------------------|
D|---------------------|------------------|------------------------|---------------------|
A|---------------------|------------------|------------------------|---------------------|
E|------0----6---5-----|-0-----3-----5----|-0---3----6---6-----5---|------3----0---1-----|


G|------------------|------------------------|---------------------|------------------|
D|------------------|------------------------|---------------------|------------------|
A|------------------|------------------------|---------------------|------------------|
E|-0-----3-----5----|-0---3----6---6-----5---|------0----6---5-----|-6-----5-----3----|


G|--------------------|-------------|---------------------|-------------|---------------------|
D|--------------------|-------------|---------------------|-------------|---------------------|
A|--------------------|------7------|-5----7---7-----7----|-------7-----|------7--------------|
E|-----1----0---0-----|-------------|---------------------|-------------|-----------6---5-----|


G|------------------|-------------|---------------------|------------------|-------------|
D|------------------|-------------|---------------------|------------------|-------------|
A|------------------|-------------|---------------------|------------------|-------------|
E|-0----------------|-------------|-----------6---5-----|-0----------------|-------------|


G|---------------------|------------------|-------------|---------------------|------------------|
D|---------------------|------------------|-------------|---------------------|------------------|
A|---------------------|------------------|-------------|---------------------|------------------|
E|-----------6---5-----|-0----------------|-------------|-----------6---5-----|-0----------------|


G|-------------|---------------------|------------------|-------------|---------------------|
D|-------------|---------------------|------------------|-------------|---------------------|
A|-------------|---------------------|------------------|-------------|---------------------|
E|-------------|-----------6---5-----|-0----------------|-------------|-----------6---5-----|


G|------------------|-------------|---------------------|------------------|-------------|
D|------------------|-------------|---------------------|------------------|-------------|
A|------------------|-------------|---------------------|------------------|-------------|
E|-0----------------|-------------|-----------6---5-----|-0----------------|-------------|


G|---------------------|------------------|-------------|--------|------------------|
D|---------------------|------------------|-------------|--------|------------------|
A|---------------------|------------------|-------------|--------|------------------|
E|-----------6---5-----|-0----------------|-------------|--------|-0-----3-----5----|


G|------------------------|---------------------|------------------|------------------------|
D|------------------------|---------------------|------------------|------------------------|
A|------------------------|---------------------|------------------|------------------------|
E|-0---3----6---6-----5---|------0----6---5-----|-0-----3-----5----|-0---3----6---6-----5---|


G|---------------------|------------------|------------------------|---------------------|
D|---------------------|------------------|------------------------|---------------------|
A|---------------------|------------------|------------------------|---------------------|
E|------3----0---1-----|-0-----3-----5----|-0---3----6---6-----5---|------0----6---5-----|


G|------------------|--------------------|-------------|------------------|------------------------|
D|------------------|--------------------|-------------|------------------|------------------------|
A|------------------|--------------------|-------------|------------------|------------------------|
E|-0-----3-----6----|-0---1----0---0-----|------0------|-0-----3-----5----|-0---3----6---6-----5---|


G|---------------------|------------------|------------------------|---------------------|
D|---------------------|------------------|------------------------|---------------------|
A|---------------------|------------------|------------------------|---------------------|
E|------0----6---5-----|-0-----3-----5----|-0---3----6---6-----5---|------3----0---1-----|


G|------------------|------------------------|---------------------|------------------|
D|------------------|------------------------|---------------------|------------------|
A|------------------|------------------------|---------------------|------------------|
E|-0-----3-----5----|-0---3----6---6-----5---|------0----6---5-----|-6-----5-----3----|


G|--------------------|-------------|---------------------|-------------|--------|
D|--------------------|-------------|---------------------|-------------|--------|
A|--------------------|------7------|-5----7---7-----7----|-------7-----|--------|
E|-----1----0---0-----|-------------|---------------------|-------------|--------|


G|------------------------------|------------------------------|------------------------|
D|------------------------------|------------------------------|------------------------|
A|------------------------------|------------------------------|------------------------|
E|-0---0---0---0---0---0---0----|-----0---0---0---0--------0---|-0---0---0----6---5-----|


G|------------------------------|------------------------------|------------------------|
D|------------------------------|------------------------------|------------------------|
A|------------------------------|------------------------------|------------------------|
E|-0---0---0---0---0---0---0----|-----0---0---0---0--------0---|-0---0---0----6---5-----|


G|------------------------------|---------------------------------|------------------------|
D|------------------------------|---------------------------------|------------------------|
A|------------------------------|---------------------------------|------------------------|
E|-3---3---3---3---3---3---3----|-----3---3---3---5---5---5---5---|-5---5---6----5---1-----|


G|------------------------------|------------------------------|------------------------|
D|------------------------------|------------------------------|------------------------|
A|------------------------------|------------------------------|------------------------|
E|-0---0---0---0---0---0---0----|-----0---0---0---0--------0---|-0---0---0----6---5-----|


G|------------------------------|------------------------------|------------------------|
D|------------------------------|------------------------------|------------------------|
A|------------------------------|------------------------------|------------------------|
E|-0---0---0---0---0---0---0----|-----0---0---0---0--------0---|-0---0---0----6---5-----|


G|------------------------------|------------------------------|------------------------|
D|------------------------------|------------------------------|------------------------|
A|------------------------------|------------------------------|------------------------|
E|-0---0---0---0---0---0---0----|-----0---0---0---0--------0---|-0---0---0----6---5-----|


G|------------------------------|---------------------------------|------------------------|
D|------------------------------|---------------------------------|------------------------|
A|------------------------------|---------------------------------|------------------------|
E|-3---3---3---3---3---3---3----|-----3---3---3---5---5---5---5---|-5---5---6----5---1-----|


G|------------------------------|------------------------------|------------------------|
D|------------------------------|------------------------------|------------------------|
A|------------------------------|------------------------------|------------------------|
E|-0---0---0---0---0---0---0----|-----0---0---0---0--------0---|-0---0---0----6---5-----|


G|------------------------------|------------------------------|------------------------|
D|------------------------------|------------------------------|------------------------|
A|------------------------------|------------------------------|------------------------|
E|-0---0---0---0---0---0---0----|-----0---0---0---0--------0---|-0---0---0----6---5-----|


G|------------------------------|------------------------------|------------------------|
D|------------------------------|------------------------------|------------------------|
A|------------------------------|------------------------------|------------------------|
E|-0---0---0---0---0---0---0----|-----0---0---0---0--------0---|-0---0---0----6---5-----|


G|------------------------------|---------------------------------|------------------------|
D|------------------------------|---------------------------------|------------------------|
A|------------------------------|---------------------------------|------------------------|
E|-3---3---3---3---3---3---3----|-----3---3---3---5---5---5---5---|-5---5---6----5---1-----|


G|------------------------------|------------------------------|------------------------|
D|------------------------------|------------------------------|------------------------|
A|------------------------------|------------------------------|------------------------|
E|-0---0---0---0---0---0---0----|-----0---0---0---0--------0---|-0---0---0----6---5-----|


G|------------------------------|------------------------------|------------------------|
D|------------------------------|------------------------------|------------------------|
A|------------------------------|------------------------------|------------------------|
E|-0---0---0---0---0---0---0----|-----0---0---0---0--------0---|-0---0---0----6---5-----|


G|------------------------------|------------------------------|------------------------|
D|------------------------------|------------------------------|------------------------|
A|------------------------------|------------------------------|------------------------|
E|-0---0---0---0---0---0---0----|-----0---0---0---0--------0---|-0---0---0----6---5-----|


G|------------------------------|---------------------------------|------------------------|
D|------------------------------|---------------------------------|------------------------|
A|------------------------------|---------------------------------|------------------------|
E|-3---3---3---3---3---3---3----|-----3---3---3---5---5---5---5---|-5---5---6----5---1-----|


G|------------------------------|------------------------------|------------------------|
D|------------------------------|------------------------------|------------------------|
A|------------------------------|------------------------------|------------------------|
E|-0---0---0---0---0---0---0----|-----0---0---0---0--------0---|-0---0---0----6---5-----|


G|------------------|-----------------|-------------|------------------|-----------------|
D|------------------|-----------------|-------------|------------------|-----------------|
A|-8----------------|-----------------|-------------|-8----------------|-----------------|
E|-------8-----7----|-----3-----0-----|------0------|-------8-----7----|-----3-----0-----|


G|-------------|------------------|-----------------|-------------|------------------|
D|-------------|------------------|-----------------|-------------|------------------|
A|-------------|-8----------------|-----------------|-------------|-8----------------|
E|------0------|-------8-----7----|-----3-----0-----|------0------|-------8-----7----|


G|-----------------|-------------|-----------------------------------|-------------------------------------------------|
D|-----------------|-------------|-----------------------------------|-------------------------------------------------|
A|-----------------|-------------|-----------5-----------4-----------|-3-----------2-----------1-----------0-----------|
E|-----3-----0-----|-0-----1-----|-1-----2------0--2--3-----0--2--3--|----0--2--3-----0--2--3-----0--2--3-----0--2--3--|


G|-------------------------------------------------|-------------------------------------------------|
D|-------------------------------------------------|-------------------------------------------------|
A|-------------------------5-----------4-----------|-3-----------2-----------1-----------0-----------|
E|-4--3--2--1--0--1--2--3-----0--2--3-----0--2--3--|----0--2--3-----0--2--3-----0--2--3-----0--2--3--|


G|-------------------------------------------------|-------------------------------------------------|
D|-------------------------------------------------|-------------------------------------------------|
A|-------------------------5-----------4-----------|-3-----------2-----------1-----------0-----------|
E|-4--3--2--1--0--1--2--3-----0--2--3-----0--2--3--|----0--2--3-----0--2--3-----0--2--3-----0--2--3--|


G|-------------------------------------------------|-------------------------------------------------|
D|-------------------------------------------------|-------------------------------------------------|
A|-------------------------5-----------4-----------|-3-----------2-----------1-----------0-----------|
E|-4--3--2--1--0--1--2--3-----0--2--3-----0--2--3--|----0--2--3-----0--2--3-----0--2--3-----0--2--3--|


G|-------------------------------------------------|--------|-------------|--------|
D|-------------------------5--4--3--2--------------|--------|-------------|--------|
A|-------------------------------------------------|--------|-------------|--------|
E|-4--3--2--1--0--1--2--3--------------4--3--2--1--|-0------|-------0-----|--------|


G|--------|-------------|--------|--------|-------------|--------|--------|-------------|
D|--------|-------------|--------|--------|-------------|--------|--------|-------------|
A|--------|-------------|--------|--------|-------------|--------|--------|-------------|
E|-0------|-------0-----|--------|-0------|-------0-----|--------|-0------|-------0-----|


G|-----------------|------------------|-------------|---------------------|------------------|
D|-----------------|------------------|-------------|---------------------|------------------|
A|-----------------|------------------|-------------|---------------------|------------------|
E|-------6---5-----|-0----------------|-------------|-----------6---5-----|-0----------------|


G|-------------|---------------------|------------------|-------------|---------------------|
D|-------------|---------------------|------------------|-------------|---------------------|
A|-------------|---------------------|------------------|-------------|---------------------|
E|-------------|-----------6---5-----|-0----------------|-------------|-----------6---5-----|


G|------------------|-------------|---------------------|------------------|-------------|
D|------------------|-------------|---------------------|------------------|-------------|
A|------------------|-------------|---------------------|------------------|-------------|
E|-0----------------|-------------|-----------6---5-----|-0----------------|-------------|


G|---------------------|------------------|-------------|---------------------|------------------|
D|---------------------|------------------|-------------|---------------------|------------------|
A|---------------------|------------------|-------------|---------------------|------------------|
E|-----------6---5-----|-0----------------|-------------|-----------6---5-----|-0----------------|


G|-------------|---------------------|------------------|-------------|--------|------------------|
D|-------------|---------------------|------------------|-------------|--------|------------------|
A|-------------|---------------------|------------------|-------------|--------|------------------|
E|-------------|-----------6---5-----|-0----------------|-------------|--------|-0-----3-----5----|


G|------------------------|---------------------|------------------|------------------------|
D|------------------------|---------------------|------------------|------------------------|
A|------------------------|---------------------|------------------|------------------------|
E|-0---3----6---6-----5---|------0----6---5-----|-0-----3-----5----|-0---3----6---6-----5---|


G|---------------------|------------------|------------------------|---------------------|
D|---------------------|------------------|------------------------|---------------------|
A|---------------------|------------------|------------------------|---------------------|
E|------3----0---1-----|-0-----3-----5----|-0---3----6---6-----5---|------0----6---5-----|


G|------------------|--------------------|-------------|------------------|------------------------|
D|------------------|--------------------|-------------|------------------|------------------------|
A|------------------|--------------------|-------------|------------------|------------------------|
E|-0-----3-----6----|-0---1----0---0-----|------0------|-0-----3-----5----|-0---3----6---6-----5---|


G|---------------------|------------------|------------------------|---------------------|
D|---------------------|------------------|------------------------|---------------------|
A|---------------------|------------------|------------------------|---------------------|
E|------0----6---5-----|-0-----3-----5----|-0---3----6---6-----5---|------3----0---1-----|


G|------------------|------------------------|---------------------|------------------|
D|------------------|------------------------|---------------------|------------------|
A|------------------|------------------------|---------------------|------------------|
E|-0-----3-----5----|-0---3----6---6-----5---|------0----6---5-----|-6-----5-----3----|


G|--------------------|-------------|---------------------|-----------------------|
D|--------------------|-------------|---------------------|-----------------------|
A|--------------------|------7------|-5----7---7-----7----|-----------------------|
E|-----1----0---0-----|-------------|---------------------|-------0---0---0---3---|


G|---------------------------------|---------------------------------|---------------------------------|
D|---------------------------------|---------------------------------|---------------------------------|
A|---------------------------------|---------------------------------|---------------------------------|
E|-3---3---5---5---5---3---3---3---|-6---6---6---5---5---5---3---3---|-3---5---5---5---0---0---0---3---|


G|---------------------------------|---------------------------------|---------------------------------|
D|---------------------------------|---------------------------------|---------------------------------|
A|---------------------------------|---------------------------------|---------------------------------|
E|-3---3---5---5---5---3---3---3---|-6---6---6---5---5---5---3---3---|-3---1---1---1---0---0---0---3---|


G|---------------------------------|---------------------------------|---------------------------------|
D|---------------------------------|---------------------------------|---------------------------------|
A|---------------------------------|---------------------------------|---------------------------------|
E|-3---3---5---5---5---3---3---3---|-6---6---6---5---5---5---3---3---|-3---5---5---5---0---0---0---3---|


G|---------------------------------|---------------------------------|---------------------------------|
D|---------------------------------|---------------------------------|---------------------------------|
A|---------------------------------|---------------------------------|---------------------------------|
E|-3---3---5---5---5---3---3---3---|-6---6---6---5---5---5---3---3---|-3---1---1---1---0---0---0---3---|


G|---------------------------------|---------------------------------|---------------------------------|
D|---------------------------------|---------------------------------|---------------------------------|
A|---------------------------------|---------------------------------|---------------------------------|
E|-3---3---5---5---5---3---3---3---|-6---6---6---5---5---5---3---3---|-3---5---5---5---0---0---0---3---|


G|---------------------------------|---------------------------------|---------------------------------|
D|---------------------------------|---------------------------------|---------------------------------|
A|---------------------------------|---------------------------------|---------------------------------|
E|-3---3---5---5---5---3---3---3---|-6---6---6---5---5---5---3---3---|-3---1---1---1---0---0---0---3---|


G|---------------------------------|---------------------------------|---------------------------|
D|---------------------------------|---------------------------------|---------------------------|
A|---------------------------------|---------------------------------|---------------------------|
E|-3---3---5---5---5---3---3---3---|-6---6---6---5---5---5---3---3---|-3---5---5---5---6-----5---|


G|---------------------|-------------|--------------------|-------------|-------------|
D|---------------------|-------------|--------------------|-------------|-------------|
A|---------------------|--------7----|-------5----7---7---|------7------|-7------7----|
E|------3-----1----0---|-0-----------|--------------------|-------------|-------------|


G|---------------------|-------------|
D|---------------------|-------------|
A|---------------------|-------------|
E|-6---5-----0---------|-------------|