Menu:

 

Search:

 

megadeth - something im not:

 



Title: Something I'm Not
Artist: 
Album: The System Has Failed
Author: Dave Mustaine


Track 1: Dave Mustaine Rhythm

E|----------------------------------------|----------------------------------------|
B|----------------------------------------|----------------------------------------|
G|----------------------------------------|----------------------------------------|
D|-----------4-----------------4----------|-----------4-----------------4----------|
A|----------------------------------------|----------------------------------------|
E|-2---2--2-----2--2--2--0--2-----2-------|-2---2--2-----2--2--2--0--2-----2-------|


E|----------------------------------------|----------------------------------------|
B|----------------------------------------|----------------------------------------|
G|----------------------------------------|----------------------------------------|
D|-----------4-----------------4----------|-----------4-----------------4----------|
A|----------------------------------------|----------------------------------------|
E|-2---2--2-----2--2--2--0--2-----2-------|-2---2--2-----2--2--2--0--2-----2-------|


E|----------------------------------------|----------------------------------------|
B|----------------------------------------|----------------------------------------|
G|----------------------------------------|----------------------------------------|
D|-----------4-----------------4----------|-----------4-----------------4----------|
A|----------------------------------------|----------------------------------------|
E|-2---2--2-----2--2--2--0--2-----2-------|-2---2--2-----2--2--2--0--2-----2-------|


E|----------------------------------------|---------------------------------------------|
B|----------------------------------------|---------------------------------------------|
G|----------------------------------------|---------------------------------------------|
D|-----------4-----------------4----------|-----------4-----------------4---------------|
A|----------------------------------------|---------------------------------------------|
E|-2---2--2-----2--2--2--0--2-----2-------|-2---2--2-----2--2--2--0--2-----2------2--2--|


E|----------------------------------------|----------------------------------------|
B|----------------------------------------|----------------------------------------|
G|----------------------------------------|----------------------------------------|
D|-----------4-----------------4----------|-----------4-----------------4----------|
A|----------------------------------------|----------------------------------------|
E|-2---2--2-----2--2--2--0--2-----2-------|-2---2--2-----2--2--2--0--2-----2-------|


E|----------------------------------------|----------------------------------------|
B|----------------------------------------|----------------------------------------|
G|----------------------------------------|----------------------------------------|
D|-----------4-----------------4----------|-----------4-----------------4----------|
A|----------------------------------------|----------------------------------------|
E|-2---2--2-----2--2--2--0--2-----2-------|-2---2--2-----2--2--2--0--2-----2-------|


E|----------------------------------------|---------------------------------------------|
B|----------------------------------------|---------------------------------------------|
G|----------------------------------------|---------------------------------------------|
D|-----------4-----------------4----------|-----------4-----------------4---------------|
A|----------------------------------------|---------------------------------------------|
E|-2---2--2-----2--2--2--0--2-----2-------|-2---2--2-----2--2--2--0--2-----2------2--2--|


E|----------------------------------------|----------------------------------------|
B|----------------------------------------|----------------------------------------|
G|----------------------------------------|----------------------------------------|
D|-----------4-----------------4----------|-----------4-----------------4----------|
A|----------------------------------------|----------------------------------------|
E|-2---2--2-----2--2--2--0--2-----2-------|-2---2--2-----2--2--2--0--2-----2-------|


E|----------------------------------------|----------------------------------------|
B|----------------------------------------|----------------------------------------|
G|----------------------------------------|----------------------------------------|
D|-----------4-----------------4----------|-----------4-----------------4----------|
A|----------------------------------------|----------------------------------------|
E|-2---2--2-----2--2--2--0--2-----2-------|-2---2--2-----2--2--2--0--2-----2-------|


E|--------------------------------------------|-----------------------------------------|
B|--------------------------------------------|-----------------------------------------|
G|--------------------------------------------|-----------------------------------------|
D|--------------------------------------------|-----------------------------------------|
A|--------------------------------------------|-----------------------------3--4--3-----|
E|-0--2---0--2---0--2---0--2---2--2--5--2--0--|-3--5---3--5---3--5---3--5------------5--|


E|-----------------------------------------|-----------------------------------------|
B|-----------------------------------------|-----------------------------------------|
G|-----------------------------------------|-----------------------------------------|
D|-----------------------------------------|-----------------------------5--6--5-----|
A|-----------------------------5--6--5-----|-3--5---3--5---5--7---5--7------------7--|
E|-5--7---5--7---5--7---5--7------------7--|-----------------------------------------|


E|--------------------------------------------------|--------------------------------------------------|
B|--------------------------------------------------|--------------------------------------------------|
G|--------------------------------------------------|--------------------------------------------------|
D|-----4--2-----4--2-----4--2-----4--2-----4--2--0--|-----4--2-----4--2-----4--2-----4--2-----4--2--0--|
A|--------------------------------------------------|-0---------0--------0--------0--------0-----------|
E|-2---------2--------2--------2--------2-----------|--------------------------------------------------|


E|--------------------------------------------------|--------------------------------------------------|
B|--------------------------------------------------|--------------------------------------------------|
G|--------------------------------------------------|--------------------------------------------------|
D|-----4--2-----4--2-----4--2-----4--2-----4--2--0--|-----4--2-----4--2-----4--2-----4--2-----4--2--0--|
A|--------------------------------------------------|-0---------0--------0--------0--------0-----------|
E|-2---------2--------2--------2--------2-----------|--------------------------------------------------|


E|--------------------------------------------------|--------------------------------------------------|
B|--------------------------------------------------|--------------------------------------------------|
G|--------------------------------------------------|--------------------------------------------------|
D|-----4--2-----4--2-----4--2-----4--2-----4--2--0--|-----4--2-----4--2-----4--2-----4--2-----4--2--0--|
A|--------------------------------------------------|-0---------0--------0--------0--------0-----------|
E|-2---------2--------2--------2--------2-----------|--------------------------------------------------|


E|---------------------------------------------|----------------------------------------|
B|---------------------------------------------|----------------------------------------|
G|---------------------------------------------|----------------------------------------|
D|-----4--2-----4--2---------4--2-----4--2-----|-----------4-----------------4----------|
A|---------------------------------------------|----------------------------------------|
E|-4---------4--------4--3---------3--------3--|-2---2--2-----2--2--2--0--2-----2-------|


E|---------------------------------------------|----------------------------------------|
B|---------------------------------------------|----------------------------------------|
G|---------------------------------------------|----------------------------------------|
D|-----------4-----------------4---------------|-----------4-----------------4----------|
A|---------------------------------------------|----------------------------------------|
E|-2---2--2-----2--2--2--0--2-----2------2--2--|-2---2--2-----2--2--2--0--2-----2-------|


E|----------------------------------------|----------------------------------------|
B|----------------------------------------|----------------------------------------|
G|----------------------------------------|----------------------------------------|
D|-----------4-----------------4----------|-----------4-----------------4----------|
A|----------------------------------------|----------------------------------------|
E|-2---2--2-----2--2--2--0--2-----2-------|-2---2--2-----2--2--2--0--2-----2-------|


E|---------------------------------------------|----------------------------------------|
B|---------------------------------------------|----------------------------------------|
G|---------------------------------------------|----------------------------------------|
D|-----------4-----------------4---------------|-----------4-----------------4----------|
A|---------------------------------------------|----------------------------------------|
E|-2---2--2-----2--2--2--0--2-----2------2--2--|-2---2--2-----2--2--2--0--2-----2-------|


E|----------------------------------------|----------------------------------------|
B|----------------------------------------|----------------------------------------|
G|----------------------------------------|----------------------------------------|
D|-----------4-----------------4----------|-----------4-----------------4----------|
A|----------------------------------------|----------------------------------------|
E|-2---2--2-----2--2--2--0--2-----2-------|-2---2--2-----2--2--2--0--2-----2-------|


E|---------------------------------------------|----------------------------------------|
B|---------------------------------------------|----------------------------------------|
G|---------------------------------------------|----------------------------------------|
D|-----------4-----------------4---------------|-----------4-----------------4----------|
A|---------------------------------------------|----------------------------------------|
E|-2---2--2-----2--2--2--0--2-----2------2--2--|-2---2--2-----2--2--2--0--2-----2-------|


E|----------------------------------------|----------------------------------------|
B|----------------------------------------|----------------------------------------|
G|----------------------------------------|----------------------------------------|
D|-----------4-----------------4----------|-----------4-----------------4----------|
A|----------------------------------------|----------------------------------------|
E|-2---2--2-----2--2--2--0--2-----2-------|-2---2--2-----2--2--2--0--2-----2-------|


E|---------------------------------------------|----------------------------------------|
B|---------------------------------------------|----------------------------------------|
G|---------------------------------------------|----------------------------------------|
D|-----------4-----------------4---------------|-----------4-----------------4----------|
A|---------------------------------------------|----------------------------------------|
E|-2---2--2-----2--2--2--0--2-----2------2--2--|-2---2--2-----2--2--2--0--2-----2-------|


E|----------------------------------------|----------------------------------------|
B|----------------------------------------|----------------------------------------|
G|----------------------------------------|----------------------------------------|
D|-----------4-----------------4----------|-----------4-----------------4----------|
A|----------------------------------------|----------------------------------------|
E|-2---2--2-----2--2--2--0--2-----2-------|-2---2--2-----2--2--2--0--2-----2-------|


E|---------------------------------------------|--------------------------------------------|
B|---------------------------------------------|--------------------------------------------|
G|---------------------------------------------|--------------------------------------------|
D|-----------4-----------------4---------------|--------------------------------------------|
A|---------------------------------------------|--------------------------------------------|
E|-2---2--2-----2--2--2--0--2-----2------2--2--|-0--2---0--2---0--2---0--2---2--2--5--2--0--|


E|-----------------------------------------|-----------------------------------------|
B|-----------------------------------------|-----------------------------------------|
G|-----------------------------------------|-----------------------------------------|
D|-----------------------------------------|-----------------------------------------|
A|-----------------------------3--4--3-----|-----------------------------5--6--5-----|
E|-3--5---3--5---3--5---3--5------------5--|-5--7---5--7---5--7---5--7------------7--|


E|-----------------------------------------|--------------------------------------------------|
B|-----------------------------------------|--------------------------------------------------|
G|-----------------------------------------|--------------------------------------------------|
D|-----------------------------5--6--5-----|-----4--2-----4--2-----4--2-----4--2-----4--2--0--|
A|-3--5---3--5---5--7---5--7------------7--|--------------------------------------------------|
E|-----------------------------------------|-2---------2--------2--------2--------2-----------|


E|--------------------------------------------------|--------------------------------------------------|
B|--------------------------------------------------|--------------------------------------------------|
G|--------------------------------------------------|--------------------------------------------------|
D|-----4--2-----4--2-----4--2-----4--2-----4--2--0--|-----4--2-----4--2-----4--2-----4--2-----4--2--0--|
A|-0---------0--------0--------0--------0-----------|--------------------------------------------------|
E|--------------------------------------------------|-2---------2--------2--------2--------2-----------|


E|--------------------------------------------------|--------------------------------------------------|
B|--------------------------------------------------|--------------------------------------------------|
G|--------------------------------------------------|--------------------------------------------------|
D|-----4--2-----4--2-----4--2-----4--2-----4--2--0--|-----4--2-----4--2-----4--2-----4--2-----4--2--0--|
A|-0---------0--------0--------0--------0-----------|--------------------------------------------------|
E|--------------------------------------------------|-2---------2--------2--------2--------2-----------|


E|--------------------------------------------------|---------------------------------------------|
B|--------------------------------------------------|---------------------------------------------|
G|--------------------------------------------------|---------------------------------------------|
D|-----4--2-----4--2-----4--2-----4--2-----4--2--0--|-----4--2-----4--2---------4--2-----4--2-----|
A|-0---------0--------0--------0--------0-----------|---------------------------------------------|
E|--------------------------------------------------|-4---------4--------4--3---------3--------3--|


E|----------------------------------------|--------------------------------------------------|
B|----------------------------------------|--------------------------------------------------|
G|----------------------------------------|--------------------------------------------------|
D|-----------4-----------------4----------|-----4--2-----4--2-----4--2-----4--2-----4--2--0--|
A|----------------------------------------|--------------------------------------------------|
E|-2---2--2-----2--2--2--0--2-----2-------|-2---------2--------2--------2--------2-----------|


E|--------------------------------------------------|--------------------------------------------------|
B|--------------------------------------------------|--------------------------------------------------|
G|--------------------------------------------------|--------------------------------------------------|
D|-----4--2-----4--2-----4--2-----4--2-----4--2--0--|-----4--2-----4--2-----4--2-----4--2-----4--2--0--|
A|-0---------0--------0--------0--------0-----------|--------------------------------------------------|
E|--------------------------------------------------|-2---------2--------2--------2--------2-----------|


E|--------------------------------------------------|--------------------------------------------------|
B|--------------------------------------------------|--------------------------------------------------|
G|--------------------------------------------------|--------------------------------------------------|
D|-----4--2-----4--2-----4--2-----4--2-----4--2--0--|-----4--2-----4--2-----4--2-----4--2-----4--2--0--|
A|-0---------0--------0--------0--------0-----------|--------------------------------------------------|
E|--------------------------------------------------|-2---------2--------2--------2--------2-----------|


E|--------------------------------------------------|---------------------------------------------|
B|--------------------------------------------------|---------------------------------------------|
G|--------------------------------------------------|---------------------------------------------|
D|-----4--2-----4--2-----4--2-----4--2-----4--2--0--|-----4--2-----4--2---------4--2-----4--2-----|
A|-0---------0--------0--------0--------0-----------|---------------------------------------------|
E|--------------------------------------------------|-4---------4--------4--3---------3--------3--|


E|-----------------------------------------|---------------------------------------------|
B|-----------------------------------------|---------------------------------------------|
G|-----------------------------------------|---------------------------------------------|
D|-----------------------------------------|--------------------------3--3---------------|
A|-4----2----3--3--3--3--3--3--2--0--------|-------------3---1--2--3--1--1---------------|
E|-2----0----------------------------3--0--|-3--1--3--1----------------------1--0--1--2--|


E|---------------------------------------------|---------------------------------------------|
B|---------------------------------------------|---------------------------------------------|
G|---------------------------------------------|---------------------------------------------|
D|--------------------------3--3---------------|--------------------------3--3---------------|
A|-------------3---1--2--3--1--1---------------|-------------3---1--2--3--1--1---------------|
E|-3--1--3--1----------------------1--0--1--2--|-3--1--3--1----------------------1--0--1--2--|


E|---------------------------------------------|---------------------------------------------|
B|---------------------------------------------|---------------------------------------------|
G|---------------------------------------------|---------------------------------------------|
D|--------------------------3--3---------------|--------------------------3--3---------------|
A|-------------3---1--2--3--1--1---------------|-------------3---1--2--3--1--1---------------|
E|-3--1--3--1----------------------1--0--1--2--|-3--1--3--1----------------------1--0--1--2--|


E|---------------------------------------------|---------------------------------------------|
B|---------------------------------------------|---------------------------------------------|
G|---------------------------------------------|---------------------------------------------|
D|--------------------------3--3---------------|--------------------------3--3---------------|
A|-------------3---1--2--3--1--1---------------|-------------3---1--2--3--1--1---------------|
E|-3--1--3--1----------------------1--0--1--2--|-3--1--3--1----------------------1--0--1--2--|


E|---------------------------------------------|-------------------------------------------------|
B|---------------------------------------------|-------------------------------------------------|
G|---------------------------------------------|-------------------------------------------------|
D|--------------------------3--3---------------|-------------------------------------------------|
A|-------------3---1--2--3--1--1---------------|-------------------5--4--3--2--3--4--5-----------|
E|-3--1--3--1----------------------1--0--1--2--|-5--2--3--4--5--2-----------------------2--3--4--|


E|-------------------------------------------------|-------------------------------------------------|
B|-------------------------------------------------|-------------------------------------------------|
G|-------------------------------------------------|-------------------------------------------------|
D|-------------------------------------------------|-------------------------------------------------|
A|-------------------5--4--3--2--3--4--5-----------|-------------------5--4--3--2--3--4--5-----------|
E|-5--2--3--4--5--2-----------------------2--3--4--|-5--2--3--4--5--2-----------------------2--3--4--|


E|-------------------------------------------------|-------------------------------------------------|
B|-------------------------------------------------|-------------------------------------------------|
G|-------------------------------------------------|-------------------------------------------------|
D|-------------------------------------------------|-------------------------------------------------|
A|-------------------5--4--3--2--3--4--5-----------|-------------------3--2--1--0--1--2--3-----------|
E|-5--2--3--4--5--2-----------------------0--1--2--|-3--0--1--2--3--4-----------------------0--1--2--|


E|-------------------------------------------------|-------------------------------------------------|
B|-------------------------------------------------|-------------------------------------------------|
G|-------------------------------------------------|-------------------------------------------------|
D|-------------------------------------------------|-------------------------------------------------|
A|-------------------3--2--1--0--1--2--3-----------|-------------------3--2--1--0--1--2--3-----------|
E|-3--0--1--2--3--4-----------------------0--1--2--|-3--0--1--2--3--4-----------------------0--1--2--|


E|-------------------------------------------------|----------------------------------------|
B|-------------------------------------------------|----------------------------------------|
G|-------------------------------------------------|----------------------------------------|
D|-------------------------------------------------|-----------4-----------------4----------|
A|----------------0--3--2--1--0--1--2--3--0--------|----------------------------------------|
E|-3--0--1--2--3-----------------------------4--3--|-2---2--2-----2--2--2--0--2-----2-------|


E|----------------------------------------|----------------------------------------|
B|----------------------------------------|----------------------------------------|
G|----------------------------------------|----------------------------------------|
D|-----------4-----------------4----------|-----------4-----------------4----------|
A|----------------------------------------|----------------------------------------|
E|-2---2--2-----2--2--2--0--2-----2-------|-2---2--2-----2--2--2--0--2-----2-------|


E|----------------------------------------|----------------------------------------|
B|----------------------------------------|----------------------------------------|
G|----------------------------------------|----------------------------------------|
D|-----------4-----------------4----------|-----------4-----------------4----------|
A|----------------------------------------|----------------------------------------|
E|-2---2--2-----2--2--2--0--2-----2-------|-2---2--2-----2--2--2--0--2-----2-------|


E|----------------------------------------|----------------------------------------|
B|----------------------------------------|----------------------------------------|
G|----------------------------------------|----------------------------------------|
D|-----------4-----------------4----------|-----------4-----------------4----------|
A|----------------------------------------|----------------------------------------|
E|-2---2--2-----2--2--2--0--2-----2-------|-2---2--2-----2--2--2--0--2-----2-------|


E|---------------------------------------------|----------------------------------------|
B|---------------------------------------------|----------------------------------------|
G|---------------------------------------------|----------------------------------------|
D|-----------4-----------------4---------------|-----------4-----------------4----------|
A|---------------------------------------------|----------------------------------------|
E|-2---2--2-----2--2--2--0--2-----2------2--2--|-2---2--2-----2--2--2--0--2-----2-------|


E|----------------------------------------|----------------------------------------|
B|----------------------------------------|----------------------------------------|
G|----------------------------------------|----------------------------------------|
D|-----------4-----------------4----------|-----------4-----------------4----------|
A|----------------------------------------|----------------------------------------|
E|-2---2--2-----2--2--2--0--2-----2-------|-2---2--2-----2--2--2--0--2-----2-------|


E|---------------------------------------------|----------------------------------------|
B|---------------------------------------------|----------------------------------------|
G|---------------------------------------------|----------------------------------------|
D|-----------4-----------------4---------------|-----------4-----------------4----------|
A|---------------------------------------------|----------------------------------------|
E|-2---2--2-----2--2--2--0--2-----2------2--2--|-2---2--2-----2--2--2--0--2-----2-------|


E|----------------------------------------|----------------------------------------|
B|----------------------------------------|----------------------------------------|
G|----------------------------------------|----------------------------------------|
D|-----------4-----------------4----------|-----------4-----------------4----------|
A|----------------------------------------|----------------------------------------|
E|-2---2--2-----2--2--2--0--2-----2-------|-2---2--2-----2--2--2--0--2-----2-------|


E|---------------------------------------------|----------------------------------------|
B|---------------------------------------------|----------------------------------------|
G|---------------------------------------------|----------------------------------------|
D|-----------4-----------------4---------------|-----------4-----------------4----------|
A|---------------------------------------------|----------------------------------------|
E|-2---2--2-----2--2--2--0--2-----2------2--2--|-2---2--2-----2--2--2--0--2-----2-------|


E|----------------------------------------|----------------------------------------|
B|----------------------------------------|----------------------------------------|
G|----------------------------------------|----------------------------------------|
D|-----------4-----------------4----------|-----------4-----------------4----------|
A|----------------------------------------|----------------------------------------|
E|-2---2--2-----2--2--2--0--2-----2-------|-2---2--2-----2--2--2--0--2-----2-------|


E|---------------------------------------------|-------------------------------------------------|
B|---------------------------------------------|-------------------------------------------------|
G|---------------------------------------------|-------------11----------------------------------|
D|-----------4-----------------4---------------|-------------------------------------------------|
A|---------------------------------------------|-9--9--9--9-----9--9--9--8--8--8--8--8--8--8--8--|
E|-2---2--2-----2--2--2--0--2-----2------2--2--|-------------------------------------------------|


E|-------------------------------------------------|-------------------------------------------------|
B|-------------------------------------------------|-------------------------------------------------|
G|-------------9-----------------------------------|-------------11----------------------------------|
D|-------------------------------------------------|-------------------------------------------------|
A|-7--7--7--7-----7--7--7--6--6--6--6--6--6--6--6--|-9--9--9--9-----9--9--9--8--8--8--8--8--8--8--8--|
E|-------------------------------------------------|-------------------------------------------------|


E|-------------------------------------------------|-------------------------------------------------|
B|-------------------------------------------------|-------------------------------------------------|
G|-------------9-----------------------------------|-------------11----------------------------------|
D|-------------------------------------------------|-------------------------------------------------|
A|-7--7--7--7-----7--7--7--6--6--6--6--6--6--6--6--|-9--9--9--9-----9--9--9--8--8--8--8--8--8--8--8--|
E|-------------------------------------------------|-------------------------------------------------|


E|-------------------------------------------------|-------------------------------------------------|
B|-------------------------------------------------|-------------------------------------------------|
G|-------------9-----------------------------------|-------------7-----------------------------------|
D|-------------------------------------------------|-------------------------------------------------|
A|-7--7--7--7-----7--7--7--6--6--6--6--6--6--6--6--|-5--5--5--5-----5--5--5--4--4--4--4--4--4--4--4--|
E|-------------------------------------------------|-------------------------------------------------|


E|----------------------------------------|--------------------------------------|
B|----------------------------------------|--------------------------------------|
G|----------------------------------------|--------------------------------------|
D|-------------------------2----3----4----|-----------4---------------------2----|
A|-3--3--3--3--3--3--3--3--0----1----2----|-----------------------3----4---------|
E|----------------------------------------|-2---2--2-----2--2--2-----------------|


E|--------------------------------------|--------------------------------------|--------------------------------------|
B|--------------------------------------|--------------------------------------|--------------------------------------|
G|--------------------------------------|--------------------------------------|--------------------------------------|
D|-----------4----------------2---------|-----------4---------------------2----|-----------4----------------2---------|
A|-----------------------5---------5----|-----------------------3----4---------|-----------------------5---------5----|
E|-2---2--2-----2--2--2-----------------|-2---2--2-----2--2--2-----------------|-2---2--2-----2--2--2-----------------|


E|-------------------------------------------------|-------------------------------------------------|
B|-------------------------------------------------|-------------------------------------------------|
G|-------------11----------------------------------|-------------9-----------------------------------|
D|-------------------------------------------------|-------------------------------------------------|
A|-9--9--9--9-----9--9--9--8--8--8--8--8--8--8--8--|-7--7--7--7-----7--7--7--6--6--6--6--6--6--6--6--|
E|-------------------------------------------------|-------------------------------------------------|


E|-------------------------------------------------|-------------------------------------------------|
B|-------------------------------------------------|-------------------------------------------------|
G|-------------11----------------------------------|-------------9-----------------------------------|
D|-------------------------------------------------|-------------------------------------------------|
A|-9--9--9--9-----9--9--9--8--8--8--8--8--8--8--8--|-7--7--7--7-----7--7--7--6--6--6--6--6--6--6--6--|
E|-------------------------------------------------|-------------------------------------------------|


E|-------------------------------------------------|-------------------------------------------------|
B|-------------------------------------------------|-------------------------------------------------|
G|-------------11----------------------------------|-------------9-----------------------------------|
D|-------------------------------------------------|-------------------------------------------------|
A|-9--9--9--9-----9--9--9--8--8--8--8--8--8--8--8--|-7--7--7--7-----7--7--7--6--6--6--6--6--6--6--6--|
E|-------------------------------------------------|-------------------------------------------------|


E|-------------------------------------------------|----------------------------------------|
B|-------------------------------------------------|----------------------------------------|
G|-------------7-----------------------------------|----------------------------------------|
D|-------------------------------------------------|-------------------------2----3----4----|
A|-5--5--5--5-----5--5--5--4--4--4--4--4--4--4--4--|-3--3--3--3--3--3--3--3--0----1----2----|
E|-------------------------------------------------|----------------------------------------|


E|--------------------------------------|--------------------------------------|--------------------------------------|
B|--------------------------------------|--------------------------------------|--------------------------------------|
G|--------------------------------------|--------------------------------------|--------------------------------------|
D|-----------4---------------------2----|-----------4----------------2---------|-----------4---------------------2----|
A|-----------------------3----4---------|-----------------------5---------5----|-----------------------3----4---------|
E|-2---2--2-----2--2--2-----------------|-2---2--2-----2--2--2-----------------|-2---2--2-----2--2--2-----------------|


E|--------------------------------------|--------------------------------------|--------------------------------------|
B|--------------------------------------|--------------------------------------|--------------------------------------|
G|--------------------------------------|--------------------------------------|--------------------------------------|
D|-----------4----------------2---------|-----------4---------------------2----|-----------4----------------2---------|
A|-----------------------5---------5----|-----------------------3----4---------|-----------------------5---------5----|
E|-2---2--2-----2--2--2-----------------|-2---2--2-----2--2--2-----------------|-2---2--2-----2--2--2-----------------|


E|--------------------------------------|--------------------------------------|-------------|
B|--------------------------------------|--------------------------------------|-------------|
G|--------------------------------------|--------------------------------------|-------------|
D|-----------4---------------------2----|-----------4----------------2---------|-------------|
A|-----------------------3----4---------|-----------------------5---------5----|-4-----------|
E|-2---2--2-----2--2--2-----------------|-2---2--2-----2--2--2-----------------|-2-----------|





Track 2: Dave Mustaine Solo

E|--------|--------|--------|--------|--------|--------|--------|--------|--------|
B|--------|--------|--------|--------|--------|--------|--------|--------|--------|
G|--------|--------|--------|--------|--------|--------|--------|--------|--------|
D|--------|--------|--------|--------|--------|--------|--------|--------|--------|
A|--------|--------|--------|--------|--------|--------|--------|--------|--------|
E|--------|--------|--------|--------|--------|--------|--------|--------|--------|


E|--------|--------|--------|--------|--------|--------|--------|--------|--------|
B|--------|--------|--------|--------|--------|--------|--------|--------|--------|
G|--------|--------|--------|--------|--------|--------|--------|--------|--------|
D|--------|--------|--------|--------|--------|--------|--------|--------|-2------|
A|--------|--------|--------|--------|--------|--------|--------|--------|--------|
E|--------|--------|--------|--------|--------|--------|--------|--------|--------|


E|--------|--------------------|--------------------|---------------------------|--------|
B|--------|--------------------|--------------------|---------------------------|--------|
G|--------|-5---5---2----------|-7---7---5----------|-9---9---7----11--11--9----|-11-----|
D|-2------|--------------4-----|--------------7-----|---------------------------|--------|
A|--------|--------------------|--------------------|---------------------------|--------|
E|--------|--------------------|--------------------|---------------------------|--------|


E|--------|--------|--------|--------|--------|--------|--------|--------|--------|
B|--------|--------|--------|--------|--------|--------|--------|--------|--------|
G|-11-----|-11-----|--------|--------|--------|--------|--------|--------|--------|
D|--------|--------|--------|--------|--------|--------|--------|--------|--------|
A|--------|--------|--------|--------|--------|--------|--------|--------|--------|
E|--------|--------|--------|--------|--------|--------|--------|--------|--------|


E|--------|--------|--------|--------|--------|--------|--------|--------|--------|
B|--------|--------|--------|--------|--------|--------|--------|--------|--------|
G|--------|--------|--------|--------|--------|--------|--------|--------|--------|
D|--------|--------|--------|--------|--------|--------|--------|--------|--------|
A|--------|--------|--------|--------|--------|--------|--------|--------|--------|
E|--------|--------|--------|--------|--------|--------|--------|--------|--------|


E|--------|--------|--------|--------|--------|--------|--------|--------------------|
B|--------|--------|--------|--------|--------|--------|--------|--------------------|
G|--------|--------|--------|--------|--------|--------|--------|-5---5--------------|
D|--------|--------|--------|--------|--------|-2------|-2------|---------7----4-----|
A|--------|--------|--------|--------|--------|--------|--------|--------------------|
E|--------|--------|--------|--------|--------|--------|--------|--------------------|


E|--------------------|---------------------------|--------|--------|--------|--------|
B|--------------------|---------------------------|--------|--------|--------|--------|
G|-7---7--------------|-10--10--7----12--12--9----|-11-----|-11-----|-11-----|--------|
D|---------10---7-----|---------------------------|--------|--------|--------|--------|
A|--------------------|---------------------------|--------|--------|--------|--------|
E|--------------------|---------------------------|--------|--------|--------|--------|


E|--------|--------|--------|--------|--------|--------|--------|--------|--------|
B|--------|--------|--------|--------|--------|--------|--------|--------|--------|
G|--------|--------|--------|--------|--------|--------|--------|--------|--------|
D|--------|--------|--------|--------|--------|--------|--------|--------|--------|
A|--------|--------|--------|--------|--------|--------|--------|--------|--------|
E|--------|--------|--------|--------|--------|--------|--------|--------|--------|


E|--------|--------|--------|-----------------------------|-----------------------------|
B|--------|--------|--------|-----------------------------|-----------------------------|
G|--------|--------|--------|-5----4----3-----------------|-5----4----3-----------------|
D|--------|--------|--------|-5----4----3---------5-------|-5----4----3-----------------|
A|--------|--------|--------|------------------------3----|---------------------7-------|
E|--------|--------|--------|-----------------------------|------------------------6----|


E|---------------------------------|---------------------------------------|--------------------------------------------------|
B|---------------------------------|---------------------------------------|--------------------------------------------------|
G|-5----4----3----3------3--5--5---|-3---3--5---3--3---3--5---3--3--3--5---|----------3----------------5----------------3-----|
D|-5----4----3--------5------------|-3---3--5---3--3---3--5---3--3--3--5---|-3--4--5------5---3--4--5------5---3--4--5-----5--|
A|---------------------------------|---------------------------------------|--------------------------------------------------|
E|---------------------------------|---------------------------------------|--------------------------------------------------|


E|------------------------------------------------|-------------------------------------------------|
B|------------------------------------------------|-------------------------------------------------|
G|----------3----------------5----------------3---|-5---3-------3-----------------------------------|
D|-3--4--5------5---3--4--5------5---3--4--5------|---------5-------5---4---3-------3---------------|
A|------------------------------------------------|-----------------------------5-------5---4---3---|
E|------------------------------------------------|-------------------------------------------------|


E|-------------------------------------------------------------------------|-22-17----20-17----------------------------------------------------------|
B|-------------------------------------------------------------------------|-------17-------20-22-17-22-20-17----22-17----20-17----------------------|
G|-------------------------------------------------------------------------|----------------------------------20-------20-------19-21-20-17-19-17----|
D|-------------------------------------------------------------------------|----------------------------------------------------------------------19-|
A|-------------------------------------------------------------------------|-------------------------------------------------------------------------|
E|-6--3--0--6--3--0--6--3--0--6--3--0--6--3--0--6--3--0--6--3--0--6--3--0--|-------------------------------------------------------------------------|


E|-------------------------------------------------------------------------|--------------------------------------------------------------------------|
B|-------------------------------------------------------------------------|--------------------------------------------------------------------------|
G|-20-17----19-17----------------------19-17-19-17-19-17-19-17-19-17-19-17-|-23-19-17----17-19-23-19-17----17-19-23-19-17-24-19-17-23-19-17-19-17-1917|
D|-------19-------19-22-20-17-19-17----------------------------------------|----------19----------------19--------------------------------------------|
A|----------------------------------19-------------------------------------|--------------------------------------------------------------------------|
E|-------------------------------------------------------------------------|--------------------------------------------------------------------------|


E|-------------------------------------20-19-17-20-19-17-22-20-17-22-20-17-|-18-15----18-15----18-15----17-15----18-15----20-15----18-15----17-15----|
B|-20-19-17-20-19-17-22-20-17-22-20-17-------------------------------------|-------15-------15-------15-------15-------15-------15-------15-------16-|
G|-------------------------------------------------------------------------|-------------------------------------------------------------------------|
D|-------------------------------------------------------------------------|-------------------------------------------------------------------------|
A|-------------------------------------------------------------------------|-------------------------------------------------------------------------|
E|-------------------------------------------------------------------------|-------------------------------------------------------------------------|


E|-18-15----18-15----18-15----17-15----18-15----20-15----18-15----17-15----|-18-15----18-15----18-15----17-15----18-15----20-15----18-15----17-15----|
B|-------16-------16-------16-------16-------16-------16-------16-------17-|-------17-------17-------17-------17-------17-------17-------17-------16-|
G|-------------------------------------------------------------------------|-------------------------------------------------------------------------|
D|-------------------------------------------------------------------------|-------------------------------------------------------------------------|
A|-------------------------------------------------------------------------|-------------------------------------------------------------------------|
E|-------------------------------------------------------------------------|-------------------------------------------------------------------------|


E|-18-15----18-15----18-15----17-15----18-15----20-15----18-15----17-15----|-0------|
B|-------16-------16-------16-------16-------16-------16-------16-------15-|--------|
G|-------------------------------------------------------------------------|--------|
D|-------------------------------------------------------------------------|--------|
A|-------------------------------------------------------------------------|--------|
E|-------------------------------------------------------------------------|--------|


E|-0------|-0------|-------0---------0---|--------|--------|--------|--------|--------|
B|--------|--------|---------------------|--------|--------|--------|--------|--------|
G|--------|--------|---------------------|--------|--------|--------|--------|--------|
D|--------|--------|---------------------|--------|--------|--------|--------|--------|
A|--------|--------|---------------------|--------|--------|--------|--------|--------|
E|--------|--------|---------------------|--------|--------|--------|--------|--------|


E|--------|--------|--------|--------|--------|--------|--------|--------|--------|
B|--------|--------|--------|--------|--------|--------|--------|--------|--------|
G|--------|--------|--------|--------|--------|--------|--------|--------|--------|
D|--------|--------|--------|--------|--------|--------|--------|--------|--------|
A|--------|--------|--------|--------|--------|--------|--------|--------|--------|
E|--------|--------|--------|--------|--------|--------|--------|--------|--------|


E|--------|--------|-----------------------------|-----------------------------|-----------------------------|
B|--------|--------|-----------------------------|-----------------------------|-----------------------------|
G|--------|--------|-----------2-----------------|-----------------------------|-----------2-------------2---|
D|--------|--------|-4-------------3-------------|-2-----------------------9---|-4-------------3-------------|
A|--------|--------|------4-------------4----3---|------4----3---2----6--------|------4-------------4--------|
E|--------|--------|-----------------------------|-----------------------------|-----------------------------|


E|-------------------------------------------------|-----------5-------------5---|
B|-------------------------------------------------|-7-------------6-------------|
G|-4--4--2-----------------------------------------|------6-------------6--------|
D|----------4--4--4--3--2--4--3--2-----2-----------|-----------------------------|
A|----------------------------------4-----4--3--2--|-----------------------------|
E|-------------------------------------------------|-----------------------------|


E|-----------------------------|-------------------------------------------------|
B|-5-----------------------12--|-15----------------------------------------------|
G|------6----5---4----8--------|----11----------14-11-13-10----------10-13-10-12-|
D|-----------------------------|-------12-14-12-------------11-13-11-------------|
A|-----------------------------|-------------------------------------------------|
E|-----------------------------|-------------------------------------------------|


E|------------------------------------|-----------------|--------|--------|--------|
B|------------------------------------|-----------------|--------|--------|--------|
G|-9-----------9--12------------------|-----------------|--------|--------|--------|
D|----10-12-10---------7----8----9----|-----------------|--------|--------|--------|
A|------------------------------------|-9----9----------|--------|--------|--------|
E|------------------------------------|-----------------|--------|--------|--------|


E|-17-0--14-17-0--14-17-0--17-0--13-17-0--13-17-0--|-17-0--12-17-0--12-17-0--17-0--11-17-0--11-17-0--|
B|-------------------------------------------------|-------------------------------------------------|
G|-------------------------------------------------|-------------------------------------------------|
D|-------------------------------------------------|-------------------------------------------------|
A|-------------------------------------------------|-------------------------------------------------|
E|-------------------------------------------------|-------------------------------------------------|


E|-17-0--14-17-0--14-17-0--17-0--13-17-0--13-17-0--|-17-0--12-17-0--12-17-0--17-0--11-17-0--11-19-0--|
B|-------------------------------------------------|-------------------------------------------------|
G|-------------------------------------------------|-------------------------------------------------|
D|-------------------------------------------------|-------------------------------------------------|
A|-------------------------------------------------|-------------------------------------------------|
E|-------------------------------------------------|-------------------------------------------------|


E|-17-0--14-17-0--14-17-0--17-0--13-17-0--13-17-0--|-17-0--12-17-0--12-17-0--17-0--11-17-0--11-17-0--|
B|-------------------------------------------------|-------------------------------------------------|
G|-------------------------------------------------|-------------------------------------------------|
D|-------------------------------------------------|-------------------------------------------------|
A|-------------------------------------------------|-------------------------------------------------|
E|-------------------------------------------------|-------------------------------------------------|


E|-14-0--10-14-0--10-14-0--13-0--9--13-0--9--13-0--|-12-0--8--12-0--8--12-0--9--0--5--9--0--5--9--0--|
B|-------------------------------------------------|-------------------------------------------------|
G|-------------------------------------------------|-------------------------------------------------|
D|-------------------------------------------------|-------------------------------------------------|
A|-------------------------------------------------|-------------------------------------------------|
E|-------------------------------------------------|-------------------------------------------------|


E|--------|--------|--------|--------|--------|--------|--------|--------|--------|
B|-7------|-7------|--------|--------|--------|--------|--------|--------|--------|
G|--------|--------|--------|--------|--------|--------|--------|--------|--------|
D|--------|--------|--------|--------|--------|--------|--------|--------|--------|
A|--------|--------|--------|--------|--------|--------|--------|--------|--------|
E|--------|--------|--------|--------|--------|--------|--------|--------|--------|





Track 3: Chris Poland

E|--------|--------|--------|--------|--------|--------|--------|--------|--------|
B|--------|--------|--------|--------|--------|--------|--------|--------|--------|
G|--------|--------|--------|--------|--------|--------|--------|--------|--------|
D|--------|--------|--------|--------|--------|--------|--------|--------|--------|
A|--------|--------|--------|--------|--------|--------|--------|--------|--------|
E|--------|--------|--------|--------|--------|--------|--------|--------|--------|


E|--------|--------|--------|--------|--------|--------|--------|--------|--------|
B|--------|--------|--------|--------|--------|--------|--------|--------|--------|
G|--------|--------|--------|--------|--------|--------|--------|--------|--------|
D|--------|--------|--------|--------|--------|--------|--------|--------|--------|
A|--------|--------|--------|--------|--------|--------|--------|--------|--------|
E|--------|--------|--------|--------|--------|--------|--------|--------|--------|


E|--------|--------|--------|--------|--------|--------|--------|--------|--------|
B|--------|--------|--------|--------|--------|--------|--------|--------|--------|
G|--------|--------|--------|--------|--------|--------|--------|--------|--------|
D|--------|--------|--------|--------|--------|--------|--------|--------|--------|
A|--------|--------|--------|--------|--------|--------|--------|--------|--------|
E|--------|--------|--------|--------|--------|--------|--------|--------|--------|


E|--------|--------|--------|--------|--------|------------|--------|------------|
B|--------|--------|--------|--------|--------|------------|--------|------------|
G|--------|--------|--------|--------|-11-----|-11-----11--|-9------|-9------9---|
D|--------|--------|--------|--------|--------|------------|--------|------------|
A|--------|--------|--------|--------|--------|------------|--------|------------|
E|--------|--------|--------|--------|--------|------------|--------|------------|


E|--------|--------|--------|--------|--------|------------|--------|------------|
B|--------|--------|--------|--------|--------|------------|--------|------------|
G|-8------|-7------|--------|--------|--------|------------|--------|------------|
D|--------|--------|-4------|-4------|-4------|-4------4---|-7------|-7------7---|
A|--------|--------|--------|--------|--------|------------|--------|------------|
E|--------|--------|--------|--------|--------|------------|--------|------------|


E|------------|-----------------|--------|--------|--------|--------|--------|--------|
B|------------|-----------------|--------|--------|--------|--------|--------|--------|
G|------------|-----------------|-11-----|-11-----|--------|--------|--------|--------|
D|-9------9---|-10----10--11----|--------|--------|--------|--------|--------|--------|
A|------------|-----------------|--------|--------|--------|--------|--------|--------|
E|------------|-----------------|--------|--------|--------|--------|--------|--------|


E|--------|--------|--------|--------|--------|--------|--------|-------------|-------------|
B|--------|--------|--------|--------|--------|--------|--------|-------12----|-12----12----|
G|--------|--------|--------|--------|--------|--------|--------|-------------|-------------|
D|--------|--------|--------|--------|--------|--------|--------|-------------|-------------|
A|--------|--------|--------|--------|--------|--------|--------|-------------|-------------|
E|--------|--------|--------|--------|--------|--------|--------|-------------|-------------|


E|--------|-----------------|-----------------------|--------|----------------|-------------|
B|-12-----|-12---12---------|-------12--12--10--10--|--------|-------12----12-|-9-----12----|
G|--------|-----------9-----|-9---------------------|-11-----|-11-------------|-------------|
D|--------|-----------------|-----------------------|--------|----------------|-------------|
A|--------|-----------------|-----------------------|--------|----------------|-------------|
E|--------|-----------------|-----------------------|--------|----------------|-------------|


E|-------------|--------|--------|--------|--------|--------|--------|--------|--------|
B|-12----12----|--------|--------|--------|--------|--------|--------|--------|--------|
G|-------------|--------|--------|--------|--------|--------|--------|--------|--------|
D|-------------|--------|--------|--------|--------|--------|--------|--------|--------|
A|-------------|--------|--------|--------|--------|--------|--------|--------|--------|
E|-------------|--------|--------|--------|--------|--------|--------|--------|--------|


E|--------|--------|--------|--------|--------|--------|--------|--------|--------|
B|--------|--------|--------|--------|--------|--------|--------|--------|--------|
G|--------|--------|--------|--------|--------|--------|--------|--------|--------|
D|--------|--------|--------|--------|--------|--------|--------|--------|--------|
A|--------|--------|--------|--------|--------|--------|--------|--------|--------|
E|--------|--------|--------|--------|--------|--------|--------|--------|--------|


E|--------|--------|--------|--------|--------|--------|-------------|--------------------|
B|--------|--------|--------|--------|--------|--------|-------------|--------------------|
G|--------|--------|--------|--------|--------|--------|--------17---|-17---17----17------|
D|--------|--------|--------|--------|--------|--------|--------16---|-16---16----16-16---|
A|--------|--------|--------|--------|--------|--------|-------------|--------------------|
E|--------|--------|--------|--------|--------|--------|-------------|--------------------|


E|--------|--------|----------------------|--------|-------------------------------|
B|--------|--------|----------------------|--------|-------------------------------|
G|--------|--------|----------------------|--------|-------16--16--16--14--14--14--|
D|-16-----|--------|-7----7----7----------|--------|-------------------------------|
A|--------|--------|----------------9-----|--------|-------------------------------|
E|--------|--------|----------------------|--------|-------------------------------|


E|-------------|--------|--------|--------|--------|----14-----14--14---------------|
B|-------------|--------|--------|--------|--------|----14-----14--14---------------|
G|-14----------|--------|--------|--------|--------|-16-----16----------------------|
D|-------------|--------|--------|--------|--------|--------------------------------|
A|-------------|--------|--------|--------|--------|--------------------------------|
E|-------------|--------|--------|--------|--------|-------------------1211---------|


E|--------|--------|--------|--------|--------|--------|--------|--------|--------|
B|--------|--------|--------|--------|--------|--------|--------|--------|--------|
G|--------|--------|--------|--------|--------|--------|--------|--------|--------|
D|--------|--------|--------|--------|--------|--------|--------|--------|--------|
A|--------|--------|--------|--------|--------|--------|--------|--------|--------|
E|--------|--------|--------|--------|--------|--------|--------|--------|--------|


E|--------|--------|--------|--------|--------|--------|--------|--------|--------|
B|--------|--------|--------|--------|--------|--------|--------|--------|--------|
G|--------|--------|--------|--------|--------|--------|--------|--------|--------|
D|--------|--------|--------|--------|--------|--------|--------|--------|--------|
A|--------|--------|--------|--------|--------|--------|--------|--------|--------|
E|--------|--------|--------|--------|--------|--------|--------|--------|--------|


E|--------|--------|--------|--------|--------|--------|--------|--------|--------|
B|--------|--------|--------|--------|--------|--------|--------|--------|--------|
G|--------|--------|--------|--------|--------|--------|--------|--------|--------|
D|--------|--------|--------|--------|--------|--------|--------|--------|--------|
A|--------|--------|--------|--------|--------|--------|--------|--------|--------|
E|--------|--------|--------|--------|--------|--------|--------|--------|--------|


E|--------|--------|
B|--------|--------|
G|--------|--------|
D|--------|--------|
A|--------|--------|
E|--------|--------|





Track 4: Pick Slide

E|--------|--------|--------|--------|--------|--------|--------|--------|--------|
B|--------|--------|--------|--------|--------|--------|--------|--------|--------|
G|--------|--------|--------|--------|--------|--------|--------|--------|--------|
D|--------|--------|--------|--------|--------|--------|--------|--------|--------|
A|--------|--------|--------|--------|--------|--------|--------|--------|--------|
E|--------|--------|--------|--------|--------|--------|--------|--------|--------|


E|--------|--------|--------|--------|--------|--------|--------|--------|--------|
B|--------|--------|--------|--------|--------|--------|--------|--------|--------|
G|--------|--------|--------|--------|--------|--------|--------|--------|--------|
D|--------|--------|--------|--------|--------|--------|--------|--------|--------|
A|--------|--------|--------|--------|--------|--------|--------|--------|--------|
E|--------|--------|--------|--------|--------|--------|--------|--------|--------|


E|--------|--------|--------|--------|--------|--------|--------|--------|--------|
B|--------|--------|--------|--------|--------|--------|--------|--------|--------|
G|--------|--------|--------|--------|--------|--------|--------|--------|--------|
D|--------|--------|--------|--------|--------|--------|--------|--------|--------|
A|--------|--------|--------|--------|--------|--------|--------|--------|--------|
E|--------|--------|--------|--------|--------|--------|--------|--------|--------|


E|--------|--------|--------|--------|--------|--------|--------|--------|--------|
B|--------|--------|--------|--------|--------|--------|--------|--------|--------|
G|--------|--------|--------|--------|--------|--------|--------|--------|--------|
D|--------|--------|--------|--------|--------|--------|--------|--------|--------|
A|--------|--------|--------|--------|--------|--------|--------|--------|--------|
E|--------|--------|--------|--------|--------|--------|--------|--------|--------|


E|--------|--------|--------|--------|--------|--------|--------|--------|--------|
B|--------|--------|--------|--------|--------|--------|--------|--------|--------|
G|--------|--------|--------|--------|--------|--------|--------|--------|--------|
D|--------|--------|--------|--------|--------|--------|--------|--------|--------|
A|--------|--------|--------|--------|--------|--------|--------|--------|--------|
E|--------|--------|--------|--------|--------|--------|--------|--------|--------|


E|--------|--------|--------|--------|--------|--------|--------|--------|--------|
B|--------|--------|--------|--------|--------|--------|--------|--------|--------|
G|--------|--------|--------|--------|--------|--------|--------|--------|--------|
D|--------|--------|--------|--------|--------|--------|--------|--------|--------|
A|--------|--------|--------|--------|--------|--------|--------|--------|--------|
E|--------|--------|--------|--------|--------|--------|--------|--------|--------|


E|--------|--------|--------|--------|--------|--------|--------|--------|--------|
B|--------|--------|--------|--------|--------|--------|--------|--------|--------|
G|--------|--------|--------|--------|--------|--------|--------|--------|--------|
D|--------|--------|--------|--------|--------|--------|--------|--------|--------|
A|--------|--------|--------|--------|--------|--------|--------|--------|--------|
E|--------|--------|--------|--------|--------|--------|--------|--------|--------|


E|--------|--------|--------|--------|---------------------------|---------------------------|
B|--------|--------|--------|--------|---------------------------|---------------------------|
G|--------|--------|--------|--------|---------------------------|---------------------------|
D|--------|--------|--------|--------|---------------------------|---------------------------|
A|--------|--------|--------|--------|---------------------------|---------------------------|
E|--------|--------|--------|--------|----------131211109-8------|----------131211109-8------|


E|--------|--------|--------|--------|--------|--------|--------|--------|--------|
B|--------|--------|--------|--------|--------|--------|--------|--------|--------|
G|--------|--------|--------|--------|--------|--------|--------|--------|--------|
D|--------|--------|--------|--------|--------|--------|--------|--------|--------|
A|--------|--------|--------|--------|--------|--------|--------|--------|--------|
E|--------|--------|--------|--------|--------|--------|--------|--------|--------|


E|--------|--------|--------|--------|--------|--------|--------|--------|---------------------------------------------------------|
B|--------|--------|--------|--------|--------|--------|--------|--------|---------------------------------------------------------|
G|--------|--------|--------|--------|--------|--------|--------|--------|---------------------------------------------------------|
D|--------|--------|--------|--------|--------|--------|--------|--------|---------------------------------------------------------|
A|--------|--------|--------|--------|--------|--------|--------|--------|---------------------------------------------------------|
E|--------|--------|--------|--------|--------|--------|--------|--------|-1211109-8-7-6-5-4-3-2-1-----1211109-8-7-6-5-4-3-2-1-----|


E|--------|--------|--------|--------|--------|--------|--------|--------|--------|
B|--------|--------|--------|--------|--------|--------|--------|--------|--------|
G|--------|--------|--------|--------|--------|--------|--------|--------|--------|
D|--------|--------|--------|--------|--------|--------|--------|--------|--------|
A|--------|--------|--------|--------|--------|--------|--------|--------|--------|
E|--------|--------|--------|--------|--------|--------|--------|--------|--------|


E|--------|--------|--------|--------|--------|--------|--------------------------------------|
B|--------|--------|--------|--------|--------|--------|--------------------------------------|
G|--------|--------|--------|--------|--------|--------|--------------------------------------|
D|--------|--------|--------|--------|--------|--------|--------------------------------------|
A|--------|--------|--------|--------|--------|--------|--------------------------------------|
E|--------|--------|--------|--------|--------|--------|----------109-8-7-6-5-1211109-8-7-6-5-|


E|--------|--------|--------|--------|--------|--------|--------|--------|--------|
B|--------|--------|--------|--------|--------|--------|--------|--------|--------|
G|--------|--------|--------|--------|--------|--------|--------|--------|--------|
D|--------|--------|--------|--------|--------|--------|--------|--------|--------|
A|--------|--------|--------|--------|--------|--------|--------|--------|--------|
E|--------|--------|--------|--------|--------|--------|--------|--------|--------|


E|--------|--------|--------|--------|--------|--------|--------|--------|--------|
B|--------|--------|--------|--------|--------|--------|--------|--------|--------|
G|--------|--------|--------|--------|--------|--------|--------|--------|--------|
D|--------|--------|--------|--------|--------|--------|--------|--------|--------|
A|--------|--------|--------|--------|--------|--------|--------|--------|--------|
E|--------|--------|--------|--------|--------|--------|--------|--------|--------|


E|--------|--------|--------|--------|--------|--------|--------|--------|--------|
B|--------|--------|--------|--------|--------|--------|--------|--------|--------|
G|--------|--------|--------|--------|--------|--------|--------|--------|--------|
D|--------|--------|--------|--------|--------|--------|--------|--------|--------|
A|--------|--------|--------|--------|--------|--------|--------|--------|--------|
E|--------|--------|--------|--------|--------|--------|--------|--------|--------|


E|--------|--------|
B|--------|--------|
G|--------|--------|
D|--------|--------|
A|--------|--------|
E|--------|--------|





Track 5: Jimmy Sloas

G|--------|--------|--------|--------|--------|--------|--------|--------|----------------------------------------|
D|--------|--------|--------|--------|--------|--------|--------|--------|-----------4-----------------4----------|
A|--------|--------|--------|--------|--------|--------|--------|--------|----------------------------------------|
E|--------|--------|--------|--------|--------|--------|--------|--------|-2---2--2-----2--2--2--0--2-----2-------|


G|----------------------------------------|----------------------------------------|
D|-----------4-----------------4----------|-----------4-----------------4----------|
A|----------------------------------------|----------------------------------------|
E|-2---2--2-----2--2--2--0--2-----2--9----|-2---2--2-----2--2--2--0--2-----2-------|


G|----------------------------------------|----------------------------------------|
D|-----------4-----------------4----------|-----------4-----------------4----------|
A|----------------------------------------|----------------------------------------|
E|-2---2--2-----2--2--2--0--2-----2-------|-2---2--2-----2--2--2--0--2-----2-------|


G|----------------------------------------|----------------------------------------|
D|-----------4-----------------4----------|-----------4-----------------4----------|
A|----------------------------------------|----------------------------------------|
E|-2---2--2-----2--2--2--0--2-----2-------|-2---2--2-----2--2--2--0--2-----2-------|


G|----------------------------------------|----------------------------------------|
D|-----------4-----------------4----------|-----------4-----------------4----------|
A|----------------------------------------|----------------------------------------|
E|-2---2--2-----2--2--2--0--2-----2-------|-2---2--2-----2--2--2--0--2-----2-------|


G|----------------------------------------|------------------------------------------|
D|-----------4-----------------4----------|------------------------------------------|
A|----------------------------------------|------------------------------------------|
E|-2---2--2-----2--2--2--0--2-----2-------|-0--2---0--2---0--2---0--2-------5--2--0--|


G|-----------------------------------------|-----------------------------------------|
D|-----------------------------------------|-----------------------------------------|
A|-----------------------------3--4--3-----|-----------------------------5--6--5-----|
E|-3--5---3--5---3--5---3--5------------5--|-5--7---5--7---5--7---5--7------------7--|


G|-----------------------------------------|--------------------------------------------------|
D|-----------------------------5--6--5-----|-----4--2-----4--2-----4--2-----4--2-----4--2--0--|
A|-3--5---3--5---5--7---5--7------------7--|--------------------------------------------------|
E|-----------------------------------------|-2---------2--------2--------2--------2-----------|


G|--------------------------------------------------|--------------------------------------------------|
D|-----4--2-----4--2-----4--2-----4--2-----4--2--0--|-----4--2-----4--2-----4--2-----4--2-----4--2--0--|
A|-0---------0--------0--------0--------0-----------|--------------------------------------------------|
E|--------------------------------------------------|-2---------2--------2--------2--------2-----------|


G|--------------------------------------------------|--------------------------------------------------|
D|-----4--2-----4--2-----4--2-----4--2-----4--2--0--|-----4--2-----4--2-----4--2-----4--2-----4--2--0--|
A|-0---------0--------0--------0--------0-----------|--------------------------------------------------|
E|--------------------------------------------------|-2---------2--------2--------2--------2-----------|


G|--------------------------------------------------|---------------------------------------------|
D|-----4--2-----4--2-----4--2-----4--2-----4--2--0--|-----4--2-----4--2---------4--2-----4--2-----|
A|-0---------0--------0--------0--------0-----------|---------------------------------------------|
E|--------------------------------------------------|-4---------4--------4--3---------3--------3--|


G|----------------------------------------|----------------------------------------|
D|-----------4-----------------4----------|-----------4-----------------4----------|
A|----------------------------------------|----------------------------------------|
E|-2---2--2-----2--2--2--0--2-----2-------|-2---2--2-----2--2--2--0--2-----2-------|


G|----------------------------------------|----------------------------------------|
D|-----------4-----------------4----------|-----------4-----------------4----------|
A|----------------------------------------|----------------------------------------|
E|-2---2--2-----2--2--2--0--2-----2-------|-2---2--2-----2--2--2--0--2-----2-------|


G|----------------------------------------|----------------------------------------|
D|-----------4-----------------4----------|-----------4-----------------4----------|
A|----------------------------------------|----------------------------------------|
E|-2---2--2-----2--2--2--0--2-----2-------|-2---2--2-----2--2--2--0--2-----2-------|


G|----------------------------------------|----------------------------------------|
D|-----------4-----------------4----------|-----------4-----------------4----------|
A|----------------------------------------|----------------------------------------|
E|-2---2--2-----2--2--2--0--2-----2-------|-2---2--2-----2--2--2--0--2-----2-------|


G|----------------------------------------|----------------------------------------|
D|-----------4-----------------4----------|-----------4-----------------4----------|
A|----------------------------------------|----------------------------------------|
E|-2---2--2-----2--2--2--0--2-----2-------|-2---2--2-----2--2--2--0--2-----2-------|


G|----------------------------------------|----------------------------------------|
D|-----------4-----------------4----------|-----------4-----------------4----------|
A|----------------------------------------|----------------------------------------|
E|-2---2--2-----2--2--2--0--2-----2-------|-2---2--2-----2--2--2--0--2-----2-------|


G|----------------------------------------|----------------------------------------|
D|-----------4-----------------4----------|-----------4-----------------4----------|
A|----------------------------------------|----------------------------------------|
E|-2---2--2-----2--2--2--0--2-----2-------|-2---2--2-----2--2--2--0--2-----2-------|


G|----------------------------------------|----------------------------------------|
D|-----------4-----------------4----------|-----------4-----------------4----------|
A|----------------------------------------|----------------------------------------|
E|-2---2--2-----2--2--2--0--2-----2-------|-2---2--2-----2--2--2--0--2-----2-------|


G|----------------------------------------|----------------------------------------|
D|-----------4-----------------4----------|-----------4-----------------4----------|
A|----------------------------------------|----------------------------------------|
E|-2---2--2-----2--2--2--0--2-----2-------|-2---2--2-----2--2--2--0--2-----2-------|


G|------------------------------------------|-----------------------------------------|
D|------------------------------------------|-----------------------------------------|
A|------------------------------------------|-----------------------------3--4--3-----|
E|-0--2---0--2---0--2---0--2-------5--2--0--|-3--5---3--5---3--5---3--5------------5--|


G|-----------------------------------------|-----------------------------------------|
D|-----------------------------------------|-----------------------------5--6--5-----|
A|-----------------------------5--6--5-----|-3--5---3--5---5--7---5--7------------7--|
E|-5--7---5--7---5--7---5--7------------7--|-----------------------------------------|


G|--------------------------------------------------|--------------------------------------------------|
D|-----4--2-----4--2-----4--2-----4--2-----4--2--0--|-----4--2-----4--2-----4--2-----4--2-----4--2--0--|
A|--------------------------------------------------|-0---------0--------0--------0--------0-----------|
E|-2---------2--------2--------2--------2-----------|--------------------------------------------------|


G|--------------------------------------------------|--------------------------------------------------|
D|-----4--2-----4--2-----4--2-----4--2-----4--2--0--|-----4--2-----4--2-----4--2-----4--2-----4--2--0--|
A|--------------------------------------------------|-0---------0--------0--------0--------0-----------|
E|-2---------2--------2--------2--------2-----------|--------------------------------------------------|


G|--------------------------------------------------|--------------------------------------------------|
D|-----4--2-----4--2-----4--2-----4--2-----4--2--0--|-----4--2-----4--2-----4--2-----4--2-----4--2--0--|
A|--------------------------------------------------|-0---------0--------0--------0--------0-----------|
E|-2---------2--------2--------2--------2-----------|--------------------------------------------------|


G|---------------------------------------------|----------------------------------------|
D|-----4--2-----4--2---------4--2-----4--2-----|-----------4-----------------4----------|
A|---------------------------------------------|----------------------------------------|
E|-4---------4--------4--3---------3--------3--|-2---2--2-----2--2--2--0--2-----2-------|


G|--------------------------------------------------|--------------------------------------------------|
D|-----4--2-----4--2-----4--2-----4--2-----4--2--0--|-----4--2-----4--2-----4--2-----4--2-----4--2--0--|
A|--------------------------------------------------|-0---------0--------0--------0--------0-----------|
E|-2---------2--------2--------2--------2-----------|--------------------------------------------------|


G|--------------------------------------------------|--------------------------------------------------|
D|-----4--2-----4--2-----4--2-----4--2-----4--2--0--|-----4--2-----4--2-----4--2-----4--2-----4--2--0--|
A|--------------------------------------------------|-0---------0--------0--------0--------0-----------|
E|-2---------2--------2--------2--------2-----------|--------------------------------------------------|


G|--------------------------------------------------|--------------------------------------------------|
D|-----4--2-----4--2-----4--2-----4--2-----4--2--0--|-----4--2-----4--2-----4--2-----4--2-----4--2--0--|
A|--------------------------------------------------|-0---------0--------0--------0--------0-----------|
E|-2---------2--------2--------2--------2-----------|--------------------------------------------------|


G|---------------------------------------------|-----------------------------------------|
D|-----4--2-----4--2---------4--2-----4--2-----|-----------------------------------------|
A|---------------------------------------------|-----------3--3--3--3--3--3--2--0--------|
E|-4---------4--------4--3---------3--------3--|-2----0----------------------------3--0--|


G|---------------------------------------------|---------------------------------------------|
D|---------------------------------------------|---------------------------------------------|
A|-------------3---1--2--3--1--1---------------|-------------3---1--2--3--1--1---------------|
E|-3--1--3--1----------------------1--0--1--2--|-3--1--3--1----------------------1--0--1--2--|


G|---------------------------------------------|---------------------------------------------|
D|---------------------------------------------|---------------------------------------------|
A|-------------3---1--2--3--1--1---------------|-------------3---1--2--3--1--1---------------|
E|-3--1--3--1----------------------1--0--1--2--|-3--1--3--1----------------------1--0--1--2--|


G|---------------------------------------------|---------------------------------------------|
D|---------------------------------------------|---------------------------------------------|
A|-------------3---1--2--3--1--1---------------|-------------3---1--2--3--1--1---------------|
E|-3--1--3--1----------------------1--0--1--2--|-3--1--3--1----------------------1--0--1--2--|


G|---------------------------------------------|---------------------------------------------|
D|---------------------------------------------|---------------------------------------------|
A|-------------3---1--2--3--1--1---------------|-------------3---1--2--3--1--1---------------|
E|-3--1--3--1----------------------1--0--1--2--|-3--1--3--1----------------------1--0--1--2--|


G|-------------------------------------------------|-------------------------------------------------|
D|-------------------------------------------------|-------------------------------------------------|
A|-------------------5--4--3--2--3--4--5-----------|-------------------5--4--3--2--3--4--5-----------|
E|-5--2--3--4--5--2-----------------------2--3--4--|-5--2--3--4--5--2-----------------------2--3--4--|


G|-------------------------------------------------|-------------------------------------------------|
D|-------------------------------------------------|-------------------------------------------------|
A|-------------------5--4--3--2--3--4--5-----------|-------------------5--4--3--2--3--4--5-----------|
E|-5--2--3--4--5--2-----------------------2--3--4--|-5--2--3--4--5--2-----------------------0--1--2--|


G|-------------------------------------------------|-------------------------------------------------|
D|-------------------------------------------------|-------------------------------------------------|
A|-------------------3--2--1--0--1--2--3-----------|-------------------3--2--1--0--1--2--3-----------|
E|-3--0--1--2--3--4-----------------------0--1--2--|-3--0--1--2--3--4-----------------------0--1--2--|


G|-------------------------------------------------|-------------------------------------------------|
D|-------------------------------------------------|-------------------------------------------------|
A|-------------------3--2--1--0--1--2--3-----------|----------------0--3--2--1--0--1--2--3--0--------|
E|-3--0--1--2--3--4-----------------------0--1--2--|-3--0--1--2--3-----------------------------4--3--|


G|----------------------------------------|----------------------------------------|
D|-----------4-----------------4----------|-----------4-----------------4----------|
A|----------------------------------------|----------------------------------------|
E|-2---2--2-----2--2--2--0--2-----2-------|-2---2--2-----2--2--2--0--2-----2-------|


G|----------------------------------------|----------------------------------------|
D|-----------4-----------------4----------|-----------4-----------------4----------|
A|----------------------------------------|----------------------------------------|
E|-2---2--2-----2--2--2--0--2-----2-------|-2---2--2-----2--2--2--0--2-----2-------|


G|----------------------------------------|----------------------------------------|
D|-----------4-----------------4----------|-----------4-----------------4----------|
A|----------------------------------------|----------------------------------------|
E|-2---2--2-----2--2--2--0--2-----2-------|-2---2--2-----2--2--2--0--2-----2-------|


G|----------------------------------------|----------------------------------------|
D|-----------4-----------------4----------|-----------4-----------------4----------|
A|----------------------------------------|----------------------------------------|
E|-2---2--2-----2--2--2--0--2-----2-------|-2---2--2-----2--2--2--0--2-----2-------|


G|----------------------------------------|----------------------------------------|
D|-----------4-----------------4----------|-----------4-----------------4----------|
A|----------------------------------------|----------------------------------------|
E|-2---2--2-----2--2--2--0--2-----2-------|-2---2--2-----2--2--2--0--2-----2-------|


G|----------------------------------------|----------------------------------------|
D|-----------4-----------------4----------|-----------4-----------------4----------|
A|----------------------------------------|----------------------------------------|
E|-2---2--2-----2--2--2--0--2-----2-------|-2---2--2-----2--2--2--0--2-----2-------|


G|----------------------------------------|----------------------------------------|
D|-----------4-----------------4----------|-----------4-----------------4----------|
A|----------------------------------------|----------------------------------------|
E|-2---2--2-----2--2--2--0--2-----2-------|-2---2--2-----2--2--2--0--2-----2-------|


G|----------------------------------------|----------------------------------------|
D|-----------4-----------------4----------|-----------4-----------------4----------|
A|----------------------------------------|----------------------------------------|
E|-2---2--2-----2--2--2--0--2-----2-------|-2---2--2-----2--2--2--0--2-----2-------|


G|----------------------------------------|----------------------------------------|
D|-----------4-----------------4----------|-----------4-----------------4----------|
A|----------------------------------------|----------------------------------------|
E|-2---2--2-----2--2--2--0--2-----2-------|-2---2--2-----2--2--2--0--2-----2-------|


G|----------------------------------------|----------------------------------------|
D|-----------4-----------------4----------|-----------4-----------------4----------|
A|----------------------------------------|----------------------------------------|
E|-2---2--2-----2--2--2--0--2-----2-------|-2---2--2-----2--2--2--0--2-----2-------|


G|-------------------------------------------------|-------------------------------------------------|
D|-------------------------------------------------|-------------------------------------------------|
A|-9--9--9--9--9--9--9--9--8--8--8--8--8--8--8--8--|-7--7--7--7--7--7--7--7--6--6--6--6--6--6--6--6--|
E|-------------------------------------------------|-------------------------------------------------|


G|-------------------------------------------------|-------------------------------------------------|
D|-------------------------------------------------|-------------------------------------------------|
A|-9--9--9--9--9--9--9--9--8--8--8--8--8--8--8--8--|-7--7--7--7--7--7--7--7--6--6--6--6--6--6--6--6--|
E|-------------------------------------------------|-------------------------------------------------|


G|-------------------------------------------------|-------------------------------------------------|
D|-------------------------------------------------|-------------------------------------------------|
A|-9--9--9--9--9--9--9--9--8--8--8--8--8--8--8--8--|-7--7--7--7--7--7--7--7--6--6--6--6--6--6--6--6--|
E|-------------------------------------------------|-------------------------------------------------|


G|-------------------------------------------------|----------------------------------------|
D|-------------------------------------------------|----------------------------------------|
A|-5--5--5--5--5--5--5--5--4--4--4--4--4--4--4--4--|-3--3--3--3--3--3--3--3--0----1----2----|
E|-------------------------------------------------|----------------------------------------|


G|-----------------------------|-----------------------------|-----------------------------|
D|-----------4-----------------|-----------4-----------------|-----------4-----------------|
A|-----------------------------|-----------------------------|-----------------------------|
E|-2---2--2-----2--2--2--------|-2---2--2-----2--2--2--------|-2---2--2-----2--2--2--------|


G|-----------------------------|-------------------------------------------------|
D|-----------4-----------------|-------------------------------------------------|
A|-----------------------------|-9--9--9--9--9--9--9--9--8--8--8--8--8--8--8--8--|
E|-2---2--2-----2--2--2--------|-------------------------------------------------|


G|-------------------------------------------------|-------------------------------------------------|
D|-------------------------------------------------|-------------------------------------------------|
A|-7--7--7--7--7--7--7--7--6--6--6--6--6--6--6--6--|-9--9--9--9--9--9--9--9--8--8--8--8--8--8--8--8--|
E|-------------------------------------------------|-------------------------------------------------|


G|-------------------------------------------------|-------------------------------------------------|
D|-------------------------------------------------|-------------------------------------------------|
A|-7--7--7--7--7--7--7--7--6--6--6--6--6--6--6--6--|-9--9--9--9--9--9--9--9--8--8--8--8--8--8--8--8--|
E|-------------------------------------------------|-------------------------------------------------|


G|-------------------------------------------------|-------------------------------------------------|
D|-------------------------------------------------|-------------------------------------------------|
A|-7--7--7--7--7--7--7--7--6--6--6--6--6--6--6--6--|-5--5--5--5--5--5--5--5--4--4--4--4--4--4--4--4--|
E|-------------------------------------------------|-------------------------------------------------|


G|----------------------------------------|-----------------------------|-----------------------------|
D|----------------------------------------|-----------4-----------------|-----------4-----------------|
A|-3--3--3--3--3--3--3--3--0----1----2----|-----------------------------|-----------------------------|
E|----------------------------------------|-2---2--2-----2--2--2--------|-2---2--2-----2--2--2--------|


G|-----------------------------|-----------------------------|-----------------------------|
D|-----------4-----------------|-----------4-----------------|-----------4-----------------|
A|-----------------------------|-----------------------------|-----------------------------|
E|-2---2--2-----2--2--2--------|-2---2--2-----2--2--2--------|-2---2--2-----2--2--2--------|


G|-----------------------------|-----------------------------|-----------------------------|
D|-----------4-----------------|-----------4-----------------|-----------4-----------------|
A|-----------------------------|-----------------------------|-----------------------------|
E|-2---2--2-----2--2--2--------|-2---2--2-----2--2--2--------|-2---2--2-----2--2--2--------|


G|-------------|
D|-------------|
A|-------------|
E|-2-----------|