Menu:

 

Search:

 

megadeth - skin o my teeth:

 



Title: Skin O' My Teeth
Artist: 
Album: Countdown To Extinction
Author: Dave Mustaine


Track 1: Rhythm Guitar (Mustaine)

E|--------|--------|---------------------|---------------------|---------------------------------|
B|--------|--------|---------------------|---------------------|---------------------------------|
G|--------|--------|---------------------|---------------------|---------------------------------|
D|--------|--------|---------------------|---------------------|-7-----------7-----------7-------|
A|--------|--------|-7-----6---6----5----|-5---4-----3----2----|-0---0---0---0---0---0---0---0---|
E|--------|--------|-5-----4---4----3----|-3---2-----1----0----|---------------------------------|


E|---------------------------------|---------------------------------|---------------------------------|
B|---------------------------------|---------------------------------|---------------------------------|
G|---------5-------7---7---5-------|---------------------------------|---------5-------7---7---5-------|
D|-----7---5---7---7---7---5-------|-7-----------7-----------7-------|-----7---5---7---7---7---5-------|
A|-0---7-----------------------0---|-0---0---0---0---0---0---0---0---|-0---7-----------------------0---|
E|---------------------------------|---------------------------------|---------------------------------|


E|---------------------------------|---------------------------------|---------------------------------|
B|---------------------------------|---------------------------------|---------------------------------|
G|---------------------------------|---------5-------7---7---5-------|---------------------------------|
D|-7-----------7-----------7-------|-----7---5---7---7---7---5-------|-7-----------7-----------7-------|
A|-0---0---0---0---0---0---0---0---|-0---7-----------------------0---|-0---0---0---0---0---0---0-------|
E|---------------------------------|---------------------------------|---------------------------------|


E|--------|------------------------------|---------------------------------|------------------------------|
B|--------|------------------------------|---------------------------------|------------------------------|
G|--------|------------------------------|---------5-------7---7---5-------|------------------------------|
D|--------|-2-----------5-----------7----|-7---7---5---7---7---7---5-------|-2-----------5-----------2----|
A|--------|-0---0---0---3---3---3---5----|-5---7-----------------------0---|-0---0---0---3---3-------0----|
E|--------|------------------------------|---------------------------------|---------------------3--------|


E|---------------------------------|------------------------------|---------------------------------|
B|---------------------------------|------------------------------|---------------------------------|
G|---------5-------7---7---5-------|------------------------------|---------5-------7---7---5-------|
D|-2---7---5---7---7---7---5-------|-2-----------5-----------7----|-7---7---5---7---7---7---5-------|
A|-0---7-----------------------0---|-0---0---0---3---3---3---5----|-5---7-----------------------0---|
E|---------------------------------|------------------------------|---------------------------------|


E|------------------------------|---------------------------------|------------------------------|
B|------------------------------|---------------------------------|------------------------------|
G|------------------------------|---------5-------7---7---5-------|------------------------------|
D|-2-----------5-----------2----|-2---7---5---7---7---7---5-------|-2-----------5-----------7----|
A|-0---0---0---3---3-------0----|-0---7-----------------------0---|-0---0---0---3---3---3---5----|
E|---------------------3--------|---------------------------------|------------------------------|


E|---------------------------------|------------------------------|---------------------------------|
B|---------------------------------|------------------------------|---------------------------------|
G|---------5-------7---7---5-------|------------------------------|---------5-------7---7---5-------|
D|-7---7---5---7---7---7---5-------|-2-----------5-----------2----|-2---7---5---7---7---7---5-------|
A|-5---7-----------------------0---|-0---0---0---3---3-------0----|-0---7-----------------------0---|
E|---------------------------------|---------------------3--------|---------------------------------|


E|------------------------------|---------------------------------|------------------------------|
B|------------------------------|---------------------------------|------------------------------|
G|------------------------------|---------5-------7---7---5-------|------------------------------|
D|-2-----------5-----------7----|-7---7---5---7---7---7---5-------|-2-----------5-----------2----|
A|-0---0---0---3---3---3---5----|-5---7-----------------------0---|-0---0---0---3---3-------0----|
E|------------------------------|---------------------------------|---------------------3--------|


E|--------|---------------------------|---------------------------------|---------------------------|
B|--------|---------------------------|---------------------------------|---------------------------|
G|--------|---------------------------|---------5-------7---7---5-------|---------------------------|
D|-2------|-7--------7--------7-------|-----7---5---7---7---7---5-------|-3--------3--------3-------|
A|-0------|---------------------------|-----7-----------------------0---|-----------------------5---|
E|--------|-----5--------4--------3---|-3-------------------------------|-----1--------0------------|


E|---------------------------------|---------------------------|---------------------------------|
B|---------------------------------|---------------------------|---------------------------------|
G|---------5-------7---7---5-------|---------------------------|---------5-------7---7---5-------|
D|-----7---5---7---7---7---5-------|-7--------7--------7-------|-----7---5---7---7---7---5-------|
A|-5---7-----------------------0---|---------------------------|-----7-----------------------0---|
E|---------------------------------|-----5--------4--------3---|-3-------------------------------|


E|---------------------------|---------------------------------|---------------------------|
B|---------------------------|---------------------------------|---------------------------|
G|---------------------------|---------5-------7---7---5-------|---------------------------|
D|-3--------3--------3-------|-----7---5---7---7---7---5-------|-7--------7--------7-------|
A|-----------------------5---|-5---7-----------------------0---|---------------------------|
E|-----1--------0------------|---------------------------------|-----5--------4--------3---|


E|---------------------------------|---------------------------|---------------------------------|
B|---------------------------------|---------------------------|---------------------------------|
G|---------5-------7---7---5-------|---------------------------|---------5-------7---7---5-------|
D|-----7---5---7---7---7---5-------|-3--------3--------3-------|-----7---5---7---7---7---5-------|
A|-----7-----------------------0---|-----------------------5---|-5---7-----------------------0---|
E|-3-------------------------------|-----1--------0------------|---------------------------------|


E|---------------------------|---------------------------------|---------------------------|
B|---------------------------|---------------------------------|---------------------------|
G|---------------------------|---------5-------7---7---5-------|---------------------------|
D|-7--------7--------7-------|-----7---5---7---7---7---5-------|-3--------3--------3-------|
A|---------------------------|-----7-----------------------0---|-----------------------5---|
E|-----5--------4--------3---|-3-------------------------------|-----1--------0------------|


E|--------|------------|------------------------------|---------------------------------|
B|--------|------------|------------------------------|---------------------------------|
G|--------|------------|------------------------------|---------5-------7---7---5-------|
D|--------|------------|-2-----------5-----------7----|-7---7---5---7---7---7---5-------|
A|-5------|-5------5---|-0---0---0---3---3---3---5----|-5---7-----------------------0---|
E|--------|------------|------------------------------|---------------------------------|


E|------------------------------|---------------------------------|------------------------------|
B|------------------------------|---------------------------------|------------------------------|
G|------------------------------|---------5-------7---7---5-------|------------------------------|
D|-2-----------5-----------2----|-2---7---5---7---7---7---5-------|-2-----------5-----------7----|
A|-0---0---0---3---3-------0----|-0---7-----------------------0---|-0---0---0---3---3---3---5----|
E|---------------------3--------|---------------------------------|------------------------------|


E|---------------------------------|------------------------------|---------------------------------|
B|---------------------------------|------------------------------|---------------------------------|
G|---------5-------7---7---5-------|------------------------------|---------5-------7---7---5-------|
D|-7---7---5---7---7---7---5-------|-2-----------5-----------2----|-2---7---5---7---7---7---5-------|
A|-5---7-----------------------0---|-0---0---0---3---3-------0----|-0---7-----------------------0---|
E|---------------------------------|---------------------3--------|---------------------------------|


E|------------------------------|---------------------------------|------------------------------|
B|------------------------------|---------------------------------|------------------------------|
G|------------------------------|---------5-------7---7---5-------|------------------------------|
D|-2-----------5-----------7----|-7---7---5---7---7---7---5-------|-2-----------5-----------2----|
A|-0---0---0---3---3---3---5----|-5---7-----------------------0---|-0---0---0---3---3-------0----|
E|------------------------------|---------------------------------|---------------------3--------|


E|---------------------------------|------------------------------|---------------------------------|
B|---------------------------------|------------------------------|---------------------------------|
G|---------5-------7---7---5-------|------------------------------|---------5-------7---7---5-------|
D|-2---7---5---7---7---7---5-------|-2-----------5-----------7----|-7---7---5---7---7---7---5-------|
A|-0---7-----------------------0---|-0---0---0---3---3---3---5----|-5---7-----------------------0---|
E|---------------------------------|------------------------------|---------------------------------|


E|------------------------------|--------|---------------------------|---------------------------------|
B|------------------------------|--------|---------------------------|---------------------------------|
G|------------------------------|--------|---------------------------|---------5-------7---7---5-------|
D|-2-----------5-----------2----|-2------|-7--------7--------7-------|-----7---5---7---7---7---5-------|
A|-0---0---0---3---3-------0----|-0------|---------------------------|-----7-----------------------0---|
E|---------------------3--------|--------|-----5--------4--------3---|-3-------------------------------|


E|---------------------------|---------------------------------|---------------------------|
B|---------------------------|---------------------------------|---------------------------|
G|---------------------------|---------5-------7---7---5-------|---------------------------|
D|-3--------3--------3-------|-----7---5---7---7---7---5-------|-7--------7--------7-------|
A|-----------------------5---|-5---7-----------------------0---|---------------------------|
E|-----1--------0------------|---------------------------------|-----5--------4--------3---|


E|---------------------------------|---------------------------|---------------------------------|
B|---------------------------------|---------------------------|---------------------------------|
G|---------5-------7---7---5-------|---------------------------|---------5-------7---7---5-------|
D|-----7---5---7---7---7---5-------|-3--------3--------3-------|-----7---5---7---7---7---5-------|
A|-----7-----------------------0---|-----------------------5---|-5---7-----------------------0---|
E|-3-------------------------------|-----1--------0------------|---------------------------------|


E|---------------------------|---------------------------------|---------------------------|
B|---------------------------|---------------------------------|---------------------------|
G|---------------------------|---------5-------7---7---5-------|---------------------------|
D|-7--------7--------7-------|-----7---5---7---7---7---5-------|-3--------3--------3-------|
A|---------------------------|-----7-----------------------0---|-----------------------5---|
E|-----5--------4--------3---|-3-------------------------------|-----1--------0------------|


E|---------------------------------|---------------------------|---------------------------------|
B|---------------------------------|---------------------------|---------------------------------|
G|---------5-------7---7---5-------|---------------------------|---------5-------7---7---5-------|
D|-----7---5---7---7---7---5-------|-7--------7--------7-------|-----7---5---7---7---7---5-------|
A|-5---7-----------------------0---|---------------------------|-----7-----------------------0---|
E|---------------------------------|-----5--------4--------3---|-3-------------------------------|


E|---------------------------|--------|------------|------------------------------|
B|---------------------------|--------|------------|------------------------------|
G|---------------------------|--------|------------|------------------------------|
D|-3--------3--------3-------|--------|------------|------------------------------|
A|-----------------------5---|-5------|-5------5---|-------------3----------------|
E|-----1--------0------------|--------|------------|-5---3---0-----------3---5----|


E|---------------------------------|------------------------------|---------------------------------|
B|---------------------------------|------------------------------|---------------------------------|
G|---------------------------------|------------------------------|---------------------------------|
D|---------------------------------|------------------------------|---------------------------------|
A|-----3---------------------------|-------------3----------------|-----3---------------------------|
E|-5-------5---3---5---3---2---0---|-5---3---0-----------3---5----|-5-------5---3---5---3---2---0---|


E|------------------------------|---------------------------|------------------------------|
B|------------------------------|---------------------------|------------------------------|
G|------------------------------|---------------------------|------------------------------|
D|---------4-----------5--------|-----7---7---7---7---5-----|------------------------------|
A|-----4-----------5-------7----|-7---5---5---5---5---3-----|-------------3----------------|
E|-2-----------3-----------5----|-5-------------------------|-5---3---0-----------3---5----|


E|------------------------------|------------------------------|---------------------------------|
B|------------------------------|------------------------------|---------------------------------|
G|-----7---7---7---7---9---9----|------------------------------|---------------------------------|
D|-----5---5---5---5---7---7----|------------------------------|---------------------------------|
A|------------------------------|-------------3----------------|-----3---------------------------|
E|-5----------------------------|-5---3---0-----------3---5----|-5-------5---3---5---3---2---0---|


E|------------------------------|---------------------------------|------------------------------|
B|------------------------------|---------------------------------|------------------------------|
G|------------------------------|---------------------------------|------------------------------|
D|------------------------------|---------------------------------|---------4-----------5--------|
A|-------------3----------------|-----3---------------------------|-----4-----------5-------7----|
E|-5---3---0-----------3---5----|-5-------5---3---5---3---2---0---|-2-----------3-----------5----|


E|---------------------------|------------------------------|------------------------------|
B|---------------------------|------------------------------|------------------------------|
G|---------------------------|------------------------------|-----7---7---7---7---9---9----|
D|-----7---7---7---7---5-----|------------------------------|-----5---5---5---5---7---7----|
A|-7---5---5---5---5---3-----|-------------3----------------|------------------------------|
E|-5-------------------------|-5---3---0-----------3---5----|-5----------------------------|


E|------------------------------|---------------------------------|------------------------------|
B|------------------------------|---------------------------------|------------------------------|
G|------------------------------|---------------------------------|------------------------------|
D|------------------------------|---------------------------------|------------------------------|
A|-2-----------5-----------2----|-2---5---2-------2---------------|-2-----------5-----------2----|
E|-----5---2-----------5--------|-------------5-------5---4---2---|-----5---2-----------5--------|


E|---------------------------------|------------------------------|---------------------------------|
B|---------------------------------|------------------------------|---------------------------------|
G|---------------------------------|------------------------------|---------------------------------|
D|---------------------------------|------------------------------|---------------------------------|
A|-2---5---2-------2---------------|-2-----------5-----------2----|-2---5---2-------2---------------|
E|-------------5-------5---4---2---|-----5---2-----------5--------|-------------5-------5---4---2---|


E|------------------------------|---------------------|------------------------------|
B|------------------------------|---------------------|------------------------------|
G|------------------------------|---------------------|------------------------------|
D|-------------------------4----|-4---3-----2---------|------------------------------|
A|-2-----------5-----------2----|-2---1-----0----5----|-------------3----------------|
E|-----5---2-----------5--------|----------------3----|-5---3---0-----------3---5----|


E|---------------------------------|------------------------------|---------------------------------|
B|---------------------------------|------------------------------|---------------------------------|
G|---------------------------------|------------------------------|---------------------------------|
D|---------------------------------|------------------------------|---------------------------------|
A|-----3---------------------------|-------------3----------------|-----3---------------------------|
E|-5-------5---3---5---3---2---0---|-5---3---0-----------3---5----|-5-------5---3---5---3---2---0---|


E|------------------------------|---------------------------|------------------------------|
B|------------------------------|---------------------------|------------------------------|
G|------------------------------|---------------------------|------------------------------|
D|---------4-----------5--------|-----7---7---7---7---5-----|------------------------------|
A|-----4-----------5-------7----|-7---5---5---5---5---3-----|-------------3----------------|
E|-2-----------3-----------5----|-5-------------------------|-5---3---0-----------3---5----|


E|------------------------------|---------------------|---------------------|---------------------------------|
B|------------------------------|---------------------|---------------------|---------------------------------|
G|-----7---7---7---7---9---9----|---------------------|---------------------|---------------------------------|
D|-----5---5---5---5---7---7----|---------------------|---------------------|-7-----------7-----------7-------|
A|------------------------------|-7-----6---6----5----|-5---4-----3----2----|-0---0---0---0---0---0---0---0---|
E|-5----------------------------|-5-----4---4----3----|-3---2-----1----0----|---------------------------------|


E|---------------------------------|---------------------------------|---------------------------------|
B|---------------------------------|---------------------------------|---------------------------------|
G|---------5-------7---7---5-------|---------------------------------|---------5-------7---7---5-------|
D|-----7---5---7---7---7---5-------|-7-----------7-----------7-------|-----7---5---7---7---7---5-------|
A|-0---7-----------------------0---|-0---0---0---0---0---0---0---0---|-0---7-----------------------0---|
E|---------------------------------|---------------------------------|---------------------------------|


E|---------------------------------|---------------------------------|---------------------------------|
B|---------------------------------|---------------------------------|---------------------------------|
G|---------------------------------|---------5-------7---7---5-------|---------------------------------|
D|-7-----------7-----------7-------|-----7---5---7---7---7---5-------|-7-----------7-----------7-------|
A|-0---0---0---0---0---0---0---0---|-0---7-----------------------0---|-0---0---0---0---0---0---0-------|
E|---------------------------------|---------------------------------|---------------------------------|


E|-------------------------------|------------------------------|---------------------------------|
B|-------------------------------|------------------------------|---------------------------------|
G|-------------------------------|------------------------------|---------5-------7---7---5-------|
D|-------------------------------|-2-----------5-----------7----|-7---7---5---7---7---7---5-------|
A|-------------------------------|-0---0---0---3---3---3---5----|-5---7-----------------------0---|
E|-17---15---15---17---15---15---|------------------------------|---------------------------------|


E|------------------------------|---------------------------------|------------------------------|
B|------------------------------|---------------------------------|------------------------------|
G|------------------------------|---------5-------7---7---5-------|------------------------------|
D|-2-----------5-----------2----|-2---7---5---7---7---7---5-------|-2-----------5-----------7----|
A|-0---0---0---3---3-------0----|-0---7-----------------------0---|-0---0---0---3---3---3---5----|
E|---------------------3--------|---------------------------------|------------------------------|


E|---------------------------------|------------------------------|---------------------------------|
B|---------------------------------|------------------------------|---------------------------------|
G|---------5-------7---7---5-------|------------------------------|---------5-------7---7---5-------|
D|-7---7---5---7---7---7---5-------|-2-----------5-----------2----|-2---7---5---7---7---7---5-------|
A|-5---7-----------------------0---|-0---0---0---3---3-------0----|-0---7-----------------------0---|
E|---------------------------------|---------------------3--------|---------------------------------|


E|------------------------------|---------------------------------|------------------------------|
B|------------------------------|---------------------------------|------------------------------|
G|------------------------------|---------5-------7---7---5-------|------------------------------|
D|-2-----------5-----------7----|-7---7---5---7---7---7---5-------|-2-----------5-----------2----|
A|-0---0---0---3---3---3---5----|-5---7-----------------------0---|-0---0---0---3---3-------0----|
E|------------------------------|---------------------------------|---------------------3--------|


E|---------------------------------|------------------------------|---------------------------------|
B|---------------------------------|------------------------------|---------------------------------|
G|---------5-------7---7---5-------|------------------------------|---------5-------7---7---5-------|
D|-2---7---5---7---7---7---5-------|-2-----------5-----------7----|-7---7---5---7---7---7---5-------|
A|-0---7-----------------------0---|-0---0---0---3---3---3---5----|-5---7-----------------------0---|
E|---------------------------------|------------------------------|---------------------------------|


E|------------------------------|--------|---------------------------|---------------------------------|
B|------------------------------|--------|---------------------------|---------------------------------|
G|------------------------------|--------|---------------------------|---------5-------7---7---5-------|
D|-2-----------5-----------2----|-2------|-7--------7--------7-------|-----7---5---7---7---7---5-------|
A|-0---0---0---3---3-------0----|-0------|---------------------------|-----7-----------------------0---|
E|---------------------3--------|--------|-----5--------4--------3---|-3-------------------------------|


E|---------------------------|---------------------------------|---------------------------|
B|---------------------------|---------------------------------|---------------------------|
G|---------------------------|---------5-------7---7---5-------|---------------------------|
D|-3--------3--------3-------|-----7---5---7---7---7---5-------|-7--------7--------7-------|
A|-----------------------5---|-5---7-----------------------0---|---------------------------|
E|-----1--------0------------|---------------------------------|-----5--------4--------3---|


E|---------------------------------|---------------------------|---------------------------------|
B|---------------------------------|---------------------------|---------------------------------|
G|---------5-------7---7---5-------|---------------------------|---------5-------7---7---5-------|
D|-----7---5---7---7---7---5-------|-3--------3--------3-------|-----7---5---7---7---7---5-------|
A|-----7-----------------------0---|-----------------------5---|-5---7-----------------------0---|
E|-3-------------------------------|-----1--------0------------|---------------------------------|


E|---------------------------|---------------------------------|---------------------------|
B|---------------------------|---------------------------------|---------------------------|
G|---------------------------|---------5-------7---7---5-------|---------------------------|
D|-7--------7--------7-------|-----7---5---7---7---7---5-------|-3--------3--------3-------|
A|---------------------------|-----7-----------------------0---|-----------------------5---|
E|-----5--------4--------3---|-3-------------------------------|-----1--------0------------|


E|---------------------------------|---------------------------|---------------------------------|
B|---------------------------------|---------------------------|---------------------------------|
G|---------5-------7---7---5-------|---------------------------|---------5-------7---7---5-------|
D|-----7---5---7---7---7---5-------|-7--------7--------7-------|-----7---5---7---7---7---5-------|
A|-5---7-----------------------0---|---------------------------|-----7-----------------------0---|
E|---------------------------------|-----5--------4--------3---|-3-------------------------------|


E|---------------------------|--------|--------|--------|--------|------------------------------|
B|---------------------------|--------|--------|--------|--------|------------------------------|
G|---------------------------|--------|--------|--------|--------|------------------------------|
D|-3--------3--------3-------|--------|--------|--------|--------|-2-----------5-----------7----|
A|-----------------------5---|-5------|-5------|-5------|-5------|-0---0---0---3---3---3---5----|
E|-----1--------0------------|--------|--------|--------|--------|------------------------------|


E|---------------------------------|------------------------------|
B|---------------------------------|------------------------------|
G|---------5-------7---7---5-------|------------------------------|
D|-7---7---5---7---7---7---5-------|------------------------------|
A|-5---7-----------------------0---|-------------0---0---3--------|
E|---------------------------------|-5---3---0---0---0-------5----|





Track 2: Lead Guitar

E|--------|--------|--------|--------|--------|--------|--------|--------|--------|
B|--------|--------|--------|--------|--------|--------|--------|--------|--------|
G|--------|--------|--------|--------|--------|--------|--------|--------|--------|
D|--------|--------|--------|--------|--------|--------|--------|--------|--------|
A|--------|--------|--------|--------|--------|--------|--------|--------|--------|
E|--------|--------|--------|--------|--------|--------|--------|--------|--------|


E|--------|--------|--------|--------|--------|--------|--------|--------|--------|
B|--------|--------|--------|--------|--------|--------|--------|--------|--------|
G|--------|--------|--------|--------|--------|--------|--------|--------|--------|
D|--------|--------|--------|--------|--------|--------|--------|--------|--------|
A|--------|--------|--------|--------|--------|--------|--------|--------|--------|
E|--------|--------|--------|--------|--------|--------|--------|--------|--------|


E|--------|--------|--------|--------|--------|--------|--------|--------|--------|
B|--------|--------|--------|--------|--------|--------|--------|--------|--------|
G|--------|--------|--------|--------|--------|--------|--------|--------|--------|
D|--------|--------|--------|--------|--------|--------|--------|--------|--------|
A|--------|--------|--------|--------|--------|--------|--------|--------|--------|
E|--------|--------|--------|--------|--------|--------|--------|--------|--------|


E|--------|--------|--------|--------|--------|--------|--------|--------|--------|
B|--------|--------|--------|--------|--------|--------|--------|--------|--------|
G|--------|--------|--------|--------|--------|--------|--------|--------|--------|
D|--------|--------|--------|--------|--------|--------|--------|--------|--------|
A|--------|--------|--------|--------|--------|--------|--------|--------|--------|
E|--------|--------|--------|--------|--------|--------|--------|--------|--------|


E|--------|--------|--------|--------|--------|--------|--------|--------|--------|
B|--------|--------|--------|--------|--------|--------|--------|--------|--------|
G|--------|--------|--------|--------|--------|--------|--------|--------|--------|
D|--------|--------|--------|--------|--------|--------|--------|--------|--------|
A|--------|--------|--------|--------|--------|--------|--------|--------|--------|
E|--------|--------|--------|--------|--------|--------|--------|--------|--------|


E|--------|--------|--------|--------|--------|--------|--------|--------|--------|
B|--------|--------|--------|--------|--------|--------|--------|--------|--------|
G|--------|--------|--------|--------|--------|--------|--------|--------|--------|
D|--------|--------|--------|--------|--------|--------|--------|--------|--------|
A|--------|--------|--------|--------|--------|--------|--------|--------|--------|
E|--------|--------|--------|--------|--------|--------|--------|--------|--------|


E|--------|--------|--------|--------|--------|--------|--------|--------|--------|
B|--------|--------|--------|--------|--------|--------|--------|--------|--------|
G|--------|--------|--------|--------|--------|--------|--------|--------|--------|
D|--------|--------|--------|--------|--------|--------|--------|--------|--------|
A|--------|--------|--------|--------|--------|--------|--------|--------|--------|
E|--------|--------|--------|--------|--------|--------|--------|--------|--------|


E|--------|--------|--------|--------|--------|--------|--------|--------|--------|
B|--------|--------|--------|--------|--------|--------|--------|--------|--------|
G|--------|--------|--------|--------|--------|--------|--------|--------|--------|
D|--------|--------|--------|--------|--------|--------|--------|--------|--------|
A|--------|--------|--------|--------|--------|--------|--------|--------|--------|
E|--------|--------|--------|--------|--------|--------|--------|--------|--------|


E|--------|--------|--------|--------|--------|--------|-------------|-----12--8-------8---------------|
B|--------|--------|--------|--------|--------|--------|-8----8------|-------------12------12--10------|
G|--------|--------|--------|--------|--------|--------|-------------|-0---------------------------9---|
D|--------|--------|--------|--------|--------|--------|-------------|-0-------------------------------|
A|--------|--------|--------|--------|--------|--------|-------------|---------------------------------|
E|--------|--------|--------|--------|--------|--------|-------------|---------------------------------|


E|-------------|-0---15--15---------|-15--15--14--14--14-----------|--------------15-------------------|
B|-12---12-----|--------------15----|---------------------15--15---|-15---13--15------15-13----13------|
G|-------------|--------------------|------------------------------|------------------------14----14---|
D|-------------|--------------------|------------------------------|-----------------------------------|
A|-------------|--------------------|------------------------------|-----------------------------------|
E|-------------|--------------------|------------------------------|-----------------------------------|


E|-------------------------------------|---------------------------12--|-17--12----------12--15--14--12------12--15--12--|
B|-----13--15--15--15--15--13--15--15--|-15--15--13--------13--14------|---------14--15------------------15--------------|
G|-14----------------------------------|-------------14----------------|-------------------------------------------------|
D|-------------------------------------|-------------------------------|-------------------------------------------------|
A|-------------------------------------|-------------------------------|-------------------------------------------------|
E|-------------------------------------|-------------------------------|-------------------------------------------------|


E|-19--12------12----------------------------------|-------------------------------------------------|
B|---------15------15--13------13--15--16--15--13--|-----13--15--12-13-12----12----------------------|
G|-------------------------14----------------------|-14-------------------14-----14--12--11-12-11----|
D|-------------------------------------------------|----------------------------------------------14-|
A|-------------------------------------------------|-------------------------------------------------|
E|-------------------------------------------------|-------------------------------------------------|


E|---------------------------|---------------------------------|---------------------------|
B|---------------------------|-----7-----------8-----------10--|---------------------------|
G|-------------------14------|---------------------------------|-----9---9---9---9----9----|
D|-10---10---10--19--14--12--|-4-------4---5-------5---7-------|-7-------------------------|
A|-----------------------12--|---------------------------------|---------------------------|
E|---------------------------|---------------------------------|---------------------------|


E|-----------------------------|---------------------------------8---|------------------7------------|
B|-----------------------------|-----------------------------10------|-10---10---10--7-----10-7------|
G|-9-------9------8----7---5---|-5---5-------------------9-----------|---------------------------9---|
D|-----------------------------|---------7---7---5---10--------------|-------------------------------|
A|-----------------------------|-------------------------------------|-------------------------------|
E|-----------------------------|-------------------------------------|-------------------------------|


E|------------7------------7-------------|----------------7--------------------------|
B|---------------10-7---------10-7---7---|-------------7-----10-7-----7--------------|
G|-9---9---9-----------9-----------------|-9---9---9---------------10----10-9--7-----|
D|---------------------------------------|----------------------------------------9--|
A|---------------------------------------|-------------------------------------------|
E|---------------------------------------|-------------------------------------------|


E|---------------------------|----------------------------------------------------|
B|---------------------------|-15-17-15----15-17-14-15-14----14-------12-14-12----|
G|-9---7-----7---2---4---16--|----------16----------------16----16-15----------14-|
D|---------------------------|----------------------------------------------------|
A|---------------------------|----------------------------------------------------|
E|---------------------------|----------------------------------------------------|


E|-----------------------------------|-----------------12-----14-12----13-11-----|
B|-12-14-12----12--------------------|-----12--15--14------15-------15-------12--|
G|----------14----14-13-14-11----14--|-13----------------------------------------|
D|-----------------------------------|-------------------------------------------|
A|-----------------------------------|-------------------------------------------|
E|-----------------------------------|-------------------------------------------|


E|-11--13-10-----10--12-9-----9--11-8------|-----------------------------------------17----------|
B|-----------11------------10----------9---|---------14--17--14--------------14--17-----17-14----|
G|-----------------------------------------|-14--17--------------17--14--17-------------------17-|
D|-----------------------------------------|-----------------------------------------------------|
A|-----------------------------------------|-----------------------------------------------------|
E|-----------------------------------------|-----------------------------------------------------|


E|----------------------------------------|-------------------------------17----------------|
B|--------14-17-14-17-14-17---17----------|-14--17--14--------------14-17----14-16------16--|
G|-14--17-------------------------14--17--|-------------17--14--17------------------17------|
D|----------------------------------------|-------------------------------------------------|
A|----------------------------------------|-------------------------------------------------|
E|----------------------------------------|-------------------------------------------------|


E|----17----------------------17----------|------------------------------------|-----------------------------------------17--|
B|-17----20-17-20-17-20--20-------20--17--|-20---20---20---20--20--20--20--17--|---------------------------------15--17------|
G|----------------------------------------|------------------------------------|-19--19--17--19--17--17--17--17--------------|
D|----------------------------------------|------------------------------------|---------------------------------------------|
A|----------------------------------------|------------------------------------|---------------------------------------------|
E|----------------------------------------|------------------------------------|---------------------------------------------|


E|-20--20--17--------------------------17--|-------------------------------|---------------------|
B|-------------20--17----------17----------|-------------------------------|---------------------|
G|---------------------19--20------20------|-19--20--17--19--17------------|---------------------|
D|-----------------------------------------|---------------------19---19---|-7-----6---6----5----|
A|-----------------------------------------|-------------------------------|---------------------|
E|-----------------------------------------|-------------------------------|---------------------|


E|---------------------|-----------------|--------|--------|--------|--------|--------|
B|---------------------|-----------------|--------|--------|--------|--------|--------|
G|---------------------|-----------------|--------|--------|--------|--------|--------|
D|-5---4-----3----2----|-----------------|--------|--------|--------|--------|--------|
A|---------------------|-0---------------|--------|--------|--------|--------|--------|
E|---------------------|-----------------|--------|--------|--------|--------|--------|


E|--------|--------|--------|--------|--------|--------|--------|--------|--------|
B|--------|--------|--------|--------|--------|--------|--------|--------|--------|
G|--------|--------|--------|--------|--------|--------|--------|--------|--------|
D|--------|--------|--------|--------|--------|--------|--------|--------|--------|
A|--------|--------|--------|--------|--------|--------|--------|--------|--------|
E|--------|--------|--------|--------|--------|--------|--------|--------|--------|


E|--------|--------|--------|--------|--------|--------|--------|--------|--------|
B|--------|--------|--------|--------|--------|--------|--------|--------|--------|
G|--------|--------|--------|--------|--------|--------|--------|--------|--------|
D|--------|--------|--------|--------|--------|--------|--------|--------|--------|
A|--------|--------|--------|--------|--------|--------|--------|--------|--------|
E|--------|--------|--------|--------|--------|--------|--------|--------|--------|


E|--------|--------|--------|--------|--------|--------|--------|--------|--------|
B|--------|--------|--------|--------|--------|--------|--------|--------|--------|
G|--------|--------|--------|--------|--------|--------|--------|--------|--------|
D|--------|--------|--------|--------|--------|--------|--------|--------|--------|
A|--------|--------|--------|--------|--------|--------|--------|--------|--------|
E|--------|--------|--------|--------|--------|--------|--------|--------|--------|


E|--------|--------|--------|--------|--------|--------|--------|--------|--------|
B|--------|--------|--------|--------|--------|--------|--------|--------|--------|
G|--------|--------|--------|--------|--------|--------|--------|--------|--------|
D|--------|--------|--------|--------|--------|--------|--------|--------|--------|
A|--------|--------|--------|--------|--------|--------|--------|--------|--------|
E|--------|--------|--------|--------|--------|--------|--------|--------|--------|


E|--------|--------|--------|--------|
B|--------|--------|--------|--------|
G|--------|--------|--------|--------|
D|--------|--------|--------|--------|
A|--------|--------|--------|--------|
E|--------|--------|--------|--------|





Track 3: Untitled

G|--------|--------|--------|--------|--------|--------|--------|--------|--------|
D|--------|--------|--------|--------|--------|--------|--------|--------|--------|
A|--------|--------|--------|--------|--------|--------|--------|--------|--------|
E|--------|--------|--------|--------|--------|--------|--------|--------|--------|


G|--------|--------|--------|--------|--------|--------|--------|--------|--------|
D|--------|--------|--------|--------|--------|--------|--------|--------|--------|
A|--------|--------|--------|--------|--------|--------|--------|--------|--------|
E|--------|--------|--------|--------|--------|--------|--------|--------|--------|


G|--------|--------|--------|--------|--------|--------|--------|--------|--------|
D|--------|--------|--------|--------|--------|--------|--------|--------|--------|
A|--------|--------|--------|--------|--------|--------|--------|--------|--------|
E|--------|--------|--------|--------|--------|--------|--------|--------|--------|


G|--------|--------|--------|--------|--------|--------|--------|--------|--------|
D|--------|--------|--------|--------|--------|--------|--------|--------|--------|
A|--------|--------|--------|--------|--------|--------|--------|--------|--------|
E|--------|--------|--------|--------|--------|--------|--------|--------|--------|


G|--------|--------|--------|--------|--------|--------|--------|--------|--------|
D|--------|--------|--------|--------|--------|--------|--------|--------|--------|
A|--------|--------|--------|--------|--------|--------|--------|--------|--------|
E|--------|--------|--------|--------|--------|--------|--------|--------|--------|


G|--------|--------|--------|--------|--------|--------|--------|--------|--------|
D|--------|--------|--------|--------|--------|--------|--------|--------|--------|
A|--------|--------|--------|--------|--------|--------|--------|--------|--------|
E|--------|--------|--------|--------|--------|--------|--------|--------|--------|


G|--------|--------|--------|--------|--------|--------|--------|--------|--------|
D|--------|--------|--------|--------|--------|--------|--------|--------|--------|
A|--------|--------|--------|--------|--------|--------|--------|--------|--------|
E|--------|--------|--------|--------|--------|--------|--------|--------|--------|


G|--------|--------|--------|--------|--------|--------|--------|--------|--------|
D|--------|--------|--------|--------|--------|--------|--------|--------|--------|
A|--------|--------|--------|--------|--------|--------|--------|--------|--------|
E|--------|--------|--------|--------|--------|--------|--------|--------|--------|


G|--------|--------|--------|--------|--------|--------|--------|--------|--------|
D|--------|--------|--------|--------|--------|--------|--------|--------|--------|
A|--------|--------|--------|--------|--------|--------|--------|--------|--------|
E|--------|--------|--------|--------|--------|--------|--------|--------|--------|


G|--------|--------|--------|--------|--------|--------|--------|--------|--------|
D|--------|--------|--------|--------|--------|--------|--------|--------|--------|
A|--------|--------|--------|--------|--------|--------|--------|--------|--------|
E|--------|--------|--------|--------|--------|--------|--------|--------|--------|


G|--------|--------|--------|--------|--------|--------|--------|--------|--------|
D|--------|--------|--------|--------|--------|--------|--------|--------|--------|
A|--------|--------|--------|--------|--------|--------|--------|--------|--------|
E|--------|--------|--------|--------|--------|--------|--------|--------|--------|


G|--------|--------|--------|--------|--------|--------|--------|--------|--------|
D|--------|--------|--------|--------|--------|--------|--------|--------|--------|
A|--------|--------|--------|--------|--------|--------|--------|--------|--------|
E|--------|--------|--------|--------|--------|--------|--------|--------|--------|


G|--------|--------|--------|--------|--------|--------|--------|--------|--------|
D|--------|--------|--------|--------|--------|--------|--------|--------|--------|
A|--------|--------|--------|--------|--------|--------|--------|--------|--------|
E|--------|--------|--------|--------|--------|--------|--------|--------|--------|


G|--------|--------|--------|--------|--------|--------|--------|--------|--------|
D|--------|--------|--------|--------|--------|--------|--------|--------|--------|
A|--------|--------|--------|--------|--------|--------|--------|--------|--------|
E|--------|--------|--------|--------|--------|--------|--------|--------|--------|


G|--------|--------|--------|--------|--------|--------|--------|--------|--------|
D|--------|--------|--------|--------|--------|--------|--------|--------|--------|
A|--------|--------|--------|--------|--------|--------|--------|--------|--------|
E|--------|--------|--------|--------|--------|--------|--------|--------|--------|


G|--------|--------|--------|--------|--------|--------|--------|--------|--------|
D|--------|--------|--------|--------|--------|--------|--------|--------|--------|
A|--------|--------|--------|--------|--------|--------|--------|--------|--------|
E|--------|--------|--------|--------|--------|--------|--------|--------|--------|


G|--------|--------|--------|--------|--------|--------|--------|--------|--------|
D|--------|--------|--------|--------|--------|--------|--------|--------|--------|
A|--------|--------|--------|--------|--------|--------|--------|--------|--------|
E|--------|--------|--------|--------|--------|--------|--------|--------|--------|


G|--------|--------|--------|--------|--------|
D|--------|--------|--------|--------|--------|
A|--------|--------|--------|--------|--------|
E|--------|--------|--------|--------|--------|