Menu:

 

Search:

 

megadeth - sin:

 



Title: Sin
Artist: 
Album: Cryptic Writings
Author: Dave Mustaine, David Ellefson, and Nick Menza


Track 1: Distorted Guitar (w/tremolo effect)

E|--------|--------|--------|--------|--------|--------|------------------------|--------|
B|--------|--------|--------|--------|--------|--------|------------------------|--------|
G|-9------|-9------|-9------|--------|--------|--------|----------9---14---12---|-9------|
D|-9------|-9------|-9------|--------|--------|--------|----------9---14---12---|-9------|
A|--------|--------|--------|--------|--------|--------|------------------------|--------|
E|--------|--------|--------|--------|--------|--------|------------------------|--------|


E|-------------|--------|--------|--------|--------|--------|--------|--------|--------|
B|-------------|--------|--------|--------|--------|--------|--------|--------|--------|
G|-9-----------|--------|--------|--------|--------|--------|--------|--------|--------|
D|-9-----------|--------|--------|--------|--------|--------|--------|--------|--------|
A|-------------|--------|--------|--------|--------|--------|--------|--------|--------|
E|-------------|--------|--------|--------|--------|--------|--------|--------|--------|


E|--------|--------|--------|--------|--------|--------|--------|--------|--------|
B|--------|--------|--------|--------|--------|--------|--------|--------|--------|
G|--------|--------|--------|--------|--------|--------|--------|--------|--------|
D|--------|--------|--------|--------|--------|--------|--------|--------|--------|
A|--------|--------|--------|--------|--------|--------|--------|--------|--------|
E|--------|--------|--------|--------|--------|--------|--------|--------|--------|


E|--------|--------|--------|--------|--------|--------|------------|--------|--------|
B|--------|--------|--------|--------|--------|--------|------------|--------|--------|
G|--------|--------|--------|--------|--------|-9------|-9----------|--------|--------|
D|--------|--------|--------|--------|--------|-9------|-9----------|--------|--------|
A|--------|--------|--------|--------|--------|--------|------------|--------|--------|
E|--------|--------|--------|--------|--------|--------|------------|--------|--------|


E|--------|--------|--------|--------|--------|--------|--------|--------|--------|
B|--------|--------|--------|--------|--------|--------|--------|--------|--------|
G|--------|--------|--------|--------|--------|--------|--------|--------|--------|
D|--------|--------|--------|--------|--------|--------|--------|--------|--------|
A|--------|--------|--------|--------|--------|--------|--------|--------|--------|
E|--------|--------|--------|--------|--------|--------|--------|--------|--------|


E|--------|--------|--------|--------|--------|--------|--------|--------|--------|
B|--------|--------|--------|--------|--------|--------|--------|--------|--------|
G|--------|--------|--------|--------|--------|--------|--------|--------|--------|
D|--------|--------|--------|--------|--------|--------|--------|--------|--------|
A|--------|--------|--------|--------|--------|--------|--------|--------|--------|
E|--------|--------|--------|--------|--------|--------|--------|--------|--------|


E|--------|------------|--------|--------|--------|--------|--------|--------|--------|
B|--------|------------|--------|--------|--------|--------|--------|--------|--------|
G|-9------|-9----------|--------|--------|--------|--------|--------|--------|--------|
D|-9------|-9----------|--------|--------|--------|--------|--------|--------|--------|
A|--------|------------|--------|--------|--------|--------|--------|--------|--------|
E|--------|------------|--------|--------|--------|--------|--------|--------|--------|


E|--------|--------|--------|--------|--------|--------|--------|--------|--------|
B|--------|--------|--------|--------|--------|--------|--------|--------|--------|
G|--------|--------|--------|--------|--------|--------|--------|--------|--------|
D|--------|--------|--------|--------|--------|--------|--------|--------|--------|
A|--------|--------|--------|--------|--------|--------|--------|--------|--------|
E|--------|--------|--------|--------|--------|--------|--------|--------|--------|


E|--------|--------|--------|--------|--------|--------|--------|--------|--------|
B|--------|--------|--------|--------|--------|--------|--------|--------|--------|
G|--------|--------|--------|--------|--------|--------|--------|--------|--------|
D|--------|--------|--------|--------|--------|--------|--------|--------|--------|
A|--------|--------|--------|--------|--------|--------|--------|--------|--------|
E|--------|--------|--------|--------|--------|--------|--------|--------|--------|


E|--------|--------|--------|--------|--------|--------|--------|--------|--------|
B|--------|--------|--------|--------|--------|--------|--------|--------|--------|
G|--------|--------|--------|--------|--------|--------|--------|--------|--------|
D|--------|--------|--------|--------|--------|--------|--------|--------|--------|
A|--------|--------|--------|--------|--------|--------|--------|--------|--------|
E|--------|--------|--------|--------|--------|--------|--------|--------|--------|


E|--------|--------|--------|--------|--------|--------|--------|--------|--------|
B|--------|--------|--------|--------|--------|--------|--------|--------|--------|
G|--------|--------|--------|--------|--------|--------|--------|--------|--------|
D|--------|--------|--------|--------|--------|--------|--------|--------|--------|
A|--------|--------|--------|--------|--------|--------|--------|--------|--------|
E|--------|--------|--------|--------|--------|--------|--------|--------|--------|


E|--------|--------|--------|--------|--------|--------|
B|--------|--------|--------|--------|--------|--------|
G|--------|--------|--------|--------|--------|--------|
D|--------|--------|--------|--------|--------|--------|
A|--------|--------|--------|--------|--------|--------|
E|--------|--------|--------|--------|--------|--------|





Track 2: Distorted Guitar - Rhythm

E|--------|--------|------------------------------|--------|---------------------------|
B|--------|--------|------------------------------|--------|---------------------------|
G|--------|--------|------------------------------|--------|---------------------------|
D|--------|--------|------------------------------|--------|---------------------------|
A|--------|--------|------------------4-------2---|-2------|-2-------------4-------2---|
E|--------|--------|----------0---5-------3-------|-0------|-0-----0---5-------3-------|


E|--------|---------------------------|--------|---------------------------|--------|
B|--------|---------------------------|--------|---------------------------|--------|
G|--------|---------------------------|--------|---------------------------|--------|
D|--------|---------------------------|--------|---------------------------|--------|
A|-2------|-2-------------4-------2---|-2------|-2-------------4-------2---|-2------|
E|-0------|-0-----0---5-------3-------|-0------|-0-----0---5-------3-------|-0------|


E|---------------------------|------------------------------|---------------------------|
B|---------------------------|------------------------------|---------------------------|
G|---------------------------|----------------------7-------|-9-------------------------|
D|---------------------------|----------------------7-------|-9-------------------------|
A|-2-------------4-------2---|-2----2---2---2---2-----------|---------------4-------2---|
E|-0-----0---5-------3-------|-0----0---0---0---0-----------|-------0---5-------3-------|


E|------------------------------|---------------------------|------------------------------|
B|------------------------------|---------------------------|------------------------------|
G|----------------------7-------|-9-------------------------|----------------------7-------|
D|----------------------7-------|-9-------------------------|----------------------7-------|
A|-2----2---2---2---2-----------|---------------4-------2---|-2----2---2---2---2-----------|
E|-0----0---0---0---0-----------|-------0---5-------3-------|-0----0---0---0---0-----------|


E|---------------------------|------------------------------|------------------------------|
B|---------------------------|------------------------------|------------------------------|
G|-9-------------------------|------------------------------|------------------------------|
D|-9-------------------------|------------------------------|------------------------------|
A|---------------4-------2---|-2----2-----------4-------2---|-2----2-----------4-------2---|
E|-------0---5-------3-------|-0----0---0---5-------3-------|-0----0---0---5-------3-------|


E|--------------------------------|------------------------------|--------------------------------|
B|--------------------------------|------------------------------|--------------------------------|
G|--------------------------------|------------------------------|--------------------------------|
D|--------------------------------|------------------3---5---5---|--------------------------------|
A|-2---2--2--2---4---5----5---4---|-5---4---3--------1---3---3---|-----2--2--2---4---5----5---4---|
E|-0---0--0--0---2---3----3---2---|-3---2---1--------------------|-----0--0--0---2---3----3---2---|


E|------------------------------|--------------------------------|------------------------------|
B|------------------------------|--------------------------------|------------------------------|
G|------------------------------|--------------------------------|------------------------------|
D|------------------------------|--------------------------------|------------------3---5---5---|
A|-5---4---6----6---5---6---5---|-2---2--2--2---4---5----5---4---|-5---4---3--------1---3---3---|
E|-3---2---4----4---3---4---3---|-0---0--0--0---2---3----3---2---|-3---2---1--------------------|


E|--------------------------------|------------------------------|---------------------------------|
B|--------------------------------|------------------------------|---------------------------------|
G|--------------------------------|------------------------------|---------------------------------|
D|--------------------------------|------------------------------|---------------------------------|
A|-----2--2--2---4---5----5---4---|-5---4---6----6---5---6---5---|-2---3---3---3---2---3---3---3---|
E|-----0--0--0---2---3----3---2---|-3---2---4----4---3---4---3---|-0---1---1---1---0---1---1---1---|


E|---------------------------------|---------------------------------|-----------------------|
B|---------------------------------|---------------------------------|-----------------------|
G|---------------------------------|---------------------------------|-----------------------|
D|---------5---4---3---------------|---------------------------------|---------3---2---1-----|
A|-2---3---3---2---1---6---6---5---|-2---3---3---3---2---3---3---3---|-2---3---3---2---1-----|
E|-0---1---------------4---4---3---|-0---1---1---1---0---1---1---1---|-0---1-----------------|


E|--------|--------|------------------------------|---------------------------|------------------------------|
B|--------|--------|------------------------------|---------------------------|------------------------------|
G|--------|--------|----------------------7-------|-9-------------------------|----------------------7-------|
D|--------|--------|----------------------7-------|-9-------------------------|----------------------7-------|
A|--------|--------|-2----2---2---2---2-----------|---------------4-------2---|-2----2---2---2---2-----------|
E|--------|--------|-0----0---0---0---0-----------|-------0---5-------3-------|-0----0---0---0---0-----------|


E|---------------------------|------------------------------|---------------------------|
B|---------------------------|------------------------------|---------------------------|
G|-9-------------------------|----------------------7-------|-9-------------------------|
D|-9-------------------------|----------------------7-------|-9-------------------------|
A|---------------4-------2---|-2----2---2---2---2-----------|---------------4-------2---|
E|-------0---5-------3-------|-0----0---0---0---0-----------|-------0---5-------3-------|


E|------------------------------|------------------------------|--------------------------------|
B|------------------------------|------------------------------|--------------------------------|
G|------------------------------|------------------------------|--------------------------------|
D|------------------------------|------------------------------|--------------------------------|
A|-2----2-----------4-------2---|-2----2-----------4-------2---|-2---2--2--2---4---5----5---4---|
E|-0----0---0---5-------3-------|-0----0---0---5-------3-------|-0---0--0--0---2---3----3---2---|


E|------------------------------|--------------------------------|------------------------------|
B|------------------------------|--------------------------------|------------------------------|
G|------------------------------|--------------------------------|------------------------------|
D|------------------3---5---5---|--------------------------------|------------------------------|
A|-5---4---3--------1---3---3---|-----2--2--2---4---5----5---4---|-5---4---6----6---5---6---5---|
E|-3---2---1--------------------|-----0--0--0---2---3----3---2---|-3---2---4----4---3---4---3---|


E|--------------------------------|------------------------------|--------------------------------|
B|--------------------------------|------------------------------|--------------------------------|
G|--------------------------------|------------------------------|--------------------------------|
D|--------------------------------|------------------3---5---5---|--------------------------------|
A|-2---2--2--2---4---5----5---4---|-5---4---3--------1---3---3---|-----2--2--2---4---5----5---4---|
E|-0---0--0--0---2---3----3---2---|-3---2---1--------------------|-----0--0--0---2---3----3---2---|


E|------------------------------|---------------------------------|---------------------------------|
B|------------------------------|---------------------------------|---------------------------------|
G|------------------------------|---------------------------------|---------------------------------|
D|------------------------------|---------------------------------|---------5---4---3---------------|
A|-5---4---6----6---5---6---5---|-2---3---3---3---2---3---3---3---|-2---3---3---2---1---6---6---5---|
E|-3---2---4----4---3---4---3---|-0---1---1---1---0---1---1---1---|-0---1---------------4---4---3---|


E|---------------------------------|-----------------------|--------|--------|---------------------------------|
B|---------------------------------|-----------------------|--------|--------|---------------------------------|
G|---------------------------------|-----------------------|--------|--------|---------------------------------|
D|---------------------------------|---------3---2---1-----|--------|--------|---------------------------------|
A|-2---3---3---3---2---3---3---3---|-2---3---3---2---1-----|--------|--------|-2---3---3---3---2---3---3---3---|
E|-0---1---1---1---0---1---1---1---|-0---1-----------------|--------|--------|-0---1---1---1---0---1---1---1---|


E|---------------------------------|---------------------------------|-----------------------|
B|---------------------------------|---------------------------------|-----------------------|
G|---------------------------------|---------------------------------|-----------------------|
D|---------5---4---3---------------|---------------------------------|---------3---2---1-----|
A|-2---3---3---2---1---6---6---5---|-2---3---3---3---2---3---3---3---|-2---3---3---2---1-----|
E|-0---1---------------4---4---3---|-0---1---1---1---0---1---1---1---|-0---1-----------------|


E|---------------------------------|---------------------------------|---------------------------------|
B|---------------------------------|---------------------------------|---------------------------------|
G|---------------------------------|---------------------------------|---------------------------------|
D|---------------------------------|---------5---4---3---------------|---------------------------------|
A|-2---3---3---3---2---3---3---3---|-2---3---3---2---1---6---6---5---|-2---3---3---3---2---3---3---3---|
E|-0---1---1---1---0---1---1---1---|-0---1---------------4---4---3---|-0---1---1---1---0---1---1---1---|


E|-----------------------|---------------------------------|---------------------------------|
B|-----------------------|---------------------------------|---------------------------------|
G|-----------------------|---------------------------------|---------------------------------|
D|---------3---2---1-----|---------------------------------|---------------------------------|
A|-2---3---3---2---1-----|-----5---4-------3---------------|-----5---4-------3---------------|
E|-0---1-----------------|-3-----------3-------3---5---6---|-3-----------3-------3---5---6---|


E|---------------------------------|---------------------------------|---------------------------------|
B|---------------------------------|---------------------------------|---------------------------------|
G|---------------------------------|---------------------------------|---------------------------------|
D|---------------------------------|---------------------------------|---------------------------------|
A|-----5---4-------3---------------|-----5---4-------3---------------|-----7---6-------5---------------|
E|-3-----------3-------3---5---6---|-3-----------3-------3---5---6---|-5-----------5-------5---7---8---|


E|---------------------------------|---------------------------------|---------------------------------|
B|---------------------------------|---------------------------------|---------------------------------|
G|---------------------------------|---------------------------------|---------------------------------|
D|---------------------------------|---------------------------------|---------------------------------|
A|-----7---6-------5---------------|-----7---6-------5---------------|-----7---6-------5---------------|
E|-5-----------5-------5---7---8---|-5-----------5-------5---7---8---|-5-----------5-------5---7---8---|


E|---------------------------------|---------------------------------|---------------------------------|
B|---------------------------------|---------------------------------|---------------------------------|
G|---------------------------------|---------------------------------|---------------------------------|
D|---------------------------------|-----9---8-------7---------------|-----11--10------9---------------|
A|-----7---6-------5---------------|-7-----------7-------7---9---10--|-9-----------9-------9---11--12--|
E|-5-----------5-------5---7---8---|---------------------------------|---------------------------------|


E|---------------------------------|---------------------|----------------------------------|
B|---------------------------------|---------------------|----------------------------------|
G|---------------------------------|---------------------|----------------------------------|
D|-4---2---------------------------|---------------------|----------------------------------|
A|---------4---3---2---------------|-4---------5----2----|-4--------5--5--5--5----5----2----|
E|---------------------5---2---0---|-2---------3----0----|-2--------3--3--3--3----3----0----|


E|---------------------|----------------------------------|------------------------------|
B|---------------------|----------------------------------|------------------------------|
G|---------------------|----------------------------------|------------------------------|
D|---------------------|----------------------------------|------------------------------|
A|-4---------5----2----|-4--------5--5--5--5----5----4----|-----------------7---8---7----|
E|-2---------3----0----|-2--------3--3--3--3----3----2----|-0---0---0---0----------------|


E|------------------------------|------------------------------|------------------------------|
B|------------------------------|------------------------------|------------------------------|
G|------------------------------|------------------------------|------------------------------|
D|------------------------------|------------------------------|------------------------------|
A|---------------------7---6----|------------------------------|-------------------------8----|
E|-0---0---0---0---5------------|-0---0---0---0---5---6---7----|-0---0---0---0---5---6--------|


E|------------------------------|------------------------------|------------------------------|
B|------------------------------|------------------------------|------------------------------|
G|------------------------------|------------------------------|------------------------------|
D|------------------------------|------------------------------|------------------------------|
A|-----------------7---8---7----|---------------------7---6----|------------------------------|
E|-0---0---0---0----------------|-0---0---0---0---5------------|-0---0---0---0---5---6---7----|


E|------------------------------|------------------------------|------------------------------|
B|------------------------------|------------------------------|------------------------------|
G|------------------------------|------------------------------|------------------------------|
D|------------------------------|-----------------9---10--9----|---------------------9---8----|
A|-------------------------8----|-----------------7---8---7----|-----------------7---7---6----|
E|-0---0---0---0---5---6--------|-0---0---0---0----------------|-0---0---0---0---5------------|


E|------------------------------|------------------------------|------------------------------|
B|------------------------------|------------------------------|------------------------------|
G|------------------------------|------------------------------|------------------------------|
D|------------------------------|-------------------------10---|-----------------9---10--9----|
A|-----------------7---8---9----|-----------------7---8---8----|-----------------7---8---7----|
E|-0---0---0---0---5---6---7----|-0---0---0---0---5---6--------|-0---0---0---0----------------|


E|------------------------------|------------------------------|------------------------------|
B|------------------------------|------------------------------|------------------------------|
G|------------------------------|------------------------------|------------------------------|
D|---------------------9---8----|------------------------------|-------------------------10---|
A|-----------------7---7---6----|-----------------7---8---9----|-----------------7---8---8----|
E|-0---0---0---0---5------------|-0---0---0---0---5---6---7----|-0---0---0---0---5---6--------|


E|------------------------------|------------------------------|------------------------------|
B|------------------------------|------------------------------|------------------------------|
G|------------------------------|------------------------------|------------------------------|
D|-----------------9---10--9----|---------------------9---8----|------------------------------|
A|-----------------7---8---7----|-----------------7---7---6----|-----------------7---8---9----|
E|-0---0---0---0----------------|-0---0---0---0---5------------|-0---0---0---0---5---6---7----|


E|------------------------------|------------------------------|------------------------------|
B|------------------------------|------------------------------|------------------------------|
G|------------------------------|------------------------------|------------------------------|
D|-------------------------10---|-----------------9---10--9----|---------------------9---8----|
A|-----------------7---8---8----|-----------------7---8---7----|-----------------7---7---6----|
E|-0---0---0---0---5---6--------|-0---0---0---0----------------|-0---0---0---0---5------------|


E|------------------------------|---------------------------------|--------------------|
B|------------------------------|---------------------------------|--------------------|
G|------------------------------|---------------------------------|--------------------|
D|------------------------------|---------------------------------|--------------------|
A|-----------------7---8---9----|---------------------4-------2---|-2------------------|
E|-0---0---0---0---5---6---7----|-0---0---0---0---5-------3-------|-0------------------|





Track 3: Distorted Guitar - Lead

E|--------|--------|--------|--------|--------|--------|--------|--------|--------|
B|--------|--------|--------|--------|--------|--------|--------|--------|--------|
G|--------|--------|--------|--------|--------|--------|--------|--------|--------|
D|--------|--------|--------|--------|--------|--------|--------|--------|--------|
A|--------|--------|--------|--------|--------|--------|--------|--------|--------|
E|--------|--------|--------|--------|--------|--------|--------|--------|--------|


E|--------|--------|--------|--------|--------|--------|--------|--------|--------|
B|--------|--------|--------|--------|--------|--------|--------|--------|--------|
G|--------|--------|--------|--------|--------|--------|--------|--------|--------|
D|--------|--------|--------|--------|--------|--------|--------|--------|--------|
A|--------|--------|--------|--------|--------|--------|--------|--------|--------|
E|--------|--------|--------|--------|--------|--------|--------|--------|--------|


E|--------|--------|--------|--------|--------|--------|--------|--------|--------|
B|--------|--------|--------|--------|--------|--------|--------|--------|--------|
G|--------|--------|--------|--------|--------|--------|--------|--------|--------|
D|--------|--------|--------|--------|--------|--------|--------|--------|--------|
A|--------|--------|--------|--------|--------|--------|--------|--------|--------|
E|--------|--------|--------|--------|--------|--------|--------|--------|--------|


E|--------|-----------------------|--------|--------------------|--------|--------|
B|-13-----|-13----13---13-13--13--|-13-----|-13----13-----------|--------|--------|
G|-12-----|-12----12---12-12--12--|-12-----|-12----12-----------|--------|--------|
D|--------|-----------------------|--------|--------------------|--------|--------|
A|--------|-----------------------|--------|--------------------|--------|--------|
E|--------|-----------------------|--------|--------------------|--------|--------|


E|--------|--------|--------|--------|--------|--------|--------|--------|--------|
B|--------|--------|--------|--------|--------|--------|--------|--------|--------|
G|--------|--------|--------|--------|--------|--------|--------|--------|--------|
D|--------|--------|--------|--------|--------|--------|--------|--------|--------|
A|--------|--------|--------|--------|--------|--------|--------|--------|--------|
E|--------|--------|--------|--------|--------|--------|--------|--------|--------|


E|--------|--------|--------|--------|--------|--------|--------|--------|-----------------------|
B|--------|--------|--------|--------|--------|--------|--------|-13-----|-13----13---13-13--13--|
G|--------|--------|--------|--------|--------|--------|--------|-12-----|-12----12---12-12--12--|
D|--------|--------|--------|--------|--------|--------|--------|--------|-----------------------|
A|--------|--------|--------|--------|--------|--------|--------|--------|-----------------------|
E|--------|--------|--------|--------|--------|--------|--------|--------|-----------------------|


E|--------|--------------------|--------|--------|-------------|-------------|--------|
B|-13-----|-13----13-----------|--------|--------|-16----16----|-16-----16---|-16-----|
G|-12-----|-12----12-----------|--------|--------|-15----15----|-15-----15---|-15-----|
D|--------|--------------------|--------|--------|-------------|-------------|--------|
A|--------|--------------------|--------|--------|-------------|-------------|--------|
E|--------|--------------------|--------|--------|-------------|-------------|--------|


E|----------------------12-12-----|-------------------------|----------------------|
B|-6----6---6---6---6---12-12--9--|-12--12-10-10------------|----------------------|
G|-15---15--15--15--15------------|---------------11--11----|-11----11---11---11---|
D|--------------------------------|-------------------------|----------------------|
A|--------------------------------|-------------------------|----------------------|
E|--------------------------------|-------------------------|----------------------|


E|-------------|-18-16-13----13-18-16-13----13-18-16-13----13-18-16-13----13-|-15-----|
B|-------------|----------16-------------16-------------16-------------16----|--------|
G|-10----10----|-------------------------------------------------------------|--------|
D|-------------|-------------------------------------------------------------|--------|
A|-------------|-------------------------------------------------------------|--------|
E|-------------|-------------------------------------------------------------|--------|


E|-15-----|-15-----|-15--------------|--------|--------|--------|--------|-------------------------------------------------|
B|--------|--------|-----------------|--------|--------|--------|--------|-------------------------------------------------|
G|--------|--------|-----------------|--------|--------|--------|--------|-7--8--7-----7--8--7-----7--8--7-----7-----------|
D|--------|--------|-----------------|--------|--------|--------|--------|----------10----------10----------10----10-9--7--|
A|--------|--------|-----------------|--------|--------|--------|--------|-------------------------------------------------|
E|--------|--------|-----------------|--------|--------|--------|--------|-------------------------------------------------|


E|--------|-17-16-14----14-16-17-16-14----14-16-17-16-14----14-16-17-16-14----14-16-|
B|--------|----------17----------------17----------------17----------------17-------|
G|--------|-------------------------------------------------------------------------|
D|-9------|-------------------------------------------------------------------------|
A|--------|-------------------------------------------------------------------------|
E|--------|-------------------------------------------------------------------------|


E|-17-----17---|--------|--------|--------|--------|--------|--------|--------|--------|
B|-------------|--------|--------|--------|--------|--------|--------|--------|--------|
G|-------------|--------|--------|--------|--------|--------|--------|--------|--------|
D|-------------|--------|--------|--------|--------|--------|--------|--------|--------|
A|-------------|--------|--------|--------|--------|--------|--------|--------|--------|
E|-------------|--------|--------|--------|--------|--------|--------|--------|--------|


E|--------|--------|--------|--------|--------|--------|--------|--------|--------|
B|--------|--------|--------|--------|--------|--------|--------|--------|--------|
G|--------|--------|--------|--------|--------|--------|--------|--------|--------|
D|--------|--------|--------|--------|--------|--------|--------|--------|--------|
A|--------|--------|--------|--------|--------|--------|--------|--------|--------|
E|--------|--------|--------|--------|--------|--------|--------|--------|--------|


E|--------|--------|--------|--------|--------|--------|--------|--------|--------|
B|--------|--------|--------|--------|--------|--------|--------|--------|--------|
G|--------|--------|--------|--------|--------|--------|--------|--------|--------|
D|--------|--------|--------|--------|--------|--------|--------|--------|--------|
A|--------|--------|--------|--------|--------|--------|--------|--------|--------|
E|--------|--------|--------|--------|--------|--------|--------|--------|--------|


E|--------|--------|--------|
B|--------|--------|--------|
G|--------|--------|--------|
D|--------|--------|--------|
A|--------|--------|--------|
E|--------|--------|--------|





Track 4: Distorted Guitar (w/tremolo effect)

E|--------|--------|--------|--------|--------|--------|--------|--------|--------|
B|--------|--------|--------|--------|--------|--------|--------|--------|--------|
G|--------|--------|--------|--------|--------|--------|--------|--------|--------|
D|--------|--------|--------|--------|--------|--------|--------|--------|--------|
A|--------|--------|--------|--------|--------|--------|--------|--------|--------|
E|--------|--------|--------|--------|--------|--------|--------|--------|--------|


E|--------|--------|--------|--------|--------|--------|--------|--------|--------|
B|--------|--------|--------|--------|--------|--------|--------|--------|--------|
G|--------|--------|--------|--------|--------|--------|--------|--------|--------|
D|--------|--------|--------|--------|--------|--------|--------|--------|--------|
A|--------|--------|--------|--------|--------|--------|--------|--------|--------|
E|--------|--------|--------|--------|--------|--------|--------|--------|--------|


E|--------|--------|--------|--------|--------|--------|--------|--------|--------|
B|--------|--------|--------|--------|--------|--------|--------|--------|--------|
G|--------|--------|--------|--------|--------|--------|--------|--------|--------|
D|--------|--------|--------|--------|--------|--------|--------|--------|--------|
A|--------|--------|--------|--------|--------|--------|--------|--------|--------|
E|--------|--------|--------|--------|--------|--------|--------|--------|--------|


E|--------|--------|--------|--------|--------|---------------------------|--------|
B|--------|--------|--------|--------|--------|---------------------------|--------|
G|--------|--------|--------|--------|--------|---------------------------|--------|
D|--------|--------|--------|--------|--------|---------------------------|--------|
A|--------|--------|--------|--------|-2------|-2-------------4-------2---|--------|
E|--------|--------|--------|--------|-0------|-0-----0---5-------3-------|--------|


E|--------|--------|--------|--------|--------|--------|--------|--------|--------|
B|--------|--------|--------|--------|--------|--------|--------|--------|--------|
G|--------|--------|--------|--------|--------|--------|--------|--------|--------|
D|--------|--------|--------|--------|--------|--------|--------|--------|--------|
A|--------|--------|--------|--------|--------|--------|--------|--------|--------|
E|--------|--------|--------|--------|--------|--------|--------|--------|--------|


E|--------|--------|--------|--------|--------|--------|--------|--------|--------|
B|--------|--------|--------|--------|--------|--------|--------|--------|--------|
G|--------|--------|--------|--------|--------|--------|--------|--------|--------|
D|--------|--------|--------|--------|--------|--------|--------|--------|--------|
A|--------|--------|--------|--------|--------|--------|--------|--------|--------|
E|--------|--------|--------|--------|--------|--------|--------|--------|--------|


E|--------|--------|--------|--------|--------|--------|--------|--------|--------|
B|--------|--------|--------|--------|--------|--------|--------|--------|--------|
G|--------|--------|--------|--------|--------|--------|--------|--------|--------|
D|--------|--------|--------|--------|--------|--------|--------|--------|--------|
A|--------|--------|--------|--------|--------|--------|--------|--------|--------|
E|--------|--------|--------|--------|--------|--------|--------|--------|--------|


E|--------|--------|--------|--------|--------|--------|--------|--------|--------|
B|--------|--------|--------|--------|--------|--------|--------|--------|--------|
G|--------|--------|--------|--------|--------|--------|--------|--------|--------|
D|--------|--------|--------|--------|--------|--------|--------|--------|--------|
A|--------|--------|--------|--------|--------|--------|--------|--------|--------|
E|--------|--------|--------|--------|--------|--------|--------|--------|--------|


E|--------|--------|--------|--------|--------|--------|--------|--------|--------|
B|--------|--------|--------|--------|--------|--------|--------|--------|--------|
G|--------|--------|--------|--------|--------|--------|--------|--------|--------|
D|--------|--------|--------|--------|--------|--------|--------|--------|--------|
A|--------|--------|--------|--------|--------|--------|--------|--------|--------|
E|--------|--------|--------|--------|--------|--------|--------|--------|--------|


E|--------|--------|--------|--------|--------|--------|--------|--------|--------|
B|--------|--------|--------|--------|--------|--------|--------|--------|--------|
G|--------|--------|--------|--------|--------|--------|--------|--------|--------|
D|--------|--------|--------|--------|--------|--------|--------|--------|--------|
A|--------|--------|--------|--------|--------|--------|--------|--------|--------|
E|--------|--------|--------|--------|--------|--------|--------|--------|--------|


E|--------|--------|--------|--------|--------|--------|--------|--------|--------|
B|--------|--------|--------|--------|--------|--------|--------|--------|--------|
G|--------|--------|--------|--------|--------|--------|--------|--------|--------|
D|--------|--------|--------|--------|--------|--------|--------|--------|--------|
A|--------|--------|--------|--------|--------|--------|--------|--------|--------|
E|--------|--------|--------|--------|--------|--------|--------|--------|--------|


E|--------|--------|--------|--------|--------|--------|--------|
B|--------|--------|--------|--------|--------|--------|--------|
G|--------|--------|--------|--------|--------|--------|--------|
D|--------|--------|--------|--------|--------|--------|--------|
A|--------|--------|--------|--------|--------|--------|--------|
E|--------|--------|--------|--------|--------|--------|--------|





Track 5: Distorted Guitar (w/tremolo effect)

E|--------|--------|--------|--------|--------|--------|--------|--------|--------|
B|--------|--------|--------|--------|--------|--------|--------|--------|--------|
G|--------|--------|--------|--------|--------|--------|--------|--------|--------|
D|--------|--------|--------|--------|--------|--------|--------|--------|--------|
A|--------|--------|--------|--------|--------|--------|--------|--------|--------|
E|--------|--------|--------|--------|--------|--------|--------|--------|--------|


E|--------|--------|--------|--------|--------|--------|--------|--------|--------|
B|--------|--------|--------|--------|--------|--------|--------|--------|--------|
G|--------|--------|--------|--------|--------|--------|--------|--------|--------|
D|--------|--------|--------|--------|--------|--------|--------|--------|--------|
A|--------|--------|--------|--------|--------|--------|--------|--------|--------|
E|--------|--------|--------|--------|--------|--------|--------|--------|--------|


E|--------|--------|--------|--------|--------|--------|--------|--------|--------|
B|--------|--------|--------|--------|--------|--------|--------|--------|--------|
G|--------|--------|--------|--------|--------|--------|--------|--------|--------|
D|--------|--------|--------|--------|--------|--------|--------|--------|--------|
A|--------|--------|--------|--------|--------|--------|--------|--------|--------|
E|--------|--------|--------|--------|--------|--------|--------|--------|--------|


E|--------|--------|--------|--------|--------|--------|--------|--------|--------|
B|--------|--------|--------|--------|--------|--------|--------|--------|--------|
G|--------|--------|--------|--------|--------|--------|--------|--------|--------|
D|--------|--------|--------|--------|--------|--------|--------|--------|--------|
A|--------|--------|--------|--------|--------|--------|--------|--------|--------|
E|--------|--------|--------|--------|--------|--------|--------|--------|--------|


E|--------|--------|--------|--------|--------|--------|--------|--------|--------|
B|--------|--------|--------|--------|--------|--------|--------|--------|--------|
G|--------|--------|--------|--------|--------|--------|--------|--------|--------|
D|--------|--------|--------|--------|--------|--------|--------|--------|--------|
A|--------|--------|--------|--------|--------|--------|--------|--------|--------|
E|--------|--------|--------|--------|--------|--------|--------|--------|--------|


E|--------|--------|--------|--------|--------|--------|--------|--------|--------|
B|--------|--------|--------|--------|--------|--------|--------|--------|--------|
G|--------|--------|--------|--------|--------|--------|--------|--------|--------|
D|--------|--------|--------|--------|--------|--------|--------|--------|--------|
A|--------|--------|--------|--------|--------|--------|--------|--------|-2------|
E|--------|--------|--------|--------|--------|--------|--------|--------|-0------|


E|---------------------------|--------|--------|--------|--------|--------|--------|
B|---------------------------|--------|--------|--------|--------|--------|--------|
G|---------------------------|--------|--------|--------|--------|--------|--------|
D|---------------------------|--------|--------|--------|--------|--------|--------|
A|-2-------------4-------2---|--------|--------|--------|--------|--------|--------|
E|-0-----0---5-------3-------|--------|--------|--------|--------|--------|--------|


E|--------|--------|--------|--------|--------|--------|--------|--------|--------|
B|--------|--------|--------|--------|--------|--------|--------|--------|--------|
G|--------|--------|--------|--------|--------|--------|--------|--------|--------|
D|--------|--------|--------|--------|--------|--------|--------|--------|--------|
A|--------|--------|--------|--------|--------|--------|--------|--------|--------|
E|--------|--------|--------|--------|--------|--------|--------|--------|--------|


E|--------|--------|--------|--------|--------|--------|--------|--------|--------|
B|--------|--------|--------|--------|--------|--------|--------|--------|--------|
G|--------|--------|--------|--------|--------|--------|--------|--------|--------|
D|--------|--------|--------|--------|--------|--------|--------|--------|--------|
A|--------|--------|--------|--------|--------|--------|--------|--------|--------|
E|--------|--------|--------|--------|--------|--------|--------|--------|--------|


E|--------|--------|--------|--------|--------|--------|--------|--------|--------|
B|--------|--------|--------|--------|--------|--------|--------|--------|--------|
G|--------|--------|--------|--------|--------|--------|--------|--------|--------|
D|--------|--------|--------|--------|--------|--------|--------|--------|--------|
A|--------|--------|--------|--------|--------|--------|--------|--------|--------|
E|--------|--------|--------|--------|--------|--------|--------|--------|--------|


E|--------|--------|--------|--------|--------|--------|--------|--------|--------|
B|--------|--------|--------|--------|--------|--------|--------|--------|--------|
G|--------|--------|--------|--------|--------|--------|--------|--------|--------|
D|--------|--------|--------|--------|--------|--------|--------|--------|--------|
A|--------|--------|--------|--------|--------|--------|--------|--------|--------|
E|--------|--------|--------|--------|--------|--------|--------|--------|--------|


E|--------|--------|--------|--------|--------|--------|--------|
B|--------|--------|--------|--------|--------|--------|--------|
G|--------|--------|--------|--------|--------|--------|--------|
D|--------|--------|--------|--------|--------|--------|--------|
A|--------|--------|--------|--------|--------|--------|--------|
E|--------|--------|--------|--------|--------|--------|--------|





Track 6: Distorted Guitar - Lead 2

E|--------|--------|--------|--------|--------|--------|--------|--------|--------|
B|--------|--------|--------|--------|--------|--------|--------|--------|--------|
G|--------|--------|--------|--------|--------|--------|--------|--------|--------|
D|--------|--------|--------|--------|--------|--------|--------|--------|--------|
A|--------|--------|--------|--------|--------|--------|--------|--------|--------|
E|--------|--------|--------|--------|--------|--------|--------|--------|--------|


E|--------|--------|--------|--------|--------|--------|--------|--------|--------|
B|--------|--------|--------|--------|--------|--------|--------|--------|--------|
G|--------|--------|--------|--------|--------|--------|--------|--------|--------|
D|--------|--------|--------|--------|--------|--------|--------|--------|--------|
A|--------|--------|--------|--------|--------|--------|--------|--------|--------|
E|--------|--------|--------|--------|--------|--------|--------|--------|--------|


E|--------|--------|--------|--------|--------|--------|--------|--------|--------|
B|--------|--------|--------|--------|--------|--------|--------|--------|--------|
G|--------|--------|--------|--------|--------|--------|--------|--------|--------|
D|--------|--------|--------|--------|--------|--------|--------|--------|--------|
A|--------|--------|--------|--------|--------|--------|--------|--------|--------|
E|--------|--------|--------|--------|--------|--------|--------|--------|--------|


E|--------|--------|--------|--------|--------|--------|--------|--------|--------|
B|--------|--------|--------|--------|--------|--------|--------|--------|--------|
G|--------|--------|--------|--------|--------|--------|--------|--------|--------|
D|--------|--------|--------|--------|--------|--------|--------|--------|--------|
A|--------|--------|--------|--------|--------|--------|--------|--------|--------|
E|--------|--------|--------|--------|--------|--------|--------|--------|--------|


E|--------|--------|--------|--------|--------|--------|--------|--------|--------|
B|--------|--------|--------|--------|--------|--------|--------|--------|--------|
G|--------|--------|--------|--------|--------|--------|--------|--------|--------|
D|--------|--------|--------|--------|--------|--------|--------|--------|--------|
A|--------|--------|--------|--------|--------|--------|--------|--------|--------|
E|--------|--------|--------|--------|--------|--------|--------|--------|--------|


E|--------|--------|--------|--------|--------|--------|--------|--------|--------|
B|--------|--------|--------|--------|--------|--------|--------|--------|--------|
G|--------|--------|--------|--------|--------|--------|--------|--------|--------|
D|--------|--------|--------|--------|--------|--------|--------|--------|--------|
A|--------|--------|--------|--------|--------|--------|--------|--------|--------|
E|--------|--------|--------|--------|--------|--------|--------|--------|--------|


E|--------|--------|--------|--------|--------|--------|--------|--------|--------|
B|--------|--------|--------|--------|--------|--------|--------|--------|--------|
G|--------|--------|--------|--------|--------|--------|--------|--------|--------|
D|--------|--------|--------|--------|--------|--------|--------|--------|--------|
A|--------|--------|--------|--------|--------|--------|--------|--------|--------|
E|--------|--------|--------|--------|--------|--------|--------|--------|--------|


E|---------------------------|------------------------------|-------------------------------------------------|
B|---------------------------|------------------------------|-------------------------------------------------|
G|-12------------------------|-----10--12---12---12-12--10--|-17-17-17-15-------17-17-15-------17-17-15-------|
D|-----8----10--10--11---12--|-12---------------------------|-------------17-15----------17-15----------17-15-|
A|---------------------------|------------------------------|-------------------------------------------------|
E|---------------------------|------------------------------|-------------------------------------------------|


E|-----------------------------------------|-------------------------------------------|
B|-18--------------15----------------------|-------------------------------------------|
G|-17--17-17-15-17----17-15----------------|-------------------11-13-14-17---17--------|
D|--------------------------17-15----------|----------12-13-15-------------------19-17-|
A|--------------------------------17---17--|-12-14-15----------------------------------|
E|-----------------------------------------|-------------------------------------------|


E|---------------------------------------------17-|-20--20----20---20-20-----|-19--18--17----17--------------------------------|
B|-----------------20-----------------------19----|--------------------------|------------20----20-17----17-20-17--------------|
G|-19-19--17----------19-19--19-17-19-17-20-------|--------------------------|------------------------19----------19-19-19-17--|
D|-----------19-17--------------------------------|--------------------------|-------------------------------------------------|
A|------------------------------------------------|--------------------------|-------------------------------------------------|
E|------------------------------------------------|--------------------------|-------------------------------------------------|


E|--------|-------------------------------------------10-12-|-12-11-9-----9--11-12-11-9-----9--11-12-11-9-----9--11-12-11-9-----9--11-|
B|--------|----------------------------------10-11-12-------|----------12----------------12----------------12----------------12-------|
G|--------|-9--10-9--7--9--10-9-----9--11-12----------------|-------------------------------------------------------------------------|
D|--------|----------------------12-------------------------|-------------------------------------------------------------------------|
A|--------|-------------------------------------------------|-------------------------------------------------------------------------|
E|--------|-------------------------------------------------|-------------------------------------------------------------------------|


E|-12-----12---|--------|--------|--------|--------|--------|--------|--------|--------|
B|-------------|--------|--------|--------|--------|--------|--------|--------|--------|
G|-------------|--------|--------|--------|--------|--------|--------|--------|--------|
D|-------------|--------|--------|--------|--------|--------|--------|--------|--------|
A|-------------|--------|--------|--------|--------|--------|--------|--------|--------|
E|-------------|--------|--------|--------|--------|--------|--------|--------|--------|


E|--------|--------|--------|--------|--------|--------|--------|--------|--------|
B|--------|--------|--------|--------|--------|--------|--------|--------|--------|
G|--------|--------|--------|--------|--------|--------|--------|--------|--------|
D|--------|--------|--------|--------|--------|--------|--------|--------|--------|
A|--------|--------|--------|--------|--------|--------|--------|--------|--------|
E|--------|--------|--------|--------|--------|--------|--------|--------|--------|


E|--------|--------|--------|--------|--------|--------|--------|--------|--------|
B|--------|--------|--------|--------|--------|--------|--------|--------|--------|
G|--------|--------|--------|--------|--------|--------|--------|--------|--------|
D|--------|--------|--------|--------|--------|--------|--------|--------|--------|
A|--------|--------|--------|--------|--------|--------|--------|--------|--------|
E|--------|--------|--------|--------|--------|--------|--------|--------|--------|


E|--------|--------|--------|
B|--------|--------|--------|
G|--------|--------|--------|
D|--------|--------|--------|
A|--------|--------|--------|
E|--------|--------|--------|





Track 7: Untitled

G|--------|--------|--------|--------|--------|--------|--------|--------|--------|
D|--------|--------|--------|--------|--------|--------|--------|--------|--------|
A|--------|--------|--------|--------|--------|--------|--------|--------|--------|
E|--------|--------|--------|--------|--------|--------|--------|--------|--------|


G|--------|--------|--------|--------|--------|--------|--------|--------|--------|
D|--------|--------|--------|--------|--------|--------|--------|--------|--------|
A|--------|--------|--------|--------|--------|--------|--------|--------|--------|
E|--------|--------|--------|--------|--------|--------|--------|--------|--------|


G|--------|--------|--------|--------|--------|--------|--------|--------|--------|
D|--------|--------|--------|--------|--------|--------|--------|--------|--------|
A|--------|--------|--------|--------|--------|--------|--------|--------|--------|
E|--------|--------|--------|--------|--------|--------|--------|--------|--------|


G|--------|--------|--------|--------|--------|--------|--------|--------|--------|
D|--------|--------|--------|--------|--------|--------|--------|--------|--------|
A|--------|--------|--------|--------|--------|--------|--------|--------|--------|
E|--------|--------|--------|--------|--------|--------|--------|--------|--------|


G|--------|--------|--------|--------|--------|--------|--------|--------|--------|
D|--------|--------|--------|--------|--------|--------|--------|--------|--------|
A|--------|--------|--------|--------|--------|--------|--------|--------|--------|
E|--------|--------|--------|--------|--------|--------|--------|--------|--------|


G|--------|--------|--------|--------|--------|--------|--------|--------|--------|
D|--------|--------|--------|--------|--------|--------|--------|--------|--------|
A|--------|--------|--------|--------|--------|--------|--------|--------|--------|
E|--------|--------|--------|--------|--------|--------|--------|--------|--------|


G|--------|--------|--------|--------|--------|--------|--------|--------|--------|
D|--------|--------|--------|--------|--------|--------|--------|--------|--------|
A|--------|--------|--------|--------|--------|--------|--------|--------|--------|
E|--------|--------|--------|--------|--------|--------|--------|--------|--------|


G|--------|--------|--------|--------|--------|--------|--------|--------|--------|
D|--------|--------|--------|--------|--------|--------|--------|--------|--------|
A|--------|--------|--------|--------|--------|--------|--------|--------|--------|
E|--------|--------|--------|--------|--------|--------|--------|--------|--------|


G|--------|--------|--------|--------|--------|--------|--------|--------|--------|
D|--------|--------|--------|--------|--------|--------|--------|--------|--------|
A|--------|--------|--------|--------|--------|--------|--------|--------|--------|
E|--------|--------|--------|--------|--------|--------|--------|--------|--------|


G|--------|--------|--------|--------|--------|--------|--------|--------|--------|
D|--------|--------|--------|--------|--------|--------|--------|--------|--------|
A|--------|--------|--------|--------|--------|--------|--------|--------|--------|
E|--------|--------|--------|--------|--------|--------|--------|--------|--------|


G|--------|--------|--------|--------|--------|--------|--------|--------|--------|
D|--------|--------|--------|--------|--------|--------|--------|--------|--------|
A|--------|--------|--------|--------|--------|--------|--------|--------|--------|
E|--------|--------|--------|--------|--------|--------|--------|--------|--------|


G|--------|--------|--------|--------|--------|
D|--------|--------|--------|--------|--------|
A|--------|--------|--------|--------|--------|
E|--------|--------|--------|--------|--------|