Menu:

 

Search:

 

megadeth - shadow of deth:

 



Title: Shadow Of Deth
Artist: 
Album: The System Has Failed
Author: Dave Mustaine


Track 1: Rhythm

E|---------------------------------|---------------------------------|---------------------------------|
B|---------------------------------|---------------------------------|---------------------------------|
G|---------------------------------|---------------------------------|---------------------------------|
D|---------------------------------|---------------------------------|---------------------------------|
A|-5---2---3---4---5---2---3---4---|-5---2---3---4---5---2---3---4---|-5---2---3---4---5---2---3---4---|
E|-5---2---3---4---5---2---3---4---|-5---2---3---4---5---2---3---4---|-5---2---3---4---5---2---3---4---|


E|---------------------------------|---------------------------------|---------------------------------|
B|---------------------------------|---------------------------------|---------------------------------|
G|---------------------------------|---------------------------------|---------------------------------|
D|---------------------------------|---------------------------------|---------------------------------|
A|-5---2---3---4---5---2---3---4---|-5---2---3---4---5---2---3---4---|-5---2---3---4---5---2---3---4---|
E|-5---2---3---4---5---2---3---4---|-5---2---3---4---5---2---3---4---|-5---2---3---4---5---2---3---4---|


E|---------------------------------|---------------------------------|---------------------------------|
B|---------------------------------|---------------------------------|---------------------------------|
G|---------------------------------|---------------------------------|---------------------------------|
D|---------------------------------|---------------------------------|---------------------------------|
A|-5---2---3---4---5---2---3---4---|-5---2---3---4---5---2---3---4---|-5---2---3---4---5---2---3---4---|
E|-5---2---3---4---5---2---3---4---|-5---2---3---4---5---2---3---4---|-5---2---3---4---5---2---3---4---|


E|---------------------------------|---------------------------------|---------------------------------|
B|---------------------------------|---------------------------------|---------------------------------|
G|---------------------------------|---------------------------------|---------------------------------|
D|---------------------------------|---------------------------------|---------------------------------|
A|-5---2---3---4---5---2---3---4---|-5---2---3---4---5---2---3---4---|-5---2---3---4---5---2---3---4---|
E|-5---2---3---4---5---2---3---4---|-5---2---3---4---5---2---3---4---|-5---2---3---4---5---2---3---4---|


E|---------------------------------|---------------------------------|---------------------------------|
B|---------------------------------|---------------------------------|---------------------------------|
G|---------------------------------|---------------------------------|---------------------------------|
D|---------------------------------|---------------------------------|---------------------------------|
A|-5---2---3---4---5---2---3---4---|-5---2---3---4---5---2---3---4---|-5---2---3---4---5---2---3---4---|
E|-5---2---3---4---5---2---3---4---|-5---2---3---4---5---2---3---4---|-5---2---3---4---5---2---3---4---|


E|---------------------------------|---------------------------------|---------------------------------|
B|---------------------------------|---------------------------------|---------------------------------|
G|---------------------------------|---------------------------------|---------------------------------|
D|---------------------------------|---------------------------------|---------------------------------|
A|-5---2---3---4---5---2---3---4---|-5---2---3---4---5---2---3---4---|-5---2---3---4---5---2---3---4---|
E|-5---2---3---4---5---2---3---4---|-5---2---3---4---5---2---3---4---|-5---2---3---4---5---2---3---4---|


E|---------------------------------|---------------------------------|---------------------------------|
B|---------------------------------|---------------------------------|---------------------------------|
G|---------------------------------|---------------------------------|---------------------------------|
D|---------------------------------|---------------------------------|---------------------------------|
A|-5---2---3---4---5---2---3---4---|-5---2---3---4---5---2---3---4---|-5---2---3---4---5---2---3---4---|
E|-5---2---3---4---5---2---3---4---|-5---2---3---4---5---2---3---4---|-5---2---3---4---5---2---3---4---|


E|---------------------------------|---------------------------------|---------------------------------|
B|---------------------------------|---------------------------------|---------------------------------|
G|---------------------------------|---------------------------------|---------------------------------|
D|---------------------------------|---------------------------------|---------------------------------|
A|-5---2---3---4---5---2---3---4---|-5---2---3---4---5---2---3---4---|-5---2---3---4---5---2---3---4---|
E|-5---2---3---4---5---2---3---4---|-5---2---3---4---5---2---3---4---|-5---2---3---4---5---2---3---4---|


E|--------|--------|--------|--------|--------|--------|--------|--------|--------|
B|--------|--------|--------|--------|--------|--------|--------|--------|--------|
G|--------|--------|--------|--------|--------|--------|--------|--------|--------|
D|--------|--------|--------|--------|--------|--------|--------|--------|--------|
A|--------|--------|--------|--------|--------|--------|--------|--------|--------|
E|--------|--------|--------|--------|--------|--------|--------|--------|--------|


E|--------|--------|--------|--------|--------|--------|--------|--------|--------|
B|--------|--------|--------|--------|--------|--------|--------|--------|--------|
G|--------|--------|--------|--------|--------|--------|--------|--------|--------|
D|--------|--------|--------|--------|--------|--------|--------|--------|--------|
A|--------|--------|--------|--------|--------|--------|--------|--------|--------|
E|--------|--------|--------|--------|--------|--------|--------|--------|--------|


E|--------|--------|--------|--------|--------|--------|---------------------------------|
B|--------|--------|--------|--------|--------|--------|---------------------------------|
G|--------|--------|--------|--------|--------|--------|---------------------------------|
D|--------|--------|--------|--------|--------|--------|---------------------------------|
A|--------|--------|--------|--------|--------|--------|-5---2---3---4---5---2---3---4---|
E|--------|--------|--------|--------|--------|--------|-5---2---3---4---5---2---3---4---|


E|---------------------------------|---------------------------------|---------------------------------|
B|---------------------------------|---------------------------------|---------------------------------|
G|---------------------------------|---------------------------------|---------------------------------|
D|---------------------------------|---------------------------------|---------------------------------|
A|-5---2---3---4---5---2---3---4---|-5---2---3---4---5---2---3---4---|-5---2---3---4---5---2---3---4---|
E|-5---2---3---4---5---2---3---4---|-5---2---3---4---5---2---3---4---|-5---2---3---4---5---2---3---4---|


E|---------------------------------|---------------------------------|---------------------------------|
B|---------------------------------|---------------------------------|---------------------------------|
G|---------------------------------|---------------------------------|---------------------------------|
D|---------------------------------|---------------------------------|---------------------------------|
A|-5---2---3---4---5---2---3---4---|-5---2---3---4---5---2---3---4---|-5---2---3---4---5---2---3---4---|
E|-5---2---3---4---5---2---3---4---|-5---2---3---4---5---2---3---4---|-5---2---3---4---5---2---3---4---|


E|---------------------------------|
B|---------------------------------|
G|---------------------------------|
D|---------------------------------|
A|-5---2---3---4---5---4---3---2---|
E|-5---2---3---4---5---4---3---2---|





Track 2: Lead I

E|--------|--------|--------|--------|--------|--------|--------|--------|--------10---|
B|--------|--------|--------|--------|--------|--------|--------|--------|-10----------|
G|--------|--------|--------|--------|--------|--------|--------|--------|-------------|
D|--------|--------|--------|--------|--------|--------|--------|--------|-------------|
A|--------|--------|--------|--------|--------|--------|--------|--------|-------------|
E|--------|--------|--------|--------|--------|--------|--------|--------|-------------|


E|-12-----|-12-----|-10----------|-10-----13---|-12-----|-12-----10---|--------|--------10---|
B|--------|--------|--------13---|-------------|--------|-------------|-11-----|-10----------|
G|--------|--------|-------------|-------------|--------|-------------|--------|-------------|
D|--------|--------|-------------|-------------|--------|-------------|--------|-------------|
A|--------|--------|-------------|-------------|--------|-------------|--------|-------------|
E|--------|--------|-------------|-------------|--------|-------------|--------|-------------|


E|-12-----|-15-----12---|-10-----|-10----------|--------|-----------------|--------|
B|--------|-------------|--------|--------11---|-13-----|-13----11--------|-11-----|
G|--------|-------------|--------|-------------|--------|------------13---|--------|
D|--------|-------------|--------|-------------|--------|-----------------|--------|
A|--------|-------------|--------|-------------|--------|-----------------|--------|
E|--------|-------------|--------|-------------|--------|-----------------|--------|


E|---------------------------------|---------------------------------|---------------------------------|
B|---------------------------------|---------------------------------|---------------------------------|
G|---------7---10--9---7---9---10--|-10------7---10--9---7---10--9---|-7-------7---10--9---7---9---10--|
D|-----7---------------------------|-----7---------------------------|-----7---------------------------|
A|---------------------------------|---------------------------------|---------------------------------|
E|---------------------------------|---------------------------------|---------------------------------|


E|---------------------------------|---------------------------------|---------------------------------|
B|-----------------8---------------|---------------------------------|---------------------------------|
G|-10------7---10------10--9---10--|---------7---10--9---7---9---10--|-10------7---10--9---7---10--9---|
D|-----7---------------------------|-----7---------------------------|-----7---------------------------|
A|---------------------------------|---------------------------------|---------------------------------|
E|---------------------------------|---------------------------------|---------------------------------|


E|---------------------------------|-----------------------------------------|---------------------------------|
B|---------------------------------|-----------------8-----------------------|---------------------------------|
G|-7-------7---10--9---7---9---10--|-10------7---10-----10-9--7--10-9--7-----|---------9---12--11--9---11--12--|
D|-----7---------------------------|-----7--------------------------------10-|-----9---------------------------|
A|---------------------------------|-----------------------------------------|---------------------------------|
E|---------------------------------|-----------------------------------------|---------------------------------|


E|---------------------------------|---------------------------------|---------------------------------|
B|---------------------------------|---------------------------------|-----------------10--------------|
G|-12------9---12--11--9---12--11--|-9-------9---12--11--9---11--12--|-12------9---12------12--11--12--|
D|-----9---------------------------|-----9---------------------------|-----9---------------------------|
A|---------------------------------|---------------------------------|---------------------------------|
E|---------------------------------|---------------------------------|---------------------------------|


E|---------------------------------|---------------------------------|---------------------------------|
B|---------------------------------|---------------------------------|---------------------------------|
G|---------9---12--11--9---11--12--|-12------9---12--11--9---12--11--|-9-------9---12--11--9---11--12--|
D|-----9---------------------------|-----9---------------------------|-----9---------------------------|
A|---------------------------------|---------------------------------|---------------------------------|
E|---------------------------------|---------------------------------|---------------------------------|


E|-----------------------------------------|-------------13--12------12--13--|-13----------13--12------13--12--|
B|-----------------10----------------------|---------15----------15----------|---------15----------15----------|
G|-12------9---12-----12-11-9--12-11-9-----|-----14--------------------------|-----14--------------------------|
D|-----9--------------------------------12-|---------------------------------|---------------------------------|
A|-----------------------------------------|---------------------------------|---------------------------------|
E|-----------------------------------------|---------------------------------|---------------------------------|


E|-------------13--12------12--13--|-13----------13--15--13--12--13--|-------------13--12------12--13--|
B|-15------15----------15----------|---------15----------------------|-15------15----------15----------|
G|-----14--------------------------|-----14--------------------------|-----14--------------------------|
D|---------------------------------|---------------------------------|---------------------------------|
A|---------------------------------|---------------------------------|---------------------------------|
E|---------------------------------|---------------------------------|---------------------------------|


E|-13----------13--12------13--12--|-------------13--12------12--13--|-13----------13--15-13-12----13-12-------|
B|---------15----------15----------|-15------15----------15----------|---------15---------------15-------15-13-|
G|-----14--------------------------|-----14--------------------------|-----14----------------------------------|
D|---------------------------------|---------------------------------|-----------------------------------------|
A|---------------------------------|---------------------------------|-----------------------------------------|
E|---------------------------------|---------------------------------|-----------------------------------------|


E|--------|--------|--------|--------|--------|--------|--------|--------|
B|-15-----|-15-----|--------|--------|--------|--------|--------|--------|
G|--------|--------|--------|--------|--------|--------|--------|--------|
D|--------|--------|--------|--------|--------|--------|--------|--------|
A|--------|--------|--------|--------|--------|--------|--------|--------|
E|--------|--------|--------|--------|--------|--------|--------|--------|





Track 3: Lead II

E|--------|--------|--------|--------|--------|--------|--------|--------|--------|
B|--------|--------|--------|--------|--------|--------|--------|--------|--------|
G|--------|--------|--------|--------|--------|--------|--------|--------|--------|
D|--------|--------|--------|--------|--------|--------|--------|--------|--------|
A|--------|--------|--------|--------|--------|--------|--------|--------|--------|
E|--------|--------|--------|--------|--------|--------|--------|--------|--------|


E|--------|--------|--------|--------|--------|--------|--------|--------|--------|
B|--------|--------|--------|--------|--------|--------|--------|--------|--------|
G|--------|--------|--------|--------|--------|--------|--------|--------|--------|
D|--------|--------|--------|--------|--------|--------|--------|--------|--------|
A|--------|--------|--------|--------|--------|--------|--------|--------|--------|
E|--------|--------|--------|--------|--------|--------|--------|--------|--------|


E|--------|--------|--------|--------|--------|--------|--------|--------|--------|
B|--------|--------|--------|--------|--------|--------|--------|--------|--------|
G|--------|--------|--------|--------|--------|--------|--------|--------|--------|
D|--------|--------|--------|--------|--------|--------|--------|--------|--------|
A|--------|--------|--------|--------|--------|--------|--------|--------|--------|
E|--------|--------|--------|--------|--------|--------|--------|--------|--------|


E|--------|--------|--------|--------|--------|--------|--------|--------|--------|
B|--------|--------|--------|--------|--------|--------|--------|--------|--------|
G|--------|--------|--------|--------|--------|--------|--------|--------|--------|
D|--------|--------|--------|--------|--------|--------|--------|--------|--------|
A|--------|--------|--------|--------|--------|--------|--------|--------|--------|
E|--------|--------|--------|--------|--------|--------|--------|--------|--------|


E|--------|--------|--------|--------|--------|--------|--------|--------|-13------13--17--15--13--15--17--|
B|--------|--------|--------|--------|--------|--------|--------|--------|-----15--------------------------|
G|--------|--------|--------|--------|--------|--------|--------|--------|---------------------------------|
D|--------|--------|--------|--------|--------|--------|--------|--------|---------------------------------|
A|--------|--------|--------|--------|--------|--------|--------|--------|---------------------------------|
E|--------|--------|--------|--------|--------|--------|--------|--------|---------------------------------|


E|-17------13--17--15--13--17--15--|-13------13--17--15--13--15--17--|-17------13--17--15-13-------13----------|
B|-----15--------------------------|-----15--------------------------|-----15----------------17-15----17-15-13-|
G|---------------------------------|---------------------------------|-----------------------------------------|
D|---------------------------------|---------------------------------|-----------------------------------------|
A|---------------------------------|---------------------------------|-----------------------------------------|
E|---------------------------------|---------------------------------|-----------------------------------------|


E|--------|--------|--------|--------|--------|--------|--------|--------|
B|-15-----|-15-----|--------|--------|--------|--------|--------|--------|
G|--------|--------|--------|--------|--------|--------|--------|--------|
D|--------|--------|--------|--------|--------|--------|--------|--------|
A|--------|--------|--------|--------|--------|--------|--------|--------|
E|--------|--------|--------|--------|--------|--------|--------|--------|





Track 4: Bass

G|---------------------------------|---------------------------------|---------------------------------|
D|---------------------------------|---------------------------------|---------------------------------|
A|-5---2---3---4---5---2---3---4---|-5---2---3---4---5---2---3---4---|-5---2---3---4---5---2---3---4---|
E|---------------------------------|---------------------------------|---------------------------------|


G|---------------------------------|---------------------------------|---------------------------------|
D|---------------------------------|---------------------------------|---------------------------------|
A|-5---2---3---4---5---2---3---4---|-5---2---3---4---5---2---3---4---|-5---2---3---4---5---2---3---4---|
E|---------------------------------|---------------------------------|---------------------------------|


G|---------------------------------|---------------------------------|---------------------------------|
D|---------------------------------|---------------------------------|---------------------------------|
A|-5---2---3---4---5---2---3---4---|-5---2---3---4---5---2---3---4---|-5---2---3---4---5---2---3---4---|
E|---------------------------------|---------------------------------|---------------------------------|


G|---------------------------------|---------------------------------|---------------------------------|
D|---------------------------------|---------------------------------|---------------------------------|
A|-5---2---3---4---5---2---3---4---|-5---2---3---4---5---2---3---4---|-5---2---3---4---5---2---3---4---|
E|---------------------------------|---------------------------------|---------------------------------|


G|---------------------------------|---------------------------------|---------------------------------|
D|---------------------------------|---------------------------------|---------------------------------|
A|-5---2---3---4---5---2---3---4---|-5---2---3---4---5---2---3---4---|-5---2---3---4---5---2---3---4---|
E|---------------------------------|---------------------------------|---------------------------------|


G|---------------------------------|---------------------------------|---------------------------------|
D|---------------------------------|---------------------------------|---------------------------------|
A|-5---2---3---4---5---2---3---4---|-5---2---3---4---5---2---3---4---|-5---2---3---4---5---2---3---4---|
E|---------------------------------|---------------------------------|---------------------------------|


G|---------------------------------|---------------------------------|---------------------------------|
D|---------------------------------|---------------------------------|---------------------------------|
A|-5---2---3---4---5---2---3---4---|-5---2---3---4---5---2---3---4---|-5---2---3---4---5---2---3---4---|
E|---------------------------------|---------------------------------|---------------------------------|


G|---------------------------------|---------------------------------|---------------------------------|
D|---------------------------------|---------------------------------|---------------------------------|
A|-5---2---3---4---5---2---3---4---|-5---2---3---4---5---2---3---4---|-5---2---3---4---5---2---3---4---|
E|---------------------------------|---------------------------------|---------------------------------|


G|--------|--------|--------|---------------------|--------|--------|--------|---------------------|
D|--------|--------|--------|---------------------|--------|--------|--------|---------------------|
A|-5------|-3------|-2------|-1-----0---0---------|-5------|-3------|-2------|-1-----0---0---------|
E|--------|--------|--------|----------------3----|--------|--------|--------|----------------3----|


G|---------------------------------|---------------------------------|---------------------------------|
D|---------------------------------|---------------------------------|---------------------------------|
A|---------------------------------|-3---3---3---3---3---3---3---3---|-0---0---0---0---0---0---0---0---|
E|-0---0---0---0---0---0---0---0---|---------------------------------|---------------------------------|


G|---------------------------------|---------------------------------|---------------------------------|
D|---------------------------------|---------------------------------|---------------------------------|
A|-1---1---1---2---2---2-----------|---------------------------------|-3---3---3---3---3---3---3---3---|
E|-------------------------3---3---|-0---0---0---0---0---0---0---0---|---------------------------------|


G|---------------------------------|---------------------------------|---------------------------------|
D|---------------------------------|---------------------------------|---------------------------------|
A|-0---0---0---0---0---0---0---0---|-1---1---1---2---2---2-----------|-5---5---5---5---5---5---5---5---|
E|---------------------------------|-------------------------3---3---|---------------------------------|


G|---------------------------------|---------------------------------|---------------------------------|
D|---------------------------------|---------------------------------|---------------------------------|
A|-3---3---3---3---3---3---3---3---|-2---2---2---2---2---2---2---2---|-1---1---1---0---0---0-----------|
E|---------------------------------|---------------------------------|-------------------------3---3---|


G|---------------------------------|---------------------------------|---------------------------------|
D|---------------------------------|---------------------------------|---------------------------------|
A|-5---5---5---5---5---5---5---5---|-3---3---3---3---3---3---3---3---|-2---2---2---2---2---2---2---2---|
E|---------------------------------|---------------------------------|---------------------------------|


G|---------------------------------|---------------------------------|---------------------------------|
D|---------------------------------|---------------------------------|---------------------------------|
A|-1---1---1---0---0---0-----------|-5---2---3---4---5---2---3---4---|-5---2---3---4---5---2---3---4---|
E|-------------------------3---3---|---------------------------------|---------------------------------|


G|---------------------------------|---------------------------------|---------------------------------|
D|---------------------------------|---------------------------------|---------------------------------|
A|-5---2---3---4---5---2---3---4---|-5---2---3---4---5---2---3---4---|-5---2---3---4---5---2---3---4---|
E|---------------------------------|---------------------------------|---------------------------------|


G|---------------------------------|---------------------------------|---------------------------------|
D|---------------------------------|---------------------------------|---------------------------------|
A|-5---2---3---4---5---2---3---4---|-5---2---3---4---5---2---3---4---|-5---2---3---4---5---4---3---2---|
E|---------------------------------|---------------------------------|---------------------------------|