Menu:

 

Search:

 

megadeth - rust in peacepolaris:

 



Title: Rust In Piece ...Polaris
Artist: 
Album: Rust In Piece
Author: Dave Mustaine


Track 1: Mustaine

E|--------|--------|--------|--------|--------|--------|--------|--------|---------------------------------------|
B|--------|--------|--------|--------|--------|--------|--------|--------|---------------------------------------|
G|--------|--------|--------|--------|--------|--------|--------|--------|---------------------------------------|
D|--------|--------|--------|--------|--------|--------|--------|--------|---------4-------------------4---------|
A|--------|--------|--------|--------|--------|--------|--------|--------|------------4--3--2-------------4--3---|
E|--------|--------|--------|--------|--------|--------|--------|--------|-2---2---------------2---2-------------|


E|---------------------------------|---------------------------------------|------------------------------|
B|---------------------------------|---------------------------------------|------------------------------|
G|---------------------------------|---------------------------------------|------------------------------|
D|-5--------0--4---5--------0--4---|---------4-------------------4---------|-5-------5-------5-------5----|
A|-3----4------2---3----4------2---|------------4--3--2-------------4--3---|-3-------3-------3-------3----|
E|------2---------------2----------|-2---2---------------2---2-------------|------------------------------|


E|---------------------------------------|---------------------------------|---------------------------------------|
B|---------------------------------------|---------------------------------|---------------------------------------|
G|---------------------------------------|---------------------------------|---------------------------------------|
D|---------4-------------------4---------|-5--------0--4---5--------0--4---|---------4-------------------4---------|
A|------------4--3--2-------------4--3---|-3----4------2---3----4------2---|------------4--3--2-------------4--3---|
E|-2---2---------------2---2-------------|------2---------------2----------|-2---2---------------2---2-------------|


E|------------------------------|---------------------------------------|---------------------------------|
B|------------------------------|---------------------------------------|---------------------------------|
G|------------------------------|---------------------------------------|---------------------------------|
D|-5-------5--------5---5-------|---------4-------------------4---------|-5--------0--4---5--------0--4---|
A|-3-------3--------3---3-------|------------4--3--2-------------4--3---|-3----4------2---3----4------2---|
E|------------------------------|-2---2---------------2---2-------------|------2---------------2----------|


E|---------------------------------------|------------------------------|---------------------------------------|
B|---------------------------------------|------------------------------|---------------------------------------|
G|---------------------------------------|------------------------------|---------------------------------------|
D|---------4-------------------4---------|-5-------5-------5-------5----|---------4-------------------4---------|
A|------------4--3--2-------------4--3---|-3-------3-------3-------3----|------------4--3--2-------------4--3---|
E|-2---2---------------2---2-------------|------------------------------|-2---2---------------2---2-------------|


E|---------------------------------|---------------------------------------|-------------------------------------------------|
B|---------------------------------|---------------------------------------|-------------------------------------------------|
G|---------------------------------|---------------------------------------|-------------------------------------------------|
D|-5--------0--4---5--------0--4---|---------4-------------------4---------|-5-------5-------5-------5-------5-------5-------|
A|-3----4------2---3----4------2---|------------4--3--2-------------4--3---|-3-------3-------3-------3-------3-------3-------|
E|------2---------------2----------|-2---2---------------2---2-------------|-------------------------------------------------|


E|--------|-------------|--------|--------|--------------------|------------------------|
B|--------|-------------|--------|--------|--------------------|------------------------|
G|--------|-------------|--------|--------|--------------------|------------------------|
D|-4------|-------4-----|--------|--------|--------------------|------2--------4--------|
A|-2------|-------2-----|--------|-3------|-------3--------4---|------0--------2--------|
E|--------|-------------|--------|-1------|-------1--------2---|------------------------|


E|----------------|------------------------------|---------------------------|----------------|
B|----------------|------------------------------|---------------------------|----------------|
G|----------------|------------------------------|---------------------------|----------------|
D|-5--------------|------------------------------|---------2--------4--------|-5--------------|
A|-3------2---3---|-2----------------------------|---------0--------2--------|-3------2---3---|
E|----------------|-----5---2---0---5----2-------|-----2---------------------|----------------|


E|---------------------------|---------------------------|----------------|------------------------------|
B|---------------------------|---------------------------|----------------|------------------------------|
G|---------------------------|---------------------------|----------------|------------------------------|
D|-----------------------4---|-4---4---2--------4--------|-5--------------|------------------------------|
A|-2---------------4-----4---|-4---4---0--------2--------|-3------2---3---|-2----------------------------|
E|-----5---2---0---2-----2---|-2---2---------------------|----------------|-----5---2---0---5----2-------|


E|---------------------------|----------------|---------------------------|---------------------------|
B|---------------------------|----------------|---------------------------|---------------------------|
G|---------------------------|----------------|---------------------------|---------------------------|
D|---------2--------4--------|-5--------------|-----------------------4---|-4---4---2--------4--------|
A|---------0--------2--------|-3------2---3---|-2---------------4-----4---|-4---4---0--------2--------|
E|-----2---------------------|----------------|-----5---2---0---2-----2---|-2---2---------------------|


E|----------------|------------------------------|---------------------------|----------------|
B|----------------|------------------------------|---------------------------|----------------|
G|----------------|------------------------------|---------------------------|----------------|
D|-5--------------|------------------------------|---------2--------4--------|-5--------------|
A|-3------2---3---|-2----------------------------|---------0--------2--------|-3------2---3---|
E|----------------|-----5---2---0---5----2-------|-----2---------------------|----------------|


E|---------------------------|---------------------------|----------------|------------------------------|
B|---------------------------|---------------------------|----------------|------------------------------|
G|---------------------------|---------------------------|----------------|------------------------------|
D|-----------------------4---|-4---4---2--------4--------|-5--------------|------------------------------|
A|-2---------------4-----4---|-4---4---0--------2--------|-3------2---3---|-2----------------------------|
E|-----5---2---0---2-----2---|-2---2---------------------|----------------|-----5---2---0---5----2-------|


E|---------------------------|----------------|---------------------------|---------------------------|
B|---------------------------|----------------|---------------------------|---------------------------|
G|---------------------------|----------------|---------------------------|---------------------------|
D|---------2--------4--------|-5--------------|-----------------------4---|-4---4---2--------4--------|
A|---------0--------2--------|-3------2---3---|-2---------------4-----4---|-4---4---0--------2--------|
E|-----2---------------------|----------------|-----5---2---0---2-----2---|-2---2---------------------|


E|-------------|--------------------|---------------------------|-------------|--------------------|
B|-------------|--------------------|---------------------------|-------------|--------------------|
G|-------------|--------------------|---------------------------|-------------|--------------------|
D|-5-----------|--------------------|---------2--------4--------|-5------5----|-------4------------|
A|-3------7----|-------6------------|---------0--------2--------|-3-----------|------------6---6---|
E|-------------|------------7---7---|-----2---------------------|-------------|--------------------|


E|---------------------------|-------------|--------------------|---------------------------|
B|---------------------------|-------------|--------------------|---------------------------|
G|---------------------------|-------------|--------------------|---------------------------|
D|---------2--------4--------|-5------9----|-------8------------|---------2--------4--------|
A|---------0--------2--------|-3-----------|------------9---9---|---------0--------2--------|
E|-----2---------------------|-------------|--------------------|-----2---------------------|


E|-------------|--------------------|------------------------|------------------------|
B|-------------|--------------------|------------------------|------------------------|
G|--------9----|-------8------------|------------------------|------------------------|
D|-5-----------|------------9---9---|---------2--------------|------------------------|
A|-3-----------|--------------------|---------0--------2-----|-4-----------------4----|
E|-------------|--------------------|-----2------------0-----|-2-----2---2---2---2----|


E|---------------------------|------------------------|------------------------|---------------------------|
B|---------------------------|------------------------|------------------------|---------------------------|
G|---------------------------|------------------------|------------------------|---------------------------|
D|---------------------------|------------------------|------------------------|---------------------------|
A|-----------------4---------|---------4----2----4----|-5-----------------5----|-----------------5---------|
E|-----2---2---2---2-----2---|-2---2---2----0----2----|-3-----3---3---3---3----|-----3---3---3---3-----3---|


E|---------------------------|------------------------|---------------------------|
B|---------------------------|------------------------|---------------------------|
G|---------------------------|------------------------|---------------------------|
D|---------------------------|------------------------|---------------------------|
A|---------7----7------------|-4-----------------4----|-----------------4---------|
E|-3---3---5----5----3---3---|-2-----2---2---2---2----|-----2---2---2---2-----2---|


E|------------------------|------------------------|---------------------------|---------------------------|
B|------------------------|------------------------|---------------------------|---------------------------|
G|------------------------|------------------------|---------------------------|---------------------------|
D|------------------------|------------------------|---------------------------|---------------------------|
A|---------4----2----4----|-5-----------------5----|-----------------5---------|---------7----7------------|
E|-2---2---2----0----2----|-3-----3---3---3---3----|-----3---3---3---3-----3---|-3---3---5----5----3---3---|


E|------------------------|---------------------------|------------------------|------------------------|
B|------------------------|---------------------------|------------------------|------------------------|
G|------------------------|---------------------------|------------------------|------------------------|
D|------------------------|---------------------------|------------------------|------------------------|
A|-4-----------------4----|-----------------4---------|---------4----2----4----|-5-----------------5----|
E|-2-----2---2---2---2----|-----2---2---2---2-----2---|-2---2---2----0----2----|-3-----3---3---3---3----|


E|---------------------------|---------------------------|------------------------|
B|---------------------------|---------------------------|------------------------|
G|---------------------------|---------------------------|------------------------|
D|---------------------------|---------------------------|------------------------|
A|-----------------5---------|---------7----7------------|-4-----------------4----|
E|-----3---3---3---3-----3---|-3---3---5----5----3---3---|-2-----2---2---2---2----|


E|---------------------------|------------------------|------------------------|---------------------------|
B|---------------------------|------------------------|------------------------|---------------------------|
G|---------------------------|------------------------|------------------------|---------------------------|
D|---------------------------|------------------------|------------------------|-----------------7---------|
A|-----------------4---------|---------4----2----4----|-5-----------------5----|-----------------5-----5---|
E|-----2---2---2---2-----2---|-2---2---2----0----2----|-3-----3---3---3---3----|-----3---3---3-------------|


E|---------------------|---------------------------------|---------------------------------|
B|---------------------|---------------------------------|---------------------------------|
G|---------------------|---------------------------------|---------------------------------|
D|---------6-----9-----|-4---2-------2-------------------|-----4---2-------2---------------|
A|-5---5---4-----7-----|---------4-------4---0---3---2---|-0-----------4-------4---0---3---|
E|---------------------|---------------------------------|---------------------------------|


E|------------------------|---------------------------------|---------------------------------|
B|------------------------|---------------------------------|---------------------------------|
G|------------------------|---------------------------------|---------------------------------|
D|---------5---------3----|-4---2-------2-------------------|-----4---2-------2---------------|
A|-2---0---3----5----1----|---------4-------4---0---3---2---|-0-----------4-------4---0---3---|
E|--------------3---------|---------------------------------|---------------------------------|


E|------------------------|---------------------------------|---------------------------------|
B|------------------------|---------------------------------|---------------------------------|
G|------------------------|---------------------------------|---------------------------------|
D|---------5---------3----|-4---2-------2-------------------|-----4---2-------2---------------|
A|-2---0---3----5----1----|---------4-------4---0---3---2---|-0-----------4-------4---0---3---|
E|--------------3---------|---------------------------------|---------------------------------|


E|------------------------|---------------------------------|---------------------------------|
B|------------------------|---------------------------------|---------------------------------|
G|------------------------|---------------------------------|---------------------------------|
D|---------5---------3----|-4---2-------2-------------------|-----4---2-------2---------------|
A|-2---0---3----5----1----|---------4-------4---0---3---2---|-0-----------4-------4---0---3---|
E|--------------3---------|---------------------------------|---------------------------------|


E|------------------------|---------------------|------------------------|-------------|
B|------------------------|---------------------|------------------------|-------------|
G|------------------------|---------------------|------------------------|-------------|
D|---------5---------3----|-4-------------------|-----------2--------4---|------5------|
A|-2---0---3----5----1----|-2----4----2----4----|-------4---0--------2---|------3------|
E|--------------3---------|------2----0----2----|-------2----------------|-------------|


E|------------------------------|---------------------------|-------------|------------------------------|
B|------------------------------|---------------------------|-------------|------------------------------|
G|------------------------------|---------------------------|-------------|------------------------------|
D|------------------------------|--------------2--------4---|------5------|------------------------------|
A|-2---3---2--------------------|--------------0--------2---|------3------|-2---3---2---------------4----|
E|-------------5---2---0---5----|-2--------2----------------|-------------|-------------5---2---0---2----|


E|------------------------------|-------------|------------------------------|---------------------------|
B|------------------------------|-------------|------------------------------|---------------------------|
G|------------------------------|-------------|------------------------------|---------------------------|
D|-----4---4---4---2--------4---|------5------|------------------------------|--------------2--------4---|
A|-----4---4---4---0--------2---|------3------|-2---3---2--------------------|--------------0--------2---|
E|-----2---2---2----------------|-------------|-------------5---2---0---5----|-2--------2----------------|


E|-------------|------------------------------|------------------------------|-------------|
B|-------------|------------------------------|------------------------------|-------------|
G|-------------|------------------------------|------------------------------|-------------|
D|------5------|------------------------------|-----4---4---4---2--------4---|------5------|
A|------3------|-2---3---2---------------4----|-----4---4---4---0--------2---|------3------|
E|-------------|-------------5---2---0---2----|-----2---2---2----------------|-------------|


E|-------------|---------------------------|-------------|-------------|---------------------------|
B|-------------|---------------------------|-------------|-------------|---------------------------|
G|-------------|---------------------------|-------------|-------------|---------------------------|
D|-------------|--------------2--------4---|------5------|-5------4----|--------------2--------4---|
A|-7------6----|--------------0--------2---|------3------|-------------|-6---6--------0--------2---|
E|-------------|-7---7----2----------------|-------------|-------------|----------2----------------|


E|-------------|-------------|---------------------------|-------------|-------------|
B|-------------|-------------|---------------------------|-------------|-------------|
G|-------------|-------------|---------------------------|-------------|-9------8----|
D|------5------|-9------8----|--------------2--------4---|------5------|-------------|
A|------3------|-------------|-9---9--------0--------2---|------3------|-------------|
E|-------------|-------------|----------2----------------|-------------|-------------|


E|---------------------------|------------------------|------------------------|---------------------------|
B|---------------------------|------------------------|------------------------|---------------------------|
G|---------------------------|------------------------|------------------------|---------------------------|
D|-9---9--------2------------|------------------------|------------------------|---------------------------|
A|--------------0--------2---|------4-----------------|-4-----------------4----|-----------------4----2----|
E|----------2------------0---|------2-----2---2---2---|-2-----2---2---2---2----|-----2---2---2---2----0----|


E|------------------------|------------------------|---------------------------|---------------------------|
B|------------------------|------------------------|---------------------------|---------------------------|
G|------------------------|------------------------|---------------------------|---------------------------|
D|------------------------|------------------------|---------------------------|---------------------------|
A|-4----5-----------------|-5-----------------5----|-----------------7----7----|---------4-----------------|
E|-2----3-----3---3---3---|-3-----3---3---3---3----|-----3---3---3---5----5----|-3---3---2-----2---2---2---|


E|------------------------|---------------------------|------------------------|------------------------|
B|------------------------|---------------------------|------------------------|------------------------|
G|------------------------|---------------------------|------------------------|------------------------|
D|------------------------|---------------------------|------------------------|------------------------|
A|-4-----------------4----|-----------------4----2----|-4----5-----------------|-5-----------------5----|
E|-2-----2---2---2---2----|-----2---2---2---2----0----|-2----3-----3---3---3---|-3-----3---3---3---3----|


E|---------------------------|---------------------------|------------------------|
B|---------------------------|---------------------------|------------------------|
G|---------------------------|---------------------------|------------------------|
D|---------------------------|---------------------------|------------------------|
A|-----------------7----7----|---------4-----------------|-4-----------------4----|
E|-----3---3---3---5----5----|-3---3---2-----2---2---2---|-2-----2---2---2---2----|


E|---------------------------|------------------------|------------------------|---------------------------|
B|---------------------------|------------------------|------------------------|---------------------------|
G|---------------------------|------------------------|------------------------|---------------------------|
D|---------------------------|------------------------|------------------------|---------------------------|
A|-----------------4----2----|-4----5-----------------|-5-----------------5----|-----------------7----7----|
E|-----2---2---2---2----0----|-2----3-----3---3---3---|-3-----3---3---3---3----|-----3---3---3---5----5----|


E|---------------------------|------------------------|---------------------------|
B|---------------------------|------------------------|---------------------------|
G|---------------------------|------------------------|---------------------------|
D|---------------------------|------------------------|---------------------------|
A|---------4-----------------|-4-----------------4----|-----------------4----2----|
E|-3---3---2-----2---2---2---|-2-----2---2---2---2----|-----2---2---2---2----0----|


E|------------------------|------------------------|---------------------------|------------------------------|
B|------------------------|------------------------|---------------------------|------------------------------|
G|------------------------|------------------------|---------------------------|------------------------------|
D|------------------------|-------------------7----|-----------------6-----9---|------4---2-------2-----------|
A|-4----5-----------------|-5-----------------5----|-----5---5---5---4-----7---|--------------4-------4---0---|
E|-2----3-----3---3---3---|-3-----3---3---3--------|---------------------------|------------------------------|


E|---------------------------------|---------------------------|------------------------------|
B|---------------------------------|---------------------------|------------------------------|
G|---------------------------------|---------------------------|------------------------------|
D|-------------4---2-------2-------|-----------------5---------|-3----4---2-------2-----------|
A|-3---2---0-----------4-------4---|-0---3---2---0---3----5----|-1------------4-------4---0---|
E|---------------------------------|----------------------3----|------------------------------|


E|---------------------------------|---------------------------|------------------------------|
B|---------------------------------|---------------------------|------------------------------|
G|---------------------------------|---------------------------|------------------------------|
D|-------------4---2-------2-------|-----------------5---------|-3----4---2-------2-----------|
A|-3---2---0-----------4-------4---|-0---3---2---0---3----5----|-1------------4-------4---0---|
E|---------------------------------|----------------------3----|------------------------------|


E|---------------------------------|---------------------------|------------------------------|
B|---------------------------------|---------------------------|------------------------------|
G|---------------------------------|---------------------------|------------------------------|
D|-------------4---2-------2-------|-----------------5---------|-3----4---2-------2-----------|
A|-3---2---0-----------4-------4---|-0---3---2---0---3----5----|-1------------4-------4---0---|
E|---------------------------------|----------------------3----|------------------------------|


E|---------------------------------|---------------------------|---------------------|
B|---------------------------------|---------------------------|---------------------|
G|---------------------------------|---------------------------|---------------------|
D|-------------4---2-------2-------|-----------------5---------|-3----4--------------|
A|-3---2---0-----------4-------4---|-0---3---2---0---3----5----|-1----2----4----2----|
E|---------------------------------|----------------------3----|-----------2----0----|


E|------------------------|--------------------|------------------------------|---------------------------|
B|------------------------|--------------------|------------------------------|---------------------------|
G|------------------------|--------------------|------------------------------|---------------------------|
D|----------------2-------|-----4--------5-----|------------------------------|-------------------2-------|
A|-4----------4---0-------|-----2--------3-----|------2---3---2---------------|-------------------0-------|
E|-2----------2-----------|--------------------|------------------5---2---0---|-5----2--------2-----------|


E|--------------------|------------------------------|---------------------------|
B|--------------------|------------------------------|---------------------------|
G|--------------------|------------------------------|---------------------------|
D|-----4--------5-----|------------------------------|-------4---4---4---2-------|
A|-----2--------3-----|------2---3---2---------------|-4-----4---4---4---0-------|
E|--------------------|------------------5---2---0---|-2-----2---2---2-----------|


E|--------------------|------------------------------|---------------------------|
B|--------------------|------------------------------|---------------------------|
G|--------------------|------------------------------|---------------------------|
D|-----4--------5-----|------------------------------|-------------------2-------|
A|-----2--------3-----|------2---3---2---------------|-------------------0-------|
E|--------------------|------------------5---2---0---|-5----2--------2-----------|


E|--------------------|------------------------------|---------------------------|
B|--------------------|------------------------------|---------------------------|
G|--------------------|------------------------------|---------------------------|
D|-----4--------5-----|------------------------------|-------4---4---4---2-------|
A|-----2--------3-----|------2---3---2---------------|-4-----4---4---4---0-------|
E|--------------------|------------------5---2---0---|-2-----2---2---2-----------|


E|--------------------|-------------|---------------------------|--------------------|
B|--------------------|-------------|---------------------------|--------------------|
G|--------------------|-------------|---------------------------|--------------------|
D|-----4--------5-----|-------------|-------------------2-------|-----4--------5-----|
A|-----2--------3-----|------7------|-6-----------------0-------|-----2--------3-----|
E|--------------------|-------------|------7---7----2-----------|--------------------|


E|-------------|---------------------------|--------------------|-------------|---------------------------|
B|-------------|---------------------------|--------------------|-------------|---------------------------|
G|-------------|---------------------------|--------------------|-------------|---------------------------|
D|------5------|-4-----------------2-------|-----4--------5-----|------9------|-8-----------------2-------|
A|-------------|------6---6--------0-------|-----2--------3-----|-------------|------9---9--------0-------|
E|-------------|---------------2-----------|--------------------|-------------|---------------2-----------|


E|--------------------|-------------|---------------------------|---------------------|
B|--------------------|-------------|---------------------------|---------------------|
G|--------------------|------9------|-8-------------------------|---------------------|
D|-----4--------5-----|-------------|------9---9--------2-------|---------------------|
A|-----2--------3-----|-------------|-------------------0-------|-----2-----4---------|
E|--------------------|-------------|---------------2-----------|-----0-----2-----2---|


E|---------------------------|------------------------|---------------------|---------------------------|
B|---------------------------|------------------------|---------------------|---------------------------|
G|---------------------------|------------------------|---------------------|---------------------------|
D|---------------------------|------------------------|---------------------|---------------------------|
A|---------4-----------------|-4-----------------4----|-2----4----5---------|---------5-----------------|
E|-2---2---2-----2---2---2---|-2-----2---2---2---2----|-0----2----3-----3---|-3---3---3-----3---3---3---|


E|------------------------|------------------------|---------------------------|------------------------|
B|------------------------|------------------------|---------------------------|------------------------|
G|------------------------|------------------------|---------------------------|------------------------|
D|------------------------|------------------------|---------------------------|------------------------|
A|-5-----------------7----|-7------------4---------|---------4-----------------|-4-----------------4----|
E|-3-----3---3---3---5----|-5----3---3---2-----2---|-2---2---2-----2---2---2---|-2-----2---2---2---2----|


E|---------------------|---------------------------|------------------------|------------------------|
B|---------------------|---------------------------|------------------------|------------------------|
G|---------------------|---------------------------|------------------------|------------------------|
D|---------------------|---------------------------|------------------------|------------------------|
A|-2----4----5---------|---------5-----------------|-5-----------------7----|-7------------4---------|
E|-0----2----3-----3---|-3---3---3-----3---3---3---|-3-----3---3---3---5----|-5----3---3---2-----2---|


E|---------------------------|------------------------|---------------------|---------------------------|
B|---------------------------|------------------------|---------------------|---------------------------|
G|---------------------------|------------------------|---------------------|---------------------------|
D|---------------------------|------------------------|---------------------|---------------------------|
A|---------4-----------------|-4-----------------4----|-2----4----5---------|---------5-----------------|
E|-2---2---2-----2---2---2---|-2-----2---2---2---2----|-0----2----3-----3---|-3---3---3-----3---3---3---|


E|------------------------|------------------------|---------------------------|------------------------|
B|------------------------|------------------------|---------------------------|------------------------|
G|------------------------|------------------------|---------------------------|------------------------|
D|------------------------|------------------------|---------------------------|------------------------|
A|-5-----------------7----|-7------------4---------|---------4-----------------|-4-----------------4----|
E|-3-----3---3---3---5----|-5----3---3---2-----2---|-2---2---2-----2---2---2---|-2-----2---2---2---2----|


E|---------------------|---------------------------|------------------------|---------------------------|
B|---------------------|---------------------------|------------------------|---------------------------|
G|---------------------|---------------------------|------------------------|---------------------------|
D|---------------------|---------------------------|-7-----------------6----|-----9-----4---2-------2---|
A|-2----4----5---------|---------5-----------------|-5-----5---5---5---4----|-----7-------------4-------|
E|-0----2----3-----3---|-3---3---3-----3---3---3---|------------------------|---------------------------|


E|---------------------------------|------------------------------|---------------------------|
B|---------------------------------|------------------------------|---------------------------|
G|---------------------------------|------------------------------|---------------------------|
D|---------------------4---2-------|-2-----------------------5----|------3----4---2-------2---|
A|-4---0---3---2---0-----------4---|-----4---0---3---2---0---3----|-5----1------------4-------|
E|---------------------------------|------------------------------|-3-------------------------|


E|---------------------------------|------------------------------|---------------------------|
B|---------------------------------|------------------------------|---------------------------|
G|---------------------------------|------------------------------|---------------------------|
D|---------------------4---2-------|-2-----------------------5----|------3----4---2-------2---|
A|-4---0---3---2---0-----------4---|-----4---0---3---2---0---3----|-5----1------------4-------|
E|---------------------------------|------------------------------|-3-------------------------|


E|---------------------------------|------------------------------|---------------------------|
B|---------------------------------|------------------------------|---------------------------|
G|---------------------------------|------------------------------|---------------------------|
D|---------------------4---2-------|-2-----------------------5----|------3----4---2-------2---|
A|-4---0---3---2---0-----------4---|-----4---0---3---2---0---3----|-5----1------------4-------|
E|---------------------------------|------------------------------|-3-------------------------|


E|---------------------------------|------------------------------|---------------------|
B|---------------------------------|------------------------------|---------------------|
G|---------------------------------|------------------------------|---------------------|
D|---------------------4---2-------|-2-----------------------5----|------3----4---------|
A|-4---0---3---2---0-----------4---|-----4---0---3---2---0---3----|-5----1----2----4----|
E|---------------------------------|------------------------------|-3--------------2----|


E|---------------------|--------|------------------------|---------------------------|
B|---------------------|--------|------------------------|---------------------------|
G|---------------------|--------|------------------------|---------------------------|
D|---------------------|--------|------------------------|---------------------------|
A|-2----4--------------|--------|-4----4--------4---5----|-4--------4-------4---5----|
E|-0----2--------------|--------|-2----2----0---2---3----|-2----0---2---0---2---3----|


E|------------------------|------------------------------|------------------------|
B|------------------------|------------------------------|------------------------|
G|------------------------|------------------------------|------------------------|
D|------------------------|-------------------------5----|------------------------|
A|-4----4--------4---5----|-4-----------4-----------3----|-4----4--------4---5----|
E|-2----2----0---2---3----|-2-------0---2-------0--------|-2----2----0---2---3----|


E|------------------------------|------------------------|-----------------|------------------------|
B|------------------------------|------------------------|-----------------|------------------------|
G|------------------------------|------------------------|-----------------|------------------------|
D|------------------------------|------------------------|-----------5-----|------------------------|
A|-4--------4-----------4---5---|-4----4--------4---5----|-4---------3-----|-4----4--------4---5----|
E|-2----0---2-------0---2---3---|-2----2----0---2---3----|-2---------------|-2----2----0---2---3----|


E|------------------------------|------------------------|------------------------------|
B|------------------------------|------------------------|------------------------------|
G|------------------------------|------------------------|------------------------------|
D|------------------------------|------------------------|-------------------------5----|
A|-4--------4-----------4---5---|-4----4--------4---5----|-4-----------4-----------3----|
E|-2----0---2-------0---2---3---|-2----2----0---2---3----|-2-------0---2-------0--------|


E|------------------------|------------------------------|------------------------|
B|------------------------|------------------------------|------------------------|
G|------------------------|------------------------------|------------------------|
D|------------------------|------------------------------|------------------------|
A|-4----4--------4---5----|-4--------4-----------4---5---|-4----4--------4---5----|
E|-2----2----0---2---3----|-2----0---2-------0---2---3---|-2----2----0---2---3----|


E|-----------------|------------------------|------------------------------|------------------------|
B|-----------------|------------------------|------------------------------|------------------------|
G|-----------------|------------------------|------------------------------|------------------------|
D|-----------5-----|------------------------|------------------------------|------------------------|
A|-4---------3-----|-4----4--------4---5----|-4--------4-----------4---5---|-4----4--------4---5----|
E|-2---------------|-2----2----0---2---3----|-2----0---2-------0---2---3---|-2----2----0---2---3----|


E|------------------------------|------------------------|------------------------------|
B|------------------------------|------------------------|------------------------------|
G|------------------------------|------------------------|------------------------------|
D|-------------------------5----|------------------------|------------------------------|
A|-4-----------4-----------3----|-4----4--------4---5----|-4--------4-----------4---5---|
E|-2-------0---2-------0--------|-2----2----0---2---3----|-2----0---2-------0---2---3---|


E|------------------------|-----------------|------------------------------|------------------------------|
B|------------------------|-----------------|------------------------------|------------------------------|
G|------------------------|-----------------|------------------------------|------------------------------|
D|------------------------|-----------5-----|------------------------------|------------------------------|
A|-4----4--------4---5----|-4---------3-----|-------------5--------4-------|-------------5--------4-------|
E|-2----2----0---2---3----|-2---------------|-2---2---2---3----0---2-------|-2---2---2---3----0---2-------|


E|------------------------------|------------------------------|------------------------------|
B|------------------------------|------------------------------|------------------------------|
G|------------------------------|------------------------------|------------------------------|
D|------------------------------|------------------------------|------------------------------|
A|-------------5--------4-------|-------------5--------4-------|-------------5--------4-------|
E|-2---2---2---3----0---2-------|-2---2---2---3----0---2-------|-2---2---2---3----0---2-------|


E|------------------------------|------------------------------|------------------------------|
B|------------------------------|------------------------------|------------------------------|
G|------------------------------|------------------------------|------------------------------|
D|------------------------------|------------------------------|------------------------------|
A|-------------5--------4-------|-------------5--------4-------|-------------5--------4-------|
E|-2---2---2---3----0---2-------|-2---2---2---3----0---2-------|-2---2---2---3----0---2-------|


E|---------------------------------|---------------------------------|---------------------------------|
B|---------------------------------|---------------------------------|---------------------------------|
G|---------------------------------|---------------------------------|---------------------------------|
D|---------------------------------|---------------------------------|---------------------------------|
A|-2---3---2---0---2---0-----------|---------------------------------|-2---3---2---0---2---0-----------|
E|-------------------------3---2---|-2---2---2---5---2---0---2-------|-------------------------3---2---|


E|---------------------------------|---------------------------------|---------------------------------|
B|---------------------------------|---------------------------------|---------------------------------|
G|---------------------------------|---------------------------------|---------------------------------|
D|---------------------------------|---------------------------------|---------------------------------|
A|---------------------------------|-2---3---2---0---2---0-----------|---------------------------------|
E|-2---2---2---5---2---0---2-------|-------------------------3---2---|-2---2---2---5---2---0---2-------|


E|---------------------------------|------------------------------|------------------------------|
B|---------------------------------|------------------------------|------------------------------|
G|---------------------------------|------------------------------|------------------------------|
D|---------------------------------|------------------------------|------------------------------|
A|-2---3---2---0---2---0-----------|-------------5--------4-------|-------------5--------4-------|
E|-------------------------3---2---|-2---2---2---3----0---2-------|-2---2---2---3----0---2-------|


E|------------------------------|------------------------------|-19----------|---------------------------------|
B|------------------------------|------------------------------|-------------|---------------------------------|
G|------------------------------|------------------------------|-------------|---------------------------------|
D|------------------------------|------------------------------|-------------|---------------------------------|
A|-------------5--------4-------|-------------5--------4-------|-------------|---------------------------------|
E|-2---2---2---3----0---2-------|-2---2---2---3----0---2-------|-------------|-2---2---2---5---2---0---2-------|


E|---------------------------------|---------------------------------|---------------------------------|
B|---------------------------------|---------------------------------|---------------------------------|
G|---------------------------------|---------------------------------|---------------------------------|
D|---------------------------------|---------------------------------|---------------------------------|
A|-2---3---2---0---2---0-----------|---------------------------------|-2---3---2---0---2---0-----------|
E|-------------------------3---2---|-2---2---2---5---2---0---2-------|-------------------------3---2---|


E|---------------------------------|---------------------------------|------------------------------|
B|---------------------------------|---------------------------------|------------------------------|
G|---------------------------------|---------------------------------|------------------------------|
D|---------------------------------|---------------------------------|------------------------------|
A|---------------------------------|-2---3---2---0---2---0-----------|-------------5--------4-------|
E|-2---2---2---5---2---0---2-------|-------------------------3---2---|-2---2---2---3----0---2-------|


E|------------------------------|------------------------------|------------------------------|
B|------------------------------|------------------------------|------------------------------|
G|------------------------------|------------------------------|------------------------------|
D|------------------------------|------------------------------|------------------------------|
A|-------------5--------4-------|-------------5--------4-------|-------------5--------4-------|
E|-2---2---2---3----0---2-------|-2---2---2---3----0---2-------|-2---2---2---3----0---2-------|


E|---------------------------------|---------------------------------|---------------------------------|
B|---------------------------------|---------------------------------|---------------------------------|
G|---------------------------------|---------------------------------|---------------------------------|
D|---------------------------------|---------------------------------|---------------------------------|
A|-2---3---2---0---2---0-----------|---------------------------------|-2---3---2---0---2---0-----------|
E|-------------------------3---2---|-2---2---2---5---2---0---2-------|-------------------------3---2---|


E|---------------------------------|---------------------------------|---------------------------------|
B|---------------------------------|---------------------------------|---------------------------------|
G|---------------------------------|---------------------------------|---------------------------------|
D|---------------------------------|---------------------------------|---------------------------------|
A|-2---2---2---3---2---0---2---0---|-2---3---2---0---2---0-------0---|-5---4---3---2-------------------|
E|---------------------------------|-------------------------2-------|-----------------5---3---2---1---|


E|---------------------------------|------------------------------|------------------------------|
B|---------------------------------|------------------------------|------------------------------|
G|---------------------------------|------------------------------|------------------------------|
D|---------------------------------|------------------------------|------------------------------|
A|-2---3---2---0---2---0-----------|-------------5--------4-------|-------------5--------4-------|
E|-------------------------3---2---|-2---2---2---3----0---2-------|-2---2---2---3----0---2-------|


E|------------------------------|------------------------------|---------------------------------|
B|------------------------------|------------------------------|---------------------------------|
G|------------------------------|------------------------------|---------------------------------|
D|------------------------------|------------------------------|---------------------------------|
A|-------------5--------4-------|-------------5--------4-------|-2---3---2---0---2---0-----------|
E|-2---2---2---3----0---2-------|-2---2---2---3----0---2-------|-------------------------3---2---|


E|---------------------------------|---------------------------------|---------------------------------|
B|---------------------------------|---------------------------------|---------------------------------|
G|---------------------------------|---------------------------------|---------------------------------|
D|---------------------------------|---------------------------------|---------------------------------|
A|---------------------------------|-2---3---2---0---2---0-----------|-2---2---2---3---2---0---2---0---|
E|-2---2---2---5---2---0---2-------|-------------------------3---2---|---------------------------------|


E|---------------------------------|---------------------------------|---------------------------------|
B|---------------------------------|---------------------------------|---------------------------------|
G|---------------------------------|---------------------------------|---------------------------------|
D|---------------------------------|---------------------------------|---------------------------------|
A|-2---3---2---0---2---0-------0---|-5---4---3---2-------------------|-2---3---2---0---2---0-----------|
E|-------------------------2-------|-----------------5---3---2---1---|-------------------------3---2---|


E|------------------------------|------------------------------|------------------------------|
B|------------------------------|------------------------------|------------------------------|
G|------------------------------|------------------------------|------------------------------|
D|------------------------------|------------------------------|------------------------------|
A|-------------5--------4-------|-------------5--------4-------|-------------5--------4-------|
E|-2---2---2---3----0---2-------|-2---2---2---3----0---2-------|-2---2---2---3----0---2-------|


E|------------------------------|---------------------------------|---------------------------------|
B|------------------------------|---------------------------------|---------------------------------|
G|------------------------------|---------------------------------|---------------------------------|
D|------------------------------|---------------------------------|---------------------------------|
A|-------------5--------4-------|-2---3---2---0---2---0-----------|---------------------------------|
E|-2---2---2---3----0---2-------|-------------------------3---2---|-2---2---2---5---2---0---2-------|


E|---------------------------------|---------------------------------|---------------------------------|
B|---------------------------------|---------------------------------|---------------------------------|
G|---------------------------------|---------------------------------|---------------------------------|
D|---------------------------------|---------------------------------|---------------------------------|
A|-2---3---2---0---2---0-----------|-2---2---2---3---2---0---2---0---|-2---3---2---0---2---0-------0---|
E|-------------------------3---2---|---------------------------------|-------------------------2-------|


E|---------------------------------|---------------------------------|------------------------------|
B|---------------------------------|---------------------------------|------------------------------|
G|---------------------------------|---------------------------------|------------------------------|
D|---------------------------------|---------------------------------|------------------------------|
A|-5---4---3---2-------------------|-2---3---2---0---2---0-----------|-------------5--------4-------|
E|-----------------5---3---2---1---|-------------------------3---2---|-2---2---2---3----0---2-------|


E|------------------------------|------------------------------|------------------------------|
B|------------------------------|------------------------------|------------------------------|
G|------------------------------|------------------------------|------------------------------|
D|------------------------------|------------------------------|------------------------------|
A|-------------5--------4-------|-------------5--------4-------|-------------5--------4-------|
E|-2---2---2---3----0---2-------|-2---2---2---3----0---2-------|-2---2---2---3----0---2-------|


E|---------------------------------|---------------------------------|---------------------------------|
B|---------------------------------|---------------------------------|---------------------------------|
G|---------------------------------|---------------------------------|---------------------------------|
D|---------------------------------|---------------------------------|---------------------------------|
A|-2---3---2---0---2---0-----------|---------------------------------|-2---3---2---0---2---0-----------|
E|-------------------------3---2---|-2---2---2---5---2---0---2-------|-------------------------3---2---|


E|---------------------------------|---------------------------------|---------------------------------|
B|---------------------------------|---------------------------------|---------------------------------|
G|---------------------------------|---------------------------------|---------------------------------|
D|---------------------------------|---------------------------------|---------------------------------|
A|-2---2---2---3---2---0---2---0---|-2---3---2---0---2---0-------0---|-5---4---3---2-------------------|
E|---------------------------------|-------------------------2-------|-----------------5---3---2---1---|


E|---------------------------------|------------------------------|------------------------------|
B|---------------------------------|------------------------------|------------------------------|
G|---------------------------------|------------------------------|------------------------------|
D|---------------------------------|------------------------------|------------------------------|
A|-2---3---2---0---2---0-----------|-------------5--------4-------|-------------5--------4-------|
E|-------------------------3---2---|-2---2---2---3----0---2-------|-2---2---2---3----0---2-------|


E|------------------------------|------------------------------|------------------------------|
B|------------------------------|------------------------------|------------------------------|
G|------------------------------|------------------------------|------------------------------|
D|------------------------------|------------------------------|------------------------------|
A|-------------5--------4-------|-------------5--------4-------|-------------5--------4-------|
E|-2---2---2---3----0---2-------|-2---2---2---3----0---2-------|-2---2---2---3----0---2-------|


E|------------------------------|------------------------------|------------------------------|
B|------------------------------|------------------------------|------------------------------|
G|------------------------------|------------------------------|------------------------------|
D|------------------------------|------------------------------|------------------------------|
A|-------------5--------4-------|-------------5--------4-------|-------------5--------4-------|
E|-2---2---2---3----0---2-------|-2---2---2---3----0---2-------|-2---2---2---3----0---2-------|


E|------------------------|---------------------------|------------------------|------------------------------|
B|------------------------|---------------------------|------------------------|------------------------------|
G|------------------------|---------------------------|------------------------|------------------------------|
D|------------------------|---------------------------|------------------------|-------------------------5----|
A|-4----4--------4---5----|-4--------4-------4---5----|-4----4--------4---5----|-4-----------4-----------3----|
E|-2----2----0---2---3----|-2----0---2---0---2---3----|-2----2----0---2---3----|-2-------0---2-------0--------|


E|------------------------|---------------------------|------------------------|-----------------|
B|------------------------|---------------------------|------------------------|-----------------|
G|------------------------|---------------------------|------------------------|-----------------|
D|------------------------|---------------------------|------------------------|-----------5-----|
A|-4----4--------4---5----|-4--------4-------4---5----|-4----4--------4---5----|-4---------3-----|
E|-2----2----0---2---3----|-2----0---2---0---2---3----|-2----2----0---2---3----|-2---------------|


E|------------------------|---------------------------|------------------------|------------------------------|
B|------------------------|---------------------------|------------------------|------------------------------|
G|------------------------|---------------------------|------------------------|------------------------------|
D|------------------------|---------------------------|------------------------|-------------------------5----|
A|-4----4--------4---5----|-4--------4-------4---5----|-4----4--------4---5----|-4-----------4-----------3----|
E|-2----2----0---2---3----|-2----0---2---0---2---3----|-2----2----0---2---3----|-2-------0---2-------0--------|


E|------------------------|---------------------------|------------------------|-----------------|
B|------------------------|---------------------------|------------------------|-----------------|
G|------------------------|---------------------------|------------------------|-----------------|
D|------------------------|---------------------------|------------------------|-----------------|
A|-4----4--------4---5----|-4--------4-------4---5----|-4----4--------4---5----|-4---------------|
E|-2----2----0---2---3----|-2----0---2---0---2---3----|-2----2----0---2---3----|-2---------------|





Track 2: Friedman Solo

E|--------|--------|--------|--------|--------|--------|--------|--------|--------|
B|--------|--------|--------|--------|--------|--------|--------|--------|--------|
G|--------|--------|--------|--------|--------|--------|--------|--------|--------|
D|--------|--------|--------|--------|--------|--------|--------|--------|--------|
A|--------|--------|--------|--------|--------|--------|--------|--------|--------|
E|--------|--------|--------|--------|--------|--------|--------|--------|--------|


E|--------|--------|--------|--------|--------|--------|--------|--------|--------|
B|--------|--------|--------|--------|--------|--------|--------|--------|--------|
G|--------|--------|--------|--------|--------|--------|--------|--------|--------|
D|--------|--------|--------|--------|--------|--------|--------|--------|--------|
A|--------|--------|--------|--------|--------|--------|--------|--------|--------|
E|--------|--------|--------|--------|--------|--------|--------|--------|--------|


E|--------|--------|--------|--------|--------|--------|------------------------|--------------------|
B|--------|--------|--------|--------|--------|--------|-17--17--17--17----17---|-17--17-------------|
G|--------|--------|--------|--------|--------|--------|------------------------|----------16--16----|
D|--------|--------|--------|--------|--------|--------|------------------------|--------------------|
A|--------|--------|--------|--------|--------|--------|------------------------|--------------------|
E|--------|--------|--------|--------|--------|--------|------------------------|--------------------|


E|------17-------------------|---------------17--20-20---|-17------------------------|
B|------17---17--20--17--20--|-20----20--20--------------|-----18--------------------|
G|---------------------------|---------------------------|---------17----------------|
D|---------------------------|---------------------------|-------------19--19---19---|
A|---------------------------|---------------------------|---------------------------|
E|---------------------------|---------------------------|---------------------------|


E|-------------|--------|-------------|--------|--------|--------|--------|--------|
B|-------------|--------|-------------|--------|--------|--------|--------|--------|
G|-------------|--------|-------------|--------|--------|--------|--------|--------|
D|-------------|--------|-------------|--------|--------|--------|--------|--------|
A|-------------|--------|-------------|--------|--------|--------|--------|--------|
E|-------------|--------|-------------|--------|--------|--------|--------|--------|


E|--------|--------|--------|--------|--------|--------|--------|--------|--------|
B|--------|--------|--------|--------|--------|--------|--------|--------|--------|
G|--------|--------|--------|--------|--------|--------|--------|--------|--------|
D|--------|--------|--------|--------|--------|--------|--------|--------|--------|
A|--------|--------|--------|--------|--------|--------|--------|--------|--------|
E|--------|--------|--------|--------|--------|--------|--------|--------|--------|


E|--------|--------|--------|--------|--------|--------|--------|--------|--------|
B|--------|--------|--------|--------|--------|--------|--------|--------|--------|
G|--------|--------|--------|--------|--------|--------|--------|--------|--------|
D|--------|--------|--------|--------|--------|--------|--------|--------|--------|
A|--------|--------|--------|--------|--------|--------|--------|--------|--------|
E|--------|--------|--------|--------|--------|--------|--------|--------|--------|


E|--------|--------|--------|--------|--------|--------|--------|--------|--------|
B|--------|--------|--------|--------|--------|--------|--------|--------|--------|
G|--------|--------|--------|--------|--------|--------|--------|--------|--------|
D|--------|--------|--------|--------|--------|--------|--------|--------|--------|
A|--------|--------|--------|--------|--------|--------|--------|--------|--------|
E|--------|--------|--------|--------|--------|--------|--------|--------|--------|


E|--------|--------|--------|--------|--------|--------|--------|--------|--------|
B|--------|--------|--------|--------|--------|--------|--------|--------|--------|
G|--------|--------|--------|--------|--------|--------|--------|--------|--------|
D|--------|--------|--------|--------|--------|--------|--------|--------|--------|
A|--------|--------|--------|--------|--------|--------|--------|--------|--------|
E|--------|--------|--------|--------|--------|--------|--------|--------|--------|


E|--------|--------|--------|--------|--------|--------|--------|--------|--------|
B|--------|--------|--------|--------|--------|--------|--------|--------|--------|
G|--------|--------|--------|--------|--------|--------|--------|--------|--------|
D|--------|--------|--------|--------|--------|--------|--------|--------|--------|
A|--------|--------|--------|--------|--------|--------|--------|--------|--------|
E|--------|--------|--------|--------|--------|--------|--------|--------|--------|


E|--------|--------|--------|--------|--------|--------|--------|--------|--------|
B|--------|--------|--------|--------|--------|--------|--------|--------|--------|
G|--------|--------|--------|--------|--------|--------|--------|--------|--------|
D|--------|--------|--------|--------|--------|--------|--------|--------|--------|
A|--------|--------|--------|--------|--------|--------|--------|--------|--------|
E|--------|--------|--------|--------|--------|--------|--------|--------|--------|


E|--------|--------|--------|--------|--------|--------|--------|--------|--------|
B|--------|--------|--------|--------|--------|--------|--------|--------|--------|
G|--------|--------|--------|--------|--------|--------|--------|--------|--------|
D|--------|--------|--------|--------|--------|--------|--------|--------|--------|
A|--------|--------|--------|--------|--------|--------|--------|--------|--------|
E|--------|--------|--------|--------|--------|--------|--------|--------|--------|


E|--------|--------|--------|--------|--------|--------|--------|--------|--------|
B|--------|--------|--------|--------|--------|--------|--------|--------|--------|
G|--------|--------|--------|--------|--------|--------|--------|--------|--------|
D|--------|--------|--------|--------|--------|--------|--------|--------|--------|
A|--------|--------|--------|--------|--------|--------|--------|--------|--------|
E|--------|--------|--------|--------|--------|--------|--------|--------|--------|


E|--------|--------|--------|--------|--------|--------|--------|--------|--------|
B|--------|--------|--------|--------|--------|--------|--------|--------|--------|
G|--------|--------|--------|--------|--------|--------|--------|--------|--------|
D|--------|--------|--------|--------|--------|--------|--------|--------|--------|
A|--------|--------|--------|--------|--------|--------|--------|--------|--------|
E|--------|--------|--------|--------|--------|--------|--------|--------|--------|


E|--------|--------|--------|--------|--------|--------|--------|--------|--------|
B|--------|--------|--------|--------|--------|--------|--------|--------|--------|
G|--------|--------|--------|--------|--------|--------|--------|--------|--------|
D|--------|--------|--------|--------|--------|--------|--------|--------|--------|
A|--------|--------|--------|--------|--------|--------|--------|--------|--------|
E|--------|--------|--------|--------|--------|--------|--------|--------|--------|


E|--------|--------|--------|--------|--------|--------|--------|--------|--------|
B|--------|--------|--------|--------|--------|--------|--------|--------|--------|
G|--------|--------|--------|--------|--------|--------|--------|--------|--------|
D|--------|--------|--------|--------|--------|--------|--------|--------|--------|
A|--------|--------|--------|--------|--------|--------|--------|--------|--------|
E|--------|--------|--------|--------|--------|--------|--------|--------|--------|


E|--------|--------|--------|--------|--------|--------|--------|--------|--------|
B|--------|--------|--------|--------|--------|--------|--------|--------|--------|
G|--------|--------|--------|--------|--------|--------|--------|--------|--------|
D|--------|--------|--------|--------|--------|--------|--------|--------|--------|
A|--------|--------|--------|--------|--------|--------|--------|--------|--------|
E|--------|--------|--------|--------|--------|--------|--------|--------|--------|


E|--------|--------|--------|--------|--------|--------|--------|--------|--------|
B|--------|--------|--------|--------|--------|--------|--------|--------|--------|
G|--------|--------|--------|--------|--------|--------|--------|--------|--------|
D|--------|--------|--------|--------|--------|--------|--------|--------|--------|
A|--------|--------|--------|--------|--------|--------|--------|--------|--------|
E|--------|--------|--------|--------|--------|--------|--------|--------|--------|


E|--------|--------|--------|--------|--------|--------|--------|--------|--------|
B|--------|--------|--------|--------|--------|--------|--------|--------|--------|
G|--------|--------|--------|--------|--------|--------|--------|--------|--------|
D|--------|--------|--------|--------|--------|--------|--------|--------|--------|
A|--------|--------|--------|--------|--------|--------|--------|--------|--------|
E|--------|--------|--------|--------|--------|--------|--------|--------|--------|


E|--------|--------|--------|--------|--------|--------|--------|--------|--------|
B|--------|--------|--------|--------|--------|--------|--------|--------|--------|
G|--------|--------|--------|--------|--------|--------|--------|--------|--------|
D|--------|--------|--------|--------|--------|--------|--------|--------|--------|
A|--------|--------|--------|--------|--------|--------|--------|--------|--------|
E|--------|--------|--------|--------|--------|--------|--------|--------|--------|


E|--------|--------|--------|--------|--------|--------|--------|--------|--------|
B|--------|--------|--------|--------|--------|--------|--------|--------|--------|
G|--------|--------|--------|--------|--------|--------|--------|--------|--------|
D|--------|--------|--------|--------|--------|--------|--------|--------|--------|
A|--------|--------|--------|--------|--------|--------|--------|--------|--------|
E|--------|--------|--------|--------|--------|--------|--------|--------|--------|


E|--------|--------|--------|--------|--------|--------|--------|--------|--------|
B|--------|--------|--------|--------|--------|--------|--------|--------|--------|
G|--------|--------|--------|--------|--------|--------|--------|--------|--------|
D|--------|--------|--------|--------|--------|--------|--------|--------|--------|
A|--------|--------|--------|--------|--------|--------|--------|--------|--------|
E|--------|--------|--------|--------|--------|--------|--------|--------|--------|


E|--------|--------|--------|--------|--------|--------|--------|--------|--------|
B|--------|--------|--------|--------|--------|--------|--------|--------|--------|
G|--------|--------|--------|--------|--------|--------|--------|--------|--------|
D|--------|--------|--------|--------|--------|--------|--------|--------|--------|
A|--------|--------|--------|--------|--------|--------|--------|--------|--------|
E|--------|--------|--------|--------|--------|--------|--------|--------|--------|


E|--------|--------|--------|--------|--------|--------|--------|--------|--------|
B|--------|--------|--------|--------|--------|--------|--------|--------|--------|
G|--------|--------|--------|--------|--------|--------|--------|--------|--------|
D|--------|--------|--------|--------|--------|--------|--------|--------|--------|
A|--------|--------|--------|--------|--------|--------|--------|--------|--------|
E|--------|--------|--------|--------|--------|--------|--------|--------|--------|


E|--------|--------|--------|--------|--------|--------|--------|--------|--------|
B|--------|--------|--------|--------|--------|--------|--------|--------|--------|
G|--------|--------|--------|--------|--------|--------|--------|--------|--------|
D|--------|--------|--------|--------|--------|--------|--------|--------|--------|
A|--------|--------|--------|--------|--------|--------|--------|--------|--------|
E|--------|--------|--------|--------|--------|--------|--------|--------|--------|


E|--------|--------|--------|--------|--------|--------|--------|--------|--------|
B|--------|--------|--------|--------|--------|--------|--------|--------|--------|
G|--------|--------|--------|--------|--------|--------|--------|--------|--------|
D|--------|--------|--------|--------|--------|--------|--------|--------|--------|
A|--------|--------|--------|--------|--------|--------|--------|--------|--------|
E|--------|--------|--------|--------|--------|--------|--------|--------|--------|


E|--------|--------|--------|--------|--------|--------|--------|--------|--------|
B|--------|--------|--------|--------|--------|--------|--------|--------|--------|
G|--------|--------|--------|--------|--------|--------|--------|--------|--------|
D|--------|--------|--------|--------|--------|--------|--------|--------|--------|
A|--------|--------|--------|--------|--------|--------|--------|--------|--------|
E|--------|--------|--------|--------|--------|--------|--------|--------|--------|


E|--------|--------|--------|--------|--------|--------|--------|--------|--------|
B|--------|--------|--------|--------|--------|--------|--------|--------|--------|
G|--------|--------|--------|--------|--------|--------|--------|--------|--------|
D|--------|--------|--------|--------|--------|--------|--------|--------|--------|
A|--------|--------|--------|--------|--------|--------|--------|--------|--------|
E|--------|--------|--------|--------|--------|--------|--------|--------|--------|


E|--------|--------|--------|--------|--------|--------|--------|--------|-----------------|
B|--------|--------|--------|--------|--------|--------|--------|--------|------------17---|
G|--------|--------|--------|--------|--------|--------|--------|--------|-----------------|
D|--------|--------|--------|--------|--------|--------|--------|--------|-----------------|
A|--------|--------|--------|--------|--------|--------|--------|--------|-----------------|
E|--------|--------|--------|--------|--------|--------|--------|--------|-----------------|


E|-----------------------|-------------------------------|-----------------------------------------|
B|-17----17--17--17--14--|-17---17---17--17--17--14------|-17--14--------------17--14--------------|
G|-----------------------|---------------------------17--|---------17--14--17----------17--14--13--|
D|-----------------------|-------------------------------|-----------------------------------------|
A|-----------------------|-------------------------------|-----------------------------------------|
E|-----------------------|-------------------------------|-----------------------------------------|


E|---------------------------------------------|-14--------------17-14-----------------17--14--|
B|-16--13--------------------------------------|-----17--14--17--------14--17--14--17----------|
G|---------16--13--17--14--17--14--16--17--14--|-----------------------------------------------|
D|---------------------------------------------|-----------------------------------------------|
A|---------------------------------------------|-----------------------------------------------|
E|---------------------------------------------|-----------------------------------------------|


E|-------------17-14-------19--14------14--17---|-17---17--17--17---16---14---|-19---19--19--19--19--19--19--|
B|-17--14--17--------17-14---------17-----------|-----------------------------|------------------------------|
G|----------------------------------------------|-----------------------------|------------------------------|
D|----------------------------------------------|-----------------------------|------------------------------|
A|----------------------------------------------|-----------------------------|------------------------------|
E|----------------------------------------------|-----------------------------|------------------------------|


E|-19----------|--------|--------|--------|--------|--------|--------|--------|--------|
B|-------------|--------|--------|--------|--------|--------|--------|--------|--------|
G|-------------|--------|--------|--------|--------|--------|--------|--------|--------|
D|-------------|--------|--------|--------|--------|--------|--------|--------|--------|
A|-------------|--------|--------|--------|--------|--------|--------|--------|--------|
E|-------------|--------|--------|--------|--------|--------|--------|--------|--------|


E|--------|--------|--------|--------|--------|--------|--------|--------|--------|
B|--------|--------|--------|--------|--------|--------|--------|--------|--------|
G|--------|--------|--------|--------|--------|--------|--------|--------|--------|
D|--------|--------|--------|--------|--------|--------|--------|--------|--------|
A|--------|--------|--------|--------|--------|--------|--------|--------|--------|
E|--------|--------|--------|--------|--------|--------|--------|--------|--------|


E|--------|--------|--------|--------|--------|--------|--------|--------|--------|
B|--------|--------|--------|--------|--------|--------|--------|--------|--------|
G|--------|--------|--------|--------|--------|--------|--------|--------|--------|
D|--------|--------|--------|--------|--------|--------|--------|--------|--------|
A|--------|--------|--------|--------|--------|--------|--------|--------|--------|
E|--------|--------|--------|--------|--------|--------|--------|--------|--------|


E|--------|--------|--------|--------|--------|--------|--------|--------|--------|
B|--------|--------|--------|--------|--------|--------|--------|--------|--------|
G|--------|--------|--------|--------|--------|--------|--------|--------|--------|
D|--------|--------|--------|--------|--------|--------|--------|--------|--------|
A|--------|--------|--------|--------|--------|--------|--------|--------|--------|
E|--------|--------|--------|--------|--------|--------|--------|--------|--------|


E|--------|--------|--------|--------|--------|--------|--------|--------|--------|
B|--------|--------|--------|--------|--------|--------|--------|--------|--------|
G|--------|--------|--------|--------|--------|--------|--------|--------|--------|
D|--------|--------|--------|--------|--------|--------|--------|--------|--------|
A|--------|--------|--------|--------|--------|--------|--------|--------|--------|
E|--------|--------|--------|--------|--------|--------|--------|--------|--------|


E|--------|--------|--------|--------|--------|--------|--------|--------|--------|
B|--------|--------|--------|--------|--------|--------|--------|--------|--------|
G|--------|--------|--------|--------|--------|--------|--------|--------|--------|
D|--------|--------|--------|--------|--------|--------|--------|--------|--------|
A|--------|--------|--------|--------|--------|--------|--------|--------|--------|
E|--------|--------|--------|--------|--------|--------|--------|--------|--------|


E|--------|--------|--------|--------|--------|--------|--------|--------|--------|
B|--------|--------|--------|--------|--------|--------|--------|--------|--------|
G|--------|--------|--------|--------|--------|--------|--------|--------|--------|
D|--------|--------|--------|--------|--------|--------|--------|--------|--------|
A|--------|--------|--------|--------|--------|--------|--------|--------|--------|
E|--------|--------|--------|--------|--------|--------|--------|--------|--------|


E|--------|--------|--------|--------|--------|--------|--------|--------|--------|
B|--------|--------|--------|--------|--------|--------|--------|--------|--------|
G|--------|--------|--------|--------|--------|--------|--------|--------|--------|
D|--------|--------|--------|--------|--------|--------|--------|--------|--------|
A|--------|--------|--------|--------|--------|--------|--------|--------|--------|
E|--------|--------|--------|--------|--------|--------|--------|--------|--------|


E|--------|--------|--------|--------|--------|--------|--------|--------|--------|
B|--------|--------|--------|--------|--------|--------|--------|--------|--------|
G|--------|--------|--------|--------|--------|--------|--------|--------|--------|
D|--------|--------|--------|--------|--------|--------|--------|--------|--------|
A|--------|--------|--------|--------|--------|--------|--------|--------|--------|
E|--------|--------|--------|--------|--------|--------|--------|--------|--------|


E|--------|--------|--------|--------|--------|
B|--------|--------|--------|--------|--------|
G|--------|--------|--------|--------|--------|
D|--------|--------|--------|--------|--------|
A|--------|--------|--------|--------|--------|
E|--------|--------|--------|--------|--------|





Track 3: Friedman

E|--------|--------|--------|--------|--------|--------|--------|--------|--------|
B|--------|--------|--------|--------|--------|--------|--------|--------|--------|
G|--------|--------|--------|--------|--------|--------|--------|--------|--------|
D|--------|--------|--------|--------|--------|--------|--------|--------|--------|
A|--------|--------|--------|--------|--------|--------|--------|--------|--------|
E|--------|--------|--------|--------|--------|--------|--------|--------|--------|


E|--------|--------|--------|--------|--------|--------|--------|--------|--------|
B|--------|--------|--------|--------|--------|--------|--------|--------|--------|
G|--------|--------|--------|--------|--------|--------|--------|--------|--------|
D|--------|--------|--------|--------|--------|--------|--------|--------|--------|
A|--------|--------|--------|--------|--------|--------|--------|--------|--------|
E|--------|--------|--------|--------|--------|--------|--------|--------|--------|


E|--------|--------|--------|--------|--------|--------|--------|--------|--------|
B|--------|--------|--------|--------|--------|--------|--------|--------|--------|
G|--------|--------|--------|--------|--------|--------|--------|--------|--------|
D|--------|--------|--------|--------|--------|--------|--------|--------|--------|
A|--------|--------|--------|--------|--------|--------|--------|--------|--------|
E|--------|--------|--------|--------|--------|--------|--------|--------|--------|


E|--------|--------|--------|--------|--------|--------|--------|--------|--------|
B|--------|--------|--------|--------|--------|--------|--------|--------|--------|
G|--------|--------|--------|--------|--------|--------|--------|--------|--------|
D|--------|--------|--------|--------|--------|--------|--------|--------|--------|
A|--------|--------|--------|--------|--------|--------|--------|--------|--------|
E|--------|--------|--------|--------|--------|--------|--------|--------|--------|


E|--------|--------|--------|--------|--------|--------|--------|--------|--------|
B|--------|--------|--------|--------|--------|--------|--------|--------|--------|
G|--------|--------|--------|--------|--------|--------|--------|--------|--------|
D|--------|--------|--------|--------|--------|--------|--------|--------|--------|
A|--------|--------|--------|--------|--------|--------|--------|--------|--------|
E|--------|--------|--------|--------|--------|--------|--------|--------|--------|


E|--------|--------|--------|--------|--------|--------|--------|--------|--------|
B|--------|--------|--------|--------|--------|--------|--------|--------|--------|
G|--------|--------|--------|--------|--------|--------|--------|--------|--------|
D|--------|--------|--------|--------|--------|--------|--------|--------|--------|
A|--------|--------|--------|--------|--------|--------|--------|--------|--------|
E|--------|--------|--------|--------|--------|--------|--------|--------|--------|


E|-------------|--------------------|---------------------------|-------------|--------------------|
B|-------------|--------------------|---------------------------|-------------|--------------------|
G|-------------|--------------------|---------------------------|-------------|--------------------|
D|-5------5----|-------4------------|---------2--------4--------|-5------9----|-------8------------|
A|-3-----------|------------6---6---|---------0--------2--------|-3-----------|------------9---9---|
E|-------------|--------------------|-----2---------------------|-------------|--------------------|


E|---------------------------|-------------|--------------------|---------------------------|
B|---------------------------|-------------|--------------------|---------------------------|
G|---------------------------|--------9----|-------8------------|---------------------------|
D|---------2--------4--------|-5-----------|------------9---9---|---------2--------4--------|
A|---------0--------2--------|-3-----------|--------------------|---------0--------2--------|
E|-----2---------------------|-------------|--------------------|-----2---------------------|


E|-------------|--------------------|---------------------|------------------------|
B|--------8----|-------7------------|---------------------|------------------------|
G|-------------|------------8---8---|---------------------|------------------------|
D|-5-----------|--------------------|---------2-----------|------------------------|
A|-3-----------|--------------------|---------0-----2-----|-4-----------------4----|
E|-------------|--------------------|-----2---------0-----|-2-----2---2---2---2----|


E|-----------------------|--------|--------|--------|--------|--------|--------|--------|
B|-----------------------|--------|--------|--------|--------|--------|--------|--------|
G|-----------------------|--------|--------|--------|--------|--------|--------|--------|
D|-----------------------|--------|--------|--------|--------|--------|--------|--------|
A|-----------------------|--------|--------|--------|--------|--------|--------|--------|
E|-----2---2---2---------|--------|--------|--------|--------|--------|--------|--------|


E|--------|--------|--------|--------|--------|--------|--------|--------|--------|
B|--------|--------|--------|--------|--------|--------|--------|--------|--------|
G|--------|--------|--------|--------|--------|--------|--------|--------|--------|
D|--------|--------|--------|--------|--------|--------|--------|--------|--------|
A|--------|--------|--------|--------|--------|--------|--------|--------|--------|
E|--------|--------|--------|--------|--------|--------|--------|--------|--------|


E|--------|--------|--------|--------|--------|--------|--------|--------|--------|
B|--------|--------|--------|--------|--------|--------|--------|--------|--------|
G|--------|--------|--------|--------|--------|--------|--------|--------|--------|
D|--------|--------|--------|--------|--------|--------|--------|--------|--------|
A|--------|--------|--------|--------|--------|--------|--------|--------|--------|
E|--------|--------|--------|--------|--------|--------|--------|--------|--------|


E|--------|--------|--------|--------|--------|--------|--------|--------|--------|
B|--------|--------|--------|--------|--------|--------|--------|--------|--------|
G|--------|--------|--------|--------|--------|--------|--------|--------|--------|
D|--------|--------|--------|--------|--------|--------|--------|--------|--------|
A|--------|--------|--------|--------|--------|--------|--------|--------|--------|
E|--------|--------|--------|--------|--------|--------|--------|--------|--------|


E|--------|--------|--------|--------|--------|--------|--------|--------|--------|
B|--------|--------|--------|--------|--------|--------|--------|--------|--------|
G|--------|--------|--------|--------|--------|--------|--------|--------|--------|
D|--------|--------|--------|--------|--------|--------|--------|--------|--------|
A|--------|--------|--------|--------|--------|--------|--------|--------|--------|
E|--------|--------|--------|--------|--------|--------|--------|--------|--------|


E|--------|--------|--------|--------|--------|-------------|-------------|---------------------------|
B|--------|--------|--------|--------|--------|-------------|-------------|---------------------------|
G|--------|--------|--------|--------|--------|-------------|-------------|---------------------------|
D|--------|--------|--------|--------|--------|------5------|-5------4----|--------------2--------4---|
A|--------|--------|--------|--------|--------|------3------|-------------|-6---6--------0--------2---|
E|--------|--------|--------|--------|--------|-------------|-------------|----------2----------------|


E|-------------|-------------|---------------------------|-------------|-------------|
B|-------------|-------------|---------------------------|-------------|-------------|
G|-------------|-------------|---------------------------|-------------|-9------8----|
D|------5------|-9------8----|--------------2--------4---|------5------|-------------|
A|------3------|-------------|-9---9--------0--------2---|------3------|-------------|
E|-------------|-------------|----------2----------------|-------------|-------------|


E|---------------------------|-------------|-------------|------------------------|
B|---------------------------|-------------|-8------7----|------------------------|
G|---------------------------|-------------|-------------|-8---8------------------|
D|-9---9--------2--------4---|------5------|-------------|--------------2---------|
A|--------------0--------2---|------3------|-------------|--------------0-----2---|
E|----------2----------------|-------------|-------------|----------2---------0---|


E|------------------------|------------------------|--------|--------|--------|--------|
B|------------------------|------------------------|--------|--------|--------|--------|
G|------------------------|------------------------|--------|--------|--------|--------|
D|------------------------|------------------------|--------|--------|--------|--------|
A|------4-----------------|-4----------------------|--------|--------|--------|--------|
E|------2-----2---2---2---|-2-----2---2---2--------|--------|--------|--------|--------|


E|--------|--------|--------|--------|--------|--------|--------|--------|--------|
B|--------|--------|--------|--------|--------|--------|--------|--------|--------|
G|--------|--------|--------|--------|--------|--------|--------|--------|--------|
D|--------|--------|--------|--------|--------|--------|--------|--------|--------|
A|--------|--------|--------|--------|--------|--------|--------|--------|--------|
E|--------|--------|--------|--------|--------|--------|--------|--------|--------|


E|--------|--------|--------|--------|--------|--------|--------|--------|--------|
B|--------|--------|--------|--------|--------|--------|--------|--------|--------|
G|--------|--------|--------|--------|--------|--------|--------|--------|--------|
D|--------|--------|--------|--------|--------|--------|--------|--------|--------|
A|--------|--------|--------|--------|--------|--------|--------|--------|--------|
E|--------|--------|--------|--------|--------|--------|--------|--------|--------|


E|--------|--------|--------|--------|--------|--------|--------|--------|--------|
B|--------|--------|--------|--------|--------|--------|--------|--------|--------|
G|--------|--------|--------|--------|--------|--------|--------|--------|--------|
D|--------|--------|--------|--------|--------|--------|--------|--------|--------|
A|--------|--------|--------|--------|--------|--------|--------|--------|--------|
E|--------|--------|--------|--------|--------|--------|--------|--------|--------|


E|--------|--------|--------|--------|--------|--------|--------|--------|--------|
B|--------|--------|--------|--------|--------|--------|--------|--------|--------|
G|--------|--------|--------|--------|--------|--------|--------|--------|--------|
D|--------|--------|--------|--------|--------|--------|--------|--------|--------|
A|--------|--------|--------|--------|--------|--------|--------|--------|--------|
E|--------|--------|--------|--------|--------|--------|--------|--------|--------|


E|--------|--------|--------|--------|--------|--------|--------|--------|-------------|
B|--------|--------|--------|--------|--------|--------|--------|--------|-------------|
G|--------|--------|--------|--------|--------|--------|--------|--------|-------------|
D|--------|--------|--------|--------|--------|--------|--------|--------|-------5-----|
A|--------|--------|--------|--------|--------|--------|--------|--------|-------3-----|
E|--------|--------|--------|--------|--------|--------|--------|--------|-------------|


E|-------------|---------------------------|--------------------|-------------|---------------------------|
B|-------------|---------------------------|--------------------|-------------|---------------------------|
G|-------------|---------------------------|--------------------|-------------|---------------------------|
D|------5------|-4-----------------2-------|-----4--------5-----|------9------|-8-----------------2-------|
A|-------------|------6---6--------0-------|-----2--------3-----|-------------|------9---9--------0-------|
E|-------------|---------------2-----------|--------------------|-------------|---------------2-----------|


E|--------------------|-------------|---------------------------|--------------------|
B|--------------------|-------------|---------------------------|--------------------|
G|--------------------|------9------|-8-------------------------|--------------------|
D|-----4--------5-----|-------------|------9---9--------2-------|-----4--------5-----|
A|-----2--------3-----|-------------|-------------------0-------|-----2--------3-----|
E|--------------------|-------------|---------------2-----------|--------------------|


E|-------------|------------------------|---------------------|---------------------------|
B|------8------|-7----------------------|---------------------|---------------------------|
G|-------------|------8---8-------------|---------------------|---------------------------|
D|-------------|-------------------2----|---------------------|---------------------------|
A|-------------|-------------------0----|-----2-----4---------|---------4-----------------|
E|-------------|---------------2--------|-----0-----2-----2---|-2---2---2-----2---2---2---|


E|--------|--------|--------|--------|--------|--------|--------|--------|--------|
B|--------|--------|--------|--------|--------|--------|--------|--------|--------|
G|--------|--------|--------|--------|--------|--------|--------|--------|--------|
D|--------|--------|--------|--------|--------|--------|--------|--------|--------|
A|--------|--------|--------|--------|--------|--------|--------|--------|--------|
E|--------|--------|--------|--------|--------|--------|--------|--------|--------|


E|--------|--------|--------|--------|--------|--------|--------|--------|--------|
B|--------|--------|--------|--------|--------|--------|--------|--------|--------|
G|--------|--------|--------|--------|--------|--------|--------|--------|--------|
D|--------|--------|--------|--------|--------|--------|--------|--------|--------|
A|--------|--------|--------|--------|--------|--------|--------|--------|--------|
E|--------|--------|--------|--------|--------|--------|--------|--------|--------|


E|--------|--------|--------|--------|--------|--------|--------|--------|--------|
B|--------|--------|--------|--------|--------|--------|--------|--------|--------|
G|--------|--------|--------|--------|--------|--------|--------|--------|--------|
D|--------|--------|--------|--------|--------|--------|--------|--------|--------|
A|--------|--------|--------|--------|--------|--------|--------|--------|--------|
E|--------|--------|--------|--------|--------|--------|--------|--------|--------|


E|--------|--------|--------|--------|--------|--------|--------|--------|--------|
B|--------|--------|--------|--------|--------|--------|--------|--------|--------|
G|--------|--------|--------|--------|--------|--------|--------|--------|--------|
D|--------|--------|--------|--------|--------|--------|--------|--------|--------|
A|--------|--------|--------|--------|--------|--------|--------|--------|--------|
E|--------|--------|--------|--------|--------|--------|--------|--------|--------|


E|--------|--------|--------|--------|--------|--------|--------|--------|--------|
B|--------|--------|--------|--------|--------|--------|--------|--------|--------|
G|--------|--------|--------|--------|--------|--------|--------|--------|--------|
D|--------|--------|--------|--------|--------|--------|--------|--------|--------|
A|--------|--------|--------|--------|--------|--------|--------|--------|--------|
E|--------|--------|--------|--------|--------|--------|--------|--------|--------|


E|--------|--------|--------|--------|--------|--------|--------|--------|--------|
B|--------|--------|--------|--------|--------|--------|--------|--------|--------|
G|--------|--------|--------|--------|--------|--------|--------|--------|--------|
D|--------|--------|--------|--------|--------|--------|--------|--------|--------|
A|--------|--------|--------|--------|--------|--------|--------|--------|--------|
E|--------|--------|--------|--------|--------|--------|--------|--------|--------|


E|--------|--------|--------|--------|--------|--------|--------|--------|--------|
B|--------|--------|--------|--------|--------|--------|--------|--------|--------|
G|--------|--------|--------|--------|--------|--------|--------|--------|--------|
D|--------|--------|--------|--------|--------|--------|--------|--------|--------|
A|--------|--------|--------|--------|--------|--------|--------|--------|--------|
E|--------|--------|--------|--------|--------|--------|--------|--------|--------|


E|--------|--------|--------|--------|--------|--------|--------|--------|--------|
B|--------|--------|--------|--------|--------|--------|--------|--------|--------|
G|--------|--------|--------|--------|--------|--------|--------|--------|--------|
D|--------|--------|--------|--------|--------|--------|--------|--------|--------|
A|--------|--------|--------|--------|--------|--------|--------|--------|--------|
E|--------|--------|--------|--------|--------|--------|--------|--------|--------|


E|--------|--------|--------|--------|--------|--------|--------|--------|--------|
B|--------|--------|--------|--------|--------|--------|--------|--------|--------|
G|--------|--------|--------|--------|--------|--------|--------|--------|--------|
D|--------|--------|--------|--------|--------|--------|--------|--------|--------|
A|--------|--------|--------|--------|--------|--------|--------|--------|--------|
E|--------|--------|--------|--------|--------|--------|--------|--------|--------|


E|--------|--------|--------|--------|--------|--------|--------|--------|--------|
B|--------|--------|--------|--------|--------|--------|--------|--------|--------|
G|--------|--------|--------|--------|--------|--------|--------|--------|--------|
D|--------|--------|--------|--------|--------|--------|--------|--------|--------|
A|--------|--------|--------|--------|--------|--------|--------|--------|--------|
E|--------|--------|--------|--------|--------|--------|--------|--------|--------|


E|--------|--------|--------|--------|--------|--------|--------|--------|--------|
B|--------|--------|--------|--------|--------|--------|--------|--------|--------|
G|--------|--------|--------|--------|--------|--------|--------|--------|--------|
D|--------|--------|--------|--------|--------|--------|--------|--------|--------|
A|--------|--------|--------|--------|--------|--------|--------|--------|--------|
E|--------|--------|--------|--------|--------|--------|--------|--------|--------|


E|--------|--------|--------|--------|--------|--------|--------|--------|--------|
B|--------|--------|--------|--------|--------|--------|--------|--------|--------|
G|--------|--------|--------|--------|--------|--------|--------|--------|--------|
D|--------|--------|--------|--------|--------|--------|--------|--------|--------|
A|--------|--------|--------|--------|--------|--------|--------|--------|--------|
E|--------|--------|--------|--------|--------|--------|--------|--------|--------|


E|--------|--------|--------|--------|--------|--------|--------|--------|--------|
B|--------|--------|--------|--------|--------|--------|--------|--------|--------|
G|--------|--------|--------|--------|--------|--------|--------|--------|--------|
D|--------|--------|--------|--------|--------|--------|--------|--------|--------|
A|--------|--------|--------|--------|--------|--------|--------|--------|--------|
E|--------|--------|--------|--------|--------|--------|--------|--------|--------|


E|--------|--------|--------|--------|--------|--------|--------|--------|--------|
B|--------|--------|--------|--------|--------|--------|--------|--------|--------|
G|--------|--------|--------|--------|--------|--------|--------|--------|--------|
D|--------|--------|--------|--------|--------|--------|--------|--------|--------|
A|--------|--------|--------|--------|--------|--------|--------|--------|--------|
E|--------|--------|--------|--------|--------|--------|--------|--------|--------|


E|--------|--------|--------|--------|--------|--------|--------|--------|--------|
B|--------|--------|--------|--------|--------|--------|--------|--------|--------|
G|--------|--------|--------|--------|--------|--------|--------|--------|--------|
D|--------|--------|--------|--------|--------|--------|--------|--------|--------|
A|--------|--------|--------|--------|--------|--------|--------|--------|--------|
E|--------|--------|--------|--------|--------|--------|--------|--------|--------|


E|--------|--------|--------|--------|--------|--------|--------|--------|--------|
B|--------|--------|--------|--------|--------|--------|--------|--------|--------|
G|--------|--------|--------|--------|--------|--------|--------|--------|--------|
D|--------|--------|--------|--------|--------|--------|--------|--------|--------|
A|--------|--------|--------|--------|--------|--------|--------|--------|--------|
E|--------|--------|--------|--------|--------|--------|--------|--------|--------|


E|--------|--------|--------|--------|--------|--------|--------|--------|--------|
B|--------|--------|--------|--------|--------|--------|--------|--------|--------|
G|--------|--------|--------|--------|--------|--------|--------|--------|--------|
D|--------|--------|--------|--------|--------|--------|--------|--------|--------|
A|--------|--------|--------|--------|--------|--------|--------|--------|--------|
E|--------|--------|--------|--------|--------|--------|--------|--------|--------|


E|--------|--------|
B|--------|--------|
G|--------|--------|
D|--------|--------|
A|--------|--------|
E|--------|--------|





Track 4: Mustaine

E|--------|--------|--------|--------|--------|--------|--------|--------|--------|
B|--------|--------|--------|--------|--------|--------|--------|--------|--------|
G|--------|--------|--------|--------|--------|--------|--------|--------|--------|
D|--------|--------|--------|--------|--------|--------|--------|--------|--------|
A|--------|--------|--------|--------|--------|--------|--------|--------|--------|
E|--------|--------|--------|--------|--------|--------|--------|--------|--------|


E|--------|--------|--------|--------|--------|--------|--------|--------|--------|
B|--------|--------|--------|--------|--------|--------|--------|--------|--------|
G|--------|--------|--------|--------|--------|--------|--------|--------|--------|
D|--------|--------|--------|--------|--------|--------|--------|--------|--------|
A|--------|--------|--------|--------|--------|--------|--------|--------|--------|
E|--------|--------|--------|--------|--------|--------|--------|--------|--------|


E|--------|--------|--------|--------|--------|--------|--------|--------|--------|
B|--------|--------|--------|--------|--------|--------|--------|--------|--------|
G|--------|--------|--------|--------|--------|--------|--------|--------|--------|
D|--------|--------|--------|--------|--------|--------|--------|--------|--------|
A|--------|--------|--------|--------|--------|--------|--------|--------|--------|
E|--------|--------|--------|--------|--------|--------|--------|--------|--------|


E|--------|--------|--------|--------|--------|--------|--------|--------|--------|
B|--------|--------|--------|--------|--------|--------|--------|--------|--------|
G|--------|--------|--------|--------|--------|--------|--------|--------|--------|
D|--------|--------|--------|--------|--------|--------|--------|--------|--------|
A|--------|--------|--------|--------|--------|--------|--------|--------|--------|
E|--------|--------|--------|--------|--------|--------|--------|--------|--------|


E|--------|--------|--------|--------|--------|--------|--------|--------|--------|
B|--------|--------|--------|--------|--------|--------|--------|--------|--------|
G|--------|--------|--------|--------|--------|--------|--------|--------|--------|
D|--------|--------|--------|--------|--------|--------|--------|--------|--------|
A|--------|--------|--------|--------|--------|--------|--------|--------|--------|
E|--------|--------|--------|--------|--------|--------|--------|--------|--------|


E|--------|--------|--------|--------|--------|--------|--------|--------|--------|
B|--------|--------|--------|--------|--------|--------|--------|--------|--------|
G|--------|--------|--------|--------|--------|--------|--------|--------|--------|
D|--------|--------|--------|--------|--------|--------|--------|--------|--------|
A|--------|--------|--------|--------|--------|--------|--------|--------|--------|
E|--------|--------|--------|--------|--------|--------|--------|--------|--------|


E|--------|--------|--------|--------|--------|--------|--------|--------|--------|
B|--------|--------|--------|--------|--------|--------|--------|--------|--------|
G|--------|--------|--------|--------|--------|--------|--------|--------|--------|
D|--------|--------|--------|--------|--------|--------|--------|--------|--------|
A|--------|--------|--------|--------|--------|--------|--------|--------|--------|
E|--------|--------|--------|--------|--------|--------|--------|--------|--------|


E|--------|--------|--------|--------|--------|--------|--------|--------|--------|
B|--------|--------|--------|--------|--------|--------|--------|--------|--------|
G|--------|--------|--------|--------|--------|--------|--------|--------|--------|
D|--------|--------|--------|--------|--------|--------|--------|--------|--------|
A|--------|--------|--------|--------|--------|--------|--------|--------|--------|
E|--------|--------|--------|--------|--------|--------|--------|--------|--------|


E|--------|--------|--------|--------|--------|--------|--------|--------|--------|
B|--------|--------|--------|--------|--------|--------|--------|--------|--------|
G|--------|--------|--------|--------|--------|--------|--------|--------|--------|
D|--------|--------|--------|--------|--------|--------|--------|--------|--------|
A|--------|--------|--------|--------|--------|--------|--------|--------|--------|
E|--------|--------|--------|--------|--------|--------|--------|--------|--------|


E|--------|--------|--------|--------|--------|--------|--------|--------|--------|
B|--------|--------|--------|--------|--------|--------|--------|--------|--------|
G|--------|--------|--------|--------|--------|--------|--------|--------|--------|
D|--------|--------|--------|--------|--------|--------|--------|--------|--------|
A|--------|--------|--------|--------|--------|--------|--------|--------|--------|
E|--------|--------|--------|--------|--------|--------|--------|--------|--------|


E|--------|--------|--------|--------|--------|--------|--------|--------|--------|
B|--------|--------|--------|--------|--------|--------|--------|--------|--------|
G|--------|--------|--------|--------|--------|--------|--------|--------|--------|
D|--------|--------|--------|--------|--------|--------|--------|--------|--------|
A|--------|--------|--------|--------|--------|--------|--------|--------|--------|
E|--------|--------|--------|--------|--------|--------|--------|--------|--------|


E|--------|--------|--------|--------|--------|--------|--------|--------|--------|
B|--------|--------|--------|--------|--------|--------|--------|--------|--------|
G|--------|--------|--------|--------|--------|--------|--------|--------|--------|
D|--------|--------|--------|--------|--------|--------|--------|--------|--------|
A|--------|--------|--------|--------|--------|--------|--------|--------|--------|
E|--------|--------|--------|--------|--------|--------|--------|--------|--------|


E|--------|--------|--------|--------|--------|--------|--------|--------|--------|
B|--------|--------|--------|--------|--------|--------|--------|--------|--------|
G|--------|--------|--------|--------|--------|--------|--------|--------|--------|
D|--------|--------|--------|--------|--------|--------|--------|--------|--------|
A|--------|--------|--------|--------|--------|--------|--------|--------|--------|
E|--------|--------|--------|--------|--------|--------|--------|--------|--------|


E|--------|--------|--------|--------|--------|--------|--------|--------|--------|
B|--------|--------|--------|--------|--------|--------|--------|--------|--------|
G|--------|--------|--------|--------|--------|--------|--------|--------|--------|
D|--------|--------|--------|--------|--------|--------|--------|--------|--------|
A|--------|--------|--------|--------|--------|--------|--------|--------|--------|
E|--------|--------|--------|--------|--------|--------|--------|--------|--------|


E|--------|--------|--------|--------|--------|--------|--------|--------|--------|
B|--------|--------|--------|--------|--------|--------|--------|--------|--------|
G|--------|--------|--------|--------|--------|--------|--------|--------|--------|
D|--------|--------|--------|--------|--------|--------|--------|--------|--------|
A|--------|--------|--------|--------|--------|--------|--------|--------|--------|
E|--------|--------|--------|--------|--------|--------|--------|--------|--------|


E|--------|--------|--------|--------|--------|--------|--------|--------|--------|
B|--------|--------|--------|--------|--------|--------|--------|--------|--------|
G|--------|--------|--------|--------|--------|--------|--------|--------|--------|
D|--------|--------|--------|--------|--------|--------|--------|--------|--------|
A|--------|--------|--------|--------|--------|--------|--------|--------|--------|
E|--------|--------|--------|--------|--------|--------|--------|--------|--------|


E|--------|--------|--------|--------|--------|--------|--------|--------|--------|
B|--------|--------|--------|--------|--------|--------|--------|--------|--------|
G|--------|--------|--------|--------|--------|--------|--------|--------|--------|
D|--------|--------|--------|--------|--------|--------|--------|--------|--------|
A|--------|--------|--------|--------|--------|--------|--------|--------|--------|
E|--------|--------|--------|--------|--------|--------|--------|--------|--------|


E|--------|--------|--------|--------|--------|--------|--------|--------|--------|
B|--------|--------|--------|--------|--------|--------|--------|--------|--------|
G|--------|--------|--------|--------|--------|--------|--------|--------|--------|
D|--------|--------|--------|--------|--------|--------|--------|--------|--------|
A|--------|--------|--------|--------|--------|--------|--------|--------|--------|
E|--------|--------|--------|--------|--------|--------|--------|--------|--------|


E|--------|--------|--------|--------|--------|--------|--------|--------|--------|
B|--------|--------|--------|--------|--------|--------|--------|--------|--------|
G|--------|--------|--------|--------|--------|--------|--------|--------|--------|
D|--------|--------|--------|--------|--------|--------|--------|--------|--------|
A|--------|--------|--------|--------|--------|--------|--------|--------|--------|
E|--------|--------|--------|--------|--------|--------|--------|--------|--------|


E|--------|--------|--------|--------|--------|--------|--------|--------|--------|
B|--------|--------|--------|--------|--------|--------|--------|--------|--------|
G|--------|--------|--------|--------|--------|--------|--------|--------|--------|
D|--------|--------|--------|--------|--------|--------|--------|--------|--------|
A|--------|--------|--------|--------|--------|--------|--------|--------|--------|
E|--------|--------|--------|--------|--------|--------|--------|--------|--------|


E|--------|--------|--------|--------|--------|--------|--------|--------|--------|
B|--------|--------|--------|--------|--------|--------|--------|--------|--------|
G|--------|--------|--------|--------|--------|--------|--------|--------|--------|
D|--------|--------|--------|--------|--------|--------|--------|--------|--------|
A|--------|--------|--------|--------|--------|--------|--------|--------|--------|
E|--------|--------|--------|--------|--------|--------|--------|--------|--------|


E|--------|--------|--------|--------|--------|--------|--------|--------|--------|
B|--------|--------|--------|--------|--------|--------|--------|--------|--------|
G|--------|--------|--------|--------|--------|--------|--------|--------|--------|
D|--------|--------|--------|--------|--------|--------|--------|--------|--------|
A|--------|--------|--------|--------|--------|--------|--------|--------|--------|
E|--------|--------|--------|--------|--------|--------|--------|--------|--------|


E|--------|--------|--------|--------|--------|--------|--------|--------|--------|
B|--------|--------|--------|--------|--------|--------|--------|--------|--------|
G|--------|--------|--------|--------|--------|--------|--------|--------|--------|
D|--------|--------|--------|--------|--------|--------|--------|--------|--------|
A|--------|--------|--------|--------|--------|--------|--------|--------|--------|
E|--------|--------|--------|--------|--------|--------|--------|--------|--------|


E|--------|--------|--------|--------|--------|--------|--------|--------|--------|
B|--------|--------|--------|--------|--------|--------|--------|--------|--------|
G|--------|--------|--------|--------|--------|--------|--------|--------|--------|
D|--------|--------|--------|--------|--------|--------|--------|--------|--------|
A|--------|--------|--------|--------|--------|--------|--------|--------|--------|
E|--------|--------|--------|--------|--------|--------|--------|--------|--------|


E|--------|--------|--------|--------|--------|--------|--------|--------|--------|
B|--------|--------|--------|--------|--------|--------|--------|--------|--------|
G|--------|--------|--------|--------|--------|--------|--------|--------|--------|
D|--------|--------|--------|--------|--------|--------|--------|--------|--------|
A|--------|--------|--------|--------|--------|--------|--------|--------|--------|
E|--------|--------|--------|--------|--------|--------|--------|--------|--------|


E|--------|--------|--------|--------|--------|--------|--------|--------|--------|
B|--------|--------|--------|--------|--------|--------|--------|--------|--------|
G|--------|--------|--------|--------|--------|--------|--------|--------|--------|
D|--------|--------|--------|--------|--------|--------|--------|--------|--------|
A|--------|--------|--------|--------|--------|--------|--------|--------|--------|
E|--------|--------|--------|--------|--------|--------|--------|--------|--------|


E|--------|--------|--------|--------|--------|--------|--------|--------|--------|
B|--------|--------|--------|--------|--------|--------|--------|--------|--------|
G|--------|--------|--------|--------|--------|--------|--------|--------|--------|
D|--------|--------|--------|--------|--------|--------|--------|--------|--------|
A|--------|--------|--------|--------|--------|--------|--------|--------|--------|
E|--------|--------|--------|--------|--------|--------|--------|--------|--------|


E|--------|--------|--------|--------|--------|--------|--------|--------|--------|
B|--------|--------|--------|--------|--------|--------|--------|--------|--------|
G|--------|--------|--------|--------|--------|--------|--------|--------|--------|
D|--------|--------|--------|--------|--------|--------|--------|--------|--------|
A|--------|--------|--------|--------|--------|--------|--------|--------|--------|
E|--------|--------|--------|--------|--------|--------|--------|--------|--------|


E|--------|--------|--------|--------|--------|--------|--------|--------|--------|
B|--------|--------|--------|--------|--------|--------|--------|--------|--------|
G|--------|--------|--------|--------|--------|--------|--------|--------|--------|
D|--------|--------|--------|--------|--------|--------|--------|--------|--------|
A|--------|--------|--------|--------|--------|--------|--------|--------|--------|
E|--------|--------|--------|--------|--------|--------|--------|--------|--------|


E|--------|--------|--------|--------|--------|--------|--------|--------|--------|
B|--------|--------|--------|--------|--------|--------|--------|--------|--------|
G|--------|--------|--------|--------|--------|--------|--------|--------|--------|
D|--------|--------|--------|--------|--------|--------|--------|--------|--------|
A|--------|--------|--------|--------|--------|--------|--------|--------|--------|
E|--------|--------|--------|--------|--------|--------|--------|--------|--------|


E|--------|--------|---------------------------------|--------|--------|--------|--------|
B|--------|--------|---------------------------------|--------|--------|--------|--------|
G|--------|--------|---------------------------------|--------|--------|--------|--------|
D|--------|--------|---------------------------------|--------|--------|--------|--------|
A|--------|--------|-2---3---2---0---2---0-----------|--------|--------|--------|--------|
E|--------|--------|-------------------------3---2---|--------|--------|--------|--------|


E|--------|--------|--------|--------|--------|--------|--------|--------|--------|
B|--------|--------|--------|--------|--------|--------|--------|--------|--------|
G|--------|--------|--------|--------|--------|--------|--------|--------|--------|
D|--------|--------|--------|--------|--------|--------|--------|--------|--------|
A|--------|--------|--------|--------|--------|--------|--------|--------|--------|
E|--------|--------|--------|--------|--------|--------|--------|--------|--------|


E|--------|--------|--------|--------|--------|--------|--------|--------|--------|
B|--------|--------|--------|--------|--------|--------|--------|--------|--------|
G|--------|--------|--------|--------|--------|--------|--------|--------|--------|
D|--------|--------|--------|--------|--------|--------|--------|--------|--------|
A|--------|--------|--------|--------|--------|--------|--------|--------|--------|
E|--------|--------|--------|--------|--------|--------|--------|--------|--------|


E|--------|--------|--------|--------|--------|--------|--------|--------|--------|
B|--------|--------|--------|--------|--------|--------|--------|--------|--------|
G|--------|--------|--------|--------|--------|--------|--------|--------|--------|
D|--------|--------|--------|--------|--------|--------|--------|--------|--------|
A|--------|--------|--------|--------|--------|--------|--------|--------|--------|
E|--------|--------|--------|--------|--------|--------|--------|--------|--------|


E|--------|--------|--------|--------|--------|--------|--------|--------|--------|
B|--------|--------|--------|--------|--------|--------|--------|--------|--------|
G|--------|--------|--------|--------|--------|--------|--------|--------|--------|
D|--------|--------|--------|--------|--------|--------|--------|--------|--------|
A|--------|--------|--------|--------|--------|--------|--------|--------|--------|
E|--------|--------|--------|--------|--------|--------|--------|--------|--------|


E|--------|--------|--------|--------|--------|--------|--------|--------|--------|
B|--------|--------|--------|--------|--------|--------|--------|--------|--------|
G|--------|--------|--------|--------|--------|--------|--------|--------|--------|
D|--------|--------|--------|--------|--------|--------|--------|--------|--------|
A|--------|--------|--------|--------|--------|--------|--------|--------|--------|
E|--------|--------|--------|--------|--------|--------|--------|--------|--------|


E|--------|--------|--------|--------|--------|--------|--------|--------|--------|
B|--------|--------|--------|--------|--------|--------|--------|--------|--------|
G|--------|--------|--------|--------|--------|--------|--------|--------|--------|
D|--------|--------|--------|--------|--------|--------|--------|--------|--------|
A|--------|--------|--------|--------|--------|--------|--------|--------|--------|
E|--------|--------|--------|--------|--------|--------|--------|--------|--------|


E|--------|--------|--------|--------|--------|--------|--------|--------|--------|
B|--------|--------|--------|--------|--------|--------|--------|--------|--------|
G|--------|--------|--------|--------|--------|--------|--------|--------|--------|
D|--------|--------|--------|--------|--------|--------|--------|--------|--------|
A|--------|--------|--------|--------|--------|--------|--------|--------|--------|
E|--------|--------|--------|--------|--------|--------|--------|--------|--------|


E|--------|--------|--------|--------|--------|--------|--------|
B|--------|--------|--------|--------|--------|--------|--------|
G|--------|--------|--------|--------|--------|--------|--------|
D|--------|--------|--------|--------|--------|--------|--------|
A|--------|--------|--------|--------|--------|--------|--------|
E|--------|--------|--------|--------|--------|--------|--------|





Track 5: Untitled

G|--------|--------|--------|--------|--------|--------|--------|--------|--------|
D|--------|--------|--------|--------|--------|--------|--------|--------|--------|
A|--------|--------|--------|--------|--------|--------|--------|--------|--------|
E|--------|--------|--------|--------|--------|--------|--------|--------|--------|


G|--------|--------|--------|--------|--------|--------|--------|--------|--------|
D|--------|--------|--------|--------|--------|--------|--------|--------|--------|
A|--------|--------|--------|--------|--------|--------|--------|--------|--------|
E|--------|--------|--------|--------|--------|--------|--------|--------|--------|


G|--------|--------|--------|--------|--------|--------|--------|--------|--------|
D|--------|--------|--------|--------|--------|--------|--------|--------|--------|
A|--------|--------|--------|--------|--------|--------|--------|--------|--------|
E|--------|--------|--------|--------|--------|--------|--------|--------|--------|


G|--------|--------|--------|--------|--------|--------|--------|--------|--------|
D|--------|--------|--------|--------|--------|--------|--------|--------|--------|
A|--------|--------|--------|--------|--------|--------|--------|--------|--------|
E|--------|--------|--------|--------|--------|--------|--------|--------|--------|


G|--------|--------|--------|--------|--------|--------|--------|--------|--------|
D|--------|--------|--------|--------|--------|--------|--------|--------|--------|
A|--------|--------|--------|--------|--------|--------|--------|--------|--------|
E|--------|--------|--------|--------|--------|--------|--------|--------|--------|


G|--------|--------|--------|--------|--------|--------|--------|--------|--------|
D|--------|--------|--------|--------|--------|--------|--------|--------|--------|
A|--------|--------|--------|--------|--------|--------|--------|--------|--------|
E|--------|--------|--------|--------|--------|--------|--------|--------|--------|


G|--------|--------|--------|--------|--------|--------|--------|--------|--------|
D|--------|--------|--------|--------|--------|--------|--------|--------|--------|
A|--------|--------|--------|--------|--------|--------|--------|--------|--------|
E|--------|--------|--------|--------|--------|--------|--------|--------|--------|


G|--------|--------|--------|--------|--------|--------|--------|--------|--------|
D|--------|--------|--------|--------|--------|--------|--------|--------|--------|
A|--------|--------|--------|--------|--------|--------|--------|--------|--------|
E|--------|--------|--------|--------|--------|--------|--------|--------|--------|


G|--------|--------|--------|--------|--------|--------|--------|--------|--------|
D|--------|--------|--------|--------|--------|--------|--------|--------|--------|
A|--------|--------|--------|--------|--------|--------|--------|--------|--------|
E|--------|--------|--------|--------|--------|--------|--------|--------|--------|


G|--------|--------|--------|--------|--------|--------|--------|--------|--------|
D|--------|--------|--------|--------|--------|--------|--------|--------|--------|
A|--------|--------|--------|--------|--------|--------|--------|--------|--------|
E|--------|--------|--------|--------|--------|--------|--------|--------|--------|


G|--------|--------|--------|--------|--------|--------|--------|--------|--------|
D|--------|--------|--------|--------|--------|--------|--------|--------|--------|
A|--------|--------|--------|--------|--------|--------|--------|--------|--------|
E|--------|--------|--------|--------|--------|--------|--------|--------|--------|


G|--------|--------|--------|--------|--------|--------|--------|--------|--------|
D|--------|--------|--------|--------|--------|--------|--------|--------|--------|
A|--------|--------|--------|--------|--------|--------|--------|--------|--------|
E|--------|--------|--------|--------|--------|--------|--------|--------|--------|


G|--------|--------|--------|--------|--------|--------|--------|--------|--------|
D|--------|--------|--------|--------|--------|--------|--------|--------|--------|
A|--------|--------|--------|--------|--------|--------|--------|--------|--------|
E|--------|--------|--------|--------|--------|--------|--------|--------|--------|


G|--------|--------|--------|--------|--------|--------|--------|--------|--------|
D|--------|--------|--------|--------|--------|--------|--------|--------|--------|
A|--------|--------|--------|--------|--------|--------|--------|--------|--------|
E|--------|--------|--------|--------|--------|--------|--------|--------|--------|


G|--------|--------|--------|--------|--------|--------|--------|--------|--------|
D|--------|--------|--------|--------|--------|--------|--------|--------|--------|
A|--------|--------|--------|--------|--------|--------|--------|--------|--------|
E|--------|--------|--------|--------|--------|--------|--------|--------|--------|


G|--------|--------|--------|--------|--------|--------|--------|--------|--------|
D|--------|--------|--------|--------|--------|--------|--------|--------|--------|
A|--------|--------|--------|--------|--------|--------|--------|--------|--------|
E|--------|--------|--------|--------|--------|--------|--------|--------|--------|


G|--------|--------|--------|--------|--------|--------|--------|--------|--------|
D|--------|--------|--------|--------|--------|--------|--------|--------|--------|
A|--------|--------|--------|--------|--------|--------|--------|--------|--------|
E|--------|--------|--------|--------|--------|--------|--------|--------|--------|


G|--------|--------|--------|--------|--------|--------|--------|--------|--------|
D|--------|--------|--------|--------|--------|--------|--------|--------|--------|
A|--------|--------|--------|--------|--------|--------|--------|--------|--------|
E|--------|--------|--------|--------|--------|--------|--------|--------|--------|


G|--------|--------|--------|--------|--------|--------|--------|--------|--------|
D|--------|--------|--------|--------|--------|--------|--------|--------|--------|
A|--------|--------|--------|--------|--------|--------|--------|--------|--------|
E|--------|--------|--------|--------|--------|--------|--------|--------|--------|


G|--------|--------|--------|--------|--------|--------|--------|--------|--------|
D|--------|--------|--------|--------|--------|--------|--------|--------|--------|
A|--------|--------|--------|--------|--------|--------|--------|--------|--------|
E|--------|--------|--------|--------|--------|--------|--------|--------|--------|


G|--------|--------|--------|--------|--------|--------|--------|--------|--------|
D|--------|--------|--------|--------|--------|--------|--------|--------|--------|
A|--------|--------|--------|--------|--------|--------|--------|--------|--------|
E|--------|--------|--------|--------|--------|--------|--------|--------|--------|


G|--------|--------|--------|--------|--------|--------|--------|--------|--------|
D|--------|--------|--------|--------|--------|--------|--------|--------|--------|
A|--------|--------|--------|--------|--------|--------|--------|--------|--------|
E|--------|--------|--------|--------|--------|--------|--------|--------|--------|


G|--------|--------|--------|--------|--------|--------|--------|--------|--------|
D|--------|--------|--------|--------|--------|--------|--------|--------|--------|
A|--------|--------|--------|--------|--------|--------|--------|--------|--------|
E|--------|--------|--------|--------|--------|--------|--------|--------|--------|


G|--------|--------|--------|--------|--------|--------|--------|--------|--------|
D|--------|--------|--------|--------|--------|--------|--------|--------|--------|
A|--------|--------|--------|--------|--------|--------|--------|--------|--------|
E|--------|--------|--------|--------|--------|--------|--------|--------|--------|


G|--------|--------|--------|--------|--------|--------|--------|--------|--------|
D|--------|--------|--------|--------|--------|--------|--------|--------|--------|
A|--------|--------|--------|--------|--------|--------|--------|--------|--------|
E|--------|--------|--------|--------|--------|--------|--------|--------|--------|


G|--------|--------|--------|--------|--------|--------|--------|--------|--------|
D|--------|--------|--------|--------|--------|--------|--------|--------|--------|
A|--------|--------|--------|--------|--------|--------|--------|--------|--------|
E|--------|--------|--------|--------|--------|--------|--------|--------|--------|


G|--------|--------|--------|--------|--------|--------|--------|--------|--------|
D|--------|--------|--------|--------|--------|--------|--------|--------|--------|
A|--------|--------|--------|--------|--------|--------|--------|--------|--------|
E|--------|--------|--------|--------|--------|--------|--------|--------|--------|


G|--------|--------|--------|--------|--------|--------|--------|--------|--------|
D|--------|--------|--------|--------|--------|--------|--------|--------|--------|
A|--------|--------|--------|--------|--------|--------|--------|--------|--------|
E|--------|--------|--------|--------|--------|--------|--------|--------|--------|


G|--------|--------|--------|--------|--------|--------|--------|--------|--------|
D|--------|--------|--------|--------|--------|--------|--------|--------|--------|
A|--------|--------|--------|--------|--------|--------|--------|--------|--------|
E|--------|--------|--------|--------|--------|--------|--------|--------|--------|


G|--------|--------|--------|--------|--------|--------|--------|--------|--------|
D|--------|--------|--------|--------|--------|--------|--------|--------|--------|
A|--------|--------|--------|--------|--------|--------|--------|--------|--------|
E|--------|--------|--------|--------|--------|--------|--------|--------|--------|


G|--------|--------|--------|--------|--------|--------|--------|--------|--------|
D|--------|--------|--------|--------|--------|--------|--------|--------|--------|
A|--------|--------|--------|--------|--------|--------|--------|--------|--------|
E|--------|--------|--------|--------|--------|--------|--------|--------|--------|


G|--------|--------|--------|--------|--------|--------|--------|--------|--------|
D|--------|--------|--------|--------|--------|--------|--------|--------|--------|
A|--------|--------|--------|--------|--------|--------|--------|--------|--------|
E|--------|--------|--------|--------|--------|--------|--------|--------|--------|


G|--------|--------|--------|--------|--------|--------|--------|--------|--------|
D|--------|--------|--------|--------|--------|--------|--------|--------|--------|
A|--------|--------|--------|--------|--------|--------|--------|--------|--------|
E|--------|--------|--------|--------|--------|--------|--------|--------|--------|


G|--------|--------|--------|--------|--------|--------|--------|--------|--------|
D|--------|--------|--------|--------|--------|--------|--------|--------|--------|
A|--------|--------|--------|--------|--------|--------|--------|--------|--------|
E|--------|--------|--------|--------|--------|--------|--------|--------|--------|


G|--------|--------|--------|--------|--------|--------|--------|--------|--------|
D|--------|--------|--------|--------|--------|--------|--------|--------|--------|
A|--------|--------|--------|--------|--------|--------|--------|--------|--------|
E|--------|--------|--------|--------|--------|--------|--------|--------|--------|


G|--------|--------|--------|--------|--------|--------|--------|--------|--------|
D|--------|--------|--------|--------|--------|--------|--------|--------|--------|
A|--------|--------|--------|--------|--------|--------|--------|--------|--------|
E|--------|--------|--------|--------|--------|--------|--------|--------|--------|


G|--------|--------|--------|--------|--------|--------|--------|--------|--------|
D|--------|--------|--------|--------|--------|--------|--------|--------|--------|
A|--------|--------|--------|--------|--------|--------|--------|--------|--------|
E|--------|--------|--------|--------|--------|--------|--------|--------|--------|


G|--------|--------|--------|--------|--------|--------|--------|--------|--------|
D|--------|--------|--------|--------|--------|--------|--------|--------|--------|
A|--------|--------|--------|--------|--------|--------|--------|--------|--------|
E|--------|--------|--------|--------|--------|--------|--------|--------|--------|


G|--------|--------|--------|--------|--------|
D|--------|--------|--------|--------|--------|
A|--------|--------|--------|--------|--------|
E|--------|--------|--------|--------|--------|