Menu:

 

Search:

 

megadeth - recipe for hatewarhorse:

 



Title: Recipe For Hate...Warhorse
Artist: 
Album: The World Needs A Hero
Author: Dave Mustaine


Track 1: Untitled

E|---------------------------------|---------------------------------|---------------------------------|
B|---------------------------------|---------------------------------|---------------------------------|
G|---------------------------------|---------------------------------|---------------------------------|
D|-3-----------3-----------3-------|-4-----------4-----------4-------|-3-----------3-----------3-------|
A|-----1---1-------1---1-------1---|-----2---2-------2---2-------2---|-----1---1-------1---1-------1---|
E|---------------------------------|---------------------------------|---------------------------------|


E|---------------------------------|---------------------------------|---------------------------------|
B|---------------------------------|---------------------------------|---------------------------------|
G|---------------------------------|---------------------------------|---------------------------------|
D|-4-----------4-----------4-------|-3-----------3-----------3-------|-4-----------4-----------4-------|
A|-----2---2-------2---2-------2---|-----1---1-------1---1-------1---|-----2---2-------2---2-------2---|
E|---------------------------------|---------------------------------|---------------------------------|


E|---------------------------------|---------------------------------|--------|--------|
B|---------------------------------|---------------------------------|--------|--------|
G|---------------------------------|---------------------------------|--------|--------|
D|-5-----------5-----------5-------|-7-----------7---8-----------8---|-2------|-2------|
A|-----3---3-------3---3-------3---|-----5---5-----------6---6-------|-2------|-2------|
E|---------------------------------|---------------------------------|-0------|-0------|


E|--------|--------|--------|--------|--------|--------|---------------------------|
B|--------|--------|--------|--------|--------|--------|---------15-----------14---|
G|--------|--------|--------|--------|--------|--------|-----16--16-------15--15---|
D|-2------|-2------|--------|-2------|-2------|-2------|---------------------------|
A|-2------|-2------|--------|-2------|-2------|-2------|---------------------------|
E|-0------|-0------|--------|-0------|-0------|-0------|---------------------------|


E|-------------------------------------|-------------------------2---0---|-------------------------------------|
B|---------13------------12--------15--|-------------3-------------------|-------------1-----------------------|
G|-----14------14--8--9--9---11-12-12--|---------4-----------3-----------|---------2-------------4---------7---|
D|-------------------------------------|-----5-----------4---------------|-----3-----------1--2--2---4--5--5---|
A|-------------------------------------|---------------------------------|-------------------------------------|
E|-------------------------------------|-0-------------------------------|-0-----------------------------------|


E|---------------------------|-------------------------------------|-------------------------2---0---|
B|---------15-----------14---|---------13------------12--------15--|-------------3-------------------|
G|-----16--16-------15--15---|-----14------14--8--9--9---11-12-12--|---------4-----------3-----------|
D|---------------------------|-------------------------------------|-----5-----------4---------------|
A|---------------------------|-------------------------------------|---------------------------------|
E|---------------------------|-------------------------------------|-0-------------------------------|


E|---------------------------------|---------------------------------|-----------------------------------|
B|-------------1-----------0---1---|---------------------------------|-----------------------------------|
G|---------2-----------1-----------|---------5---4-----------5---4---|---------5---4---------------------|
D|-----3-----------2---------------|-----5---------------4-----------|-----3-----------------------------|
A|---------------------------------|-0---------------0---------------|-0---------------------------------|
E|-0-------------------------------|---------------------------------|-----------------0---0---3--2--0---|


E|---------------------------------|-----------------------------------|---------------------------------|
B|---------------------------------|-----------------------------------|---------------------------------|
G|---------5---4-----------5---4---|---------5---4---------------------|---------5---4-----------5---4---|
D|-----5---------------4-----------|-----3-----------------------------|-----5---------------4-----------|
A|-0---------------0---------------|-0---------------------------------|-0---------------0---------------|
E|---------------------------------|-----------------0---0---3--2--0---|---------------------------------|


E|-----------------------------------|---------------------------------|-----------------------|
B|-----------------------------------|---------------------------------|-----------------------|
G|---------5---4---------------------|---------5---4-----------5---4---|---------5---4---------|
D|-----3-----------------------------|-----5---------------4-----------|-----3-----------------|
A|-0---------------------------------|-0---------------0---------------|-0---------------------|
E|-----------------0---0---3--2--0---|---------------------------------|-----------------0-----|


E|-5------|-5------|-5------|--------|--------|--------|--------|--------|---------------------------|
B|-5------|-5------|-5------|--------|--------|--------|--------|--------|---------15-----------14---|
G|-5------|-5------|-5------|--------|--------|--------|--------|--------|-----16--16-------15--15---|
D|-5------|-5------|-5------|--------|--------|-2------|-2------|-2------|---------------------------|
A|-5------|-5------|-5------|--------|--------|-2------|-2------|-2------|---------------------------|
E|-5------|-5------|-5------|--------|--------|-0------|-0------|-0------|---------------------------|


E|-------------------------------------|-------------------------2---0---|-------------------------------------|
B|---------13------------12--------15--|-------------3-------------------|-------------1-----------------------|
G|-----14------14--8--9--9---11-12-12--|---------4-----------3-----------|---------2-------------4---------7---|
D|-------------------------------------|-----5-----------4---------------|-----3-----------1--2--2---4--5--5---|
A|-------------------------------------|---------------------------------|-------------------------------------|
E|-------------------------------------|-0-------------------------------|-0-----------------------------------|


E|---------------------------|-------------------------------------|-------------------------2---0---|
B|---------15-----------14---|---------13------------12--------15--|-------------3-------------------|
G|-----16--16-------15--15---|-----14------14--8--9--9---11-12-12--|---------4-----------3-----------|
D|---------------------------|-------------------------------------|-----5-----------4---------------|
A|---------------------------|-------------------------------------|---------------------------------|
E|---------------------------|-------------------------------------|-0-------------------------------|


E|---------------------------------|---------------------------------|-----------------------------------|
B|-------------1-----------0---1---|---------------------------------|-----------------------------------|
G|---------2-----------1-----------|---------5---4-----------5---4---|---------5---4---------------------|
D|-----3-----------2---------------|-----5---------------4-----------|-----3-----------------------------|
A|---------------------------------|-0---------------0---------------|-0---------------------------------|
E|-0-------------------------------|---------------------------------|-----------------0---0---3--2--0---|


E|---------------------------------|-----------------------------------|---------------------------------|
B|---------------------------------|-----------------------------------|---------------------------------|
G|---------5---4-----------5---4---|---------5---4---------------------|---------5---4-----------5---4---|
D|-----5---------------4-----------|-----3-----------------------------|-----5---------------4-----------|
A|-0---------------0---------------|-0---------------------------------|-0---------------0---------------|
E|---------------------------------|-----------------0---0---3--2--0---|---------------------------------|


E|-----------------------------------|---------------------------------|-----------------------------------|
B|-----------------------------------|---------------------------------|-----------------------------------|
G|---------5---4---------------------|---------5---4-----------5---4---|---------5---4---------------------|
D|-----3-----------------------------|-----5---------------4-----------|-----3-----------------------------|
A|-0---------------------------------|-0---------------0---------------|-0---------------------------------|
E|-----------------0---0---3--2--0---|---------------------------------|-----------------0---0---3--2--0---|


E|-------------------------------------|---------------------------------------|-------------------------------------|
B|-------------------------------------|---------------------------------------|-------------------------------------|
G|-------------------------------------|---------------------------------------|-------------------------------------|
D|-------------------------------------|---------------------------------------|-------------------------------------|
A|-------------------------------------|---------------------------------------|-------------------------------------|
E|-0---0---5--3--0---0---0---3--2--0---|-5--3--0---3--2--0---0---0---3--2--0---|-0---0---5--3--0---0---0---3--2--0---|


E|---------------------------------------|-------------------------------------|---------------------------------------|
B|---------------------------------------|-------------------------------------|---------------------------------------|
G|---------------------------------------|-------------------------------------|---------------------------------------|
D|---------------------------------------|-------------------------------------|---------------------------------------|
A|---------------------------------------|-------------------------------------|---------------------------------------|
E|-5--3--0---3--2--0---0---0---3--2--0---|-0---0---5--3--0---0---0---3--2--0---|-5--3--0---3--2--0---0---0---3--2--0---|


E|-------------------------------------|--------------------------------|---------------------------------|
B|-------------------------------------|--------------------------------|---------------------------------|
G|-------------------------------------|--------------------------------|---------------------------------|
D|-------------------------------------|---------------4---4------------|-------------4---4---------------|
A|-------------------------------------|---------------4---4------------|-----2-------4---4---------------|
E|-0---0---5--3--0---0---0---3--2--0---|-5--3--0---3---2---2----2---2---|-3-------0---2---2---2---2---2---|


E|--------------------------------|---------------------------------|-------------------------------------|
B|--------------------------------|---------------------------------|-------------------------------------|
G|--------------------------------|---------------------------------|-------------------------------------|
D|-------------------4------------|-------------4---4---------------|-------------------------------------|
A|-------2-------2---4------------|-----2-------4---4---------------|-------2-------2---------------------|
E|-0--3----------3---2----2---2---|-3-------0---2---2---2---2---2---|-0--3----------3---0---0---3--2--0---|


E|-------------------------------------|-----------------------------------|-------------------------------------|
B|-------------------------------------|-----------------------------------|-------------------------------------|
G|-------------------------------------|-----------------------------------|-------------------------------------|
D|-------------------------------------|-----8-------8---------------------|-------------------------------------|
A|-------------------------------------|-----8-------8---------------------|-------------------------------------|
E|-0---0---5--3--0---0---0---3--2--0---|-0---6---0---6---0---0---3--2--0---|-0---0---5--3--0---0---0---3--2--0---|


E|------------------------------|---------------------------------|--------------------------------|
B|------------------------------|---------------------------------|--------------------------------|
G|------------------------------|---------------------------------|--------------------------------|
D|-----8-------8---4------------|-------------4---4---------------|-------------------4------------|
A|-----8-------8---4------------|-----2-------4---4---------------|-------2-------2---4------------|
E|-0---6---0---6---2----2---2---|-3-------0---2---2---2---2---2---|-0--3----------3---2----2---2---|


E|---------------------------------|-------------------------------------|-------------------------------------|
B|---------------------------------|-------------------------------------|-------------------------------------|
G|---------------------------------|-------------------------------------|-------------------------------------|
D|-------------4---4---------------|-------------------------------------|-------------------------------------|
A|-----2-------4---4---------------|-------2-------2---------------------|-------------------------------------|
E|-3-------0---2---2---2---2---2---|-0--3----------3---0---0---3--2--0---|-0---0---5--3--0---0---0---3--2--0---|


E|-----------------------------------|-------------------------------------|------------------------------|
B|-----------------------------------|-------------------------------------|------------------------------|
G|-----------------------------------|-------------------------------------|------------------------------|
D|-----8-------8---------------------|-------------------------------------|-----8-------8---4------------|
A|-----8-------8---------------------|-------------------------------------|-----8-------8---4------------|
E|-0---6---0---6---0---0---3--2--0---|-0---0---5--3--0---0---0---3--2--0---|-0---6---0---6---2----2---2---|


E|---------------------------------|--------------------------------|---------------------------------|
B|---------------------------------|--------------------------------|---------------------------------|
G|---------------------------------|--------------------------------|---------------------------------|
D|-------------4---4---------------|-------------------4------------|-------------4---4---------------|
A|-----2-------4---4---------------|-------2-------2---4------------|-----2-------4---4---------------|
E|-3-------0---2---2---2---2---2---|-0--3----------3---2----2---2---|-3-------0---2---2---2---2---2---|


E|-------------------------------------|-------------------------------------|-----------------------------------|
B|-------------------------------------|-------------------------------------|-----------------------------------|
G|-------------------------------------|-------------------------------------|-----------------------------------|
D|-------------------------------------|-------------------------------------|-----8-------8---------------------|
A|-------2-------2---------------------|-------------------------------------|-----8-------8---------------------|
E|-0--3----------3---0---0---3--2--0---|-0---0---5--3--0---0---0---3--2--0---|-0---6---0---6---0---0---3--2--0---|


E|-------------------------------------|------------------------------|---------------------------------|
B|-------------------------------------|------------------------------|---------------------------------|
G|-------------------------------------|------------------------------|---------------------------------|
D|-------------------------------------|-----8-------8---4------------|-------------4---4---------------|
A|-------------------------------------|-----8-------8---4------------|-----2-------4---4---------------|
E|-0---0---5--3--0---0---0---3--2--0---|-0---6---0---6---2----2---2---|-3-------0---2---2---2---2---2---|


E|--------------------------------|---------------------------------|-----------------------------------|
B|--------------------------------|---------------------------------|-----------------------------------|
G|--------------------------------|---------------------------------|-----------------------------------|
D|-------------------4------------|-------------4---4---------------|-------------------9---7-------5---|
A|-------2-------2---4------------|-----2-------4---4---------------|-------2-------2---9---7-------5---|
E|-0--3----------3---2----2---2---|-3-------0---2---2---2---2---2---|-0--3----------3---7---5---0---3---|


E|---------------------------------|---------------------------------|---------------------------------|
B|---------------------------------|---------------------------------|---------------------------------|
G|---------------------------------|---------------------------------|---------------------------------|
D|---------4-----------5-----------|-4-------5-------9---7-------5---|---------4-----------3-----------|
A|---------4-----------5-----------|-4-------5-------9---7-------5---|---------4-----------3-----------|
E|-0---0---2---0---0---3---0---0---|-2---0---3---0---7---5---0---3---|-0---0---2---0---0---1---0---0---|


E|---------------------------------|---------------------------------|---------------------------------|
B|---------------------------------|---------------------------------|---------------------------------|
G|---------------------------------|---------------------------------|---------------------------------|
D|-----------------9---7-------5---|---------4-----------5-----------|-4-------5-------9---7-------5---|
A|-----------------9---7-------5---|---------4-----------5-----------|-4-------5-------9---7-------5---|
E|-0---0---0---0---7---5---0---3---|-0---0---2---0---0---3---0---0---|-2---0---3---0---7---5---0---3---|


E|---------------------------------|---------------------------------|---------------------------------|
B|---------------------------------|---------------------------------|---------------------------------|
G|---------------------------------|---------------------------------|---------------------------------|
D|---------4-----------3-----------|-----------------9---7-------5---|---------4-----------5-----------|
A|---------4-----------3-----------|-----------------9---7-------5---|---------4-----------5-----------|
E|-0---0---2---0---0---1---0---0---|-0---0---0---0---7---5---0---3---|-0---0---2---0---0---3---0---0---|


E|---------------------------------|---------------------------------|---------------------------------|
B|---------------------------------|---------------------------------|---------------------------------|
G|---------------------------------|---------------------------------|---------------------------------|
D|-4-------5-------9---7-------5---|---------4-----------3-----------|-----------------9---7-------5---|
A|-4-------5-------9---7-------5---|---------4-----------3-----------|-----------------9---7-------5---|
E|-2---0---3---0---7---5---0---3---|-0---0---2---0---0---1---0---0---|-0---0---0---0---7---5---0---3---|


E|---------------------------------|---------------------------------|---------------------------------|
B|---------------------------------|---------------------------------|---------------------------------|
G|---------------------------------|---------------------------------|---------------------------------|
D|---------4-----------5-----------|-4-------5-------9---7-------5---|---------4-----------3-----------|
A|---------4-----------5-----------|-4-------5-------9---7-------5---|---------4-----------3-----------|
E|-0---0---2---0---0---3---0---0---|-2---0---3---0---7---5---0---3---|-0---0---2---0---0---1---0---0---|


E|---------------------------------|-------------------------------------|-------------------------------------|
B|---------------------------------|-------------------------------------|-------------------------------------|
G|---------------------------------|-------------------------------------|-------------------------------------|
D|-----------------4-------4-------|---------------------4-------4-------|---------------------5-------5-------|
A|-----------------4-------4-------|---------------------4-------4-------|---------------------5-------5-------|
E|-0---0---0---0---2---2---2---2---|-2--2--2---2--2--2---2---2---2---2---|-2--2--2---2--2--2---3---3---3---3---|


E|-------------------------------------|---------------------------------|-------------------------------------|
B|-------------------------------------|---------------------------------|-------------------------------------|
G|-------------------------------------|---------------------------------|-------------------------------------|
D|---------------------2-------2-------|-5-------5-------4-------4-------|---------------------4-------4-------|
A|---------------------2-------2-------|-5-------5-------4-------4-------|---------------------4-------4-------|
E|-3--3--3---3--3--3---0---0---0---0---|-3---3---3---3---2---2---2---2---|-2--2--2---2--2--2---2---2---2---2---|


E|-------------------------------------|-------------------------------------|---------------------------------|
B|-------------------------------------|-------------------------------------|---------------------------------|
G|-------------------------------------|-------------------------------------|---------------------------------|
D|---------------------5-------5-------|---------------------2-------2-------|-5-------5-------4-------4-------|
A|---------------------5-------5-------|---------------------2-------2-------|-5-------5-------4-------4-------|
E|-2--2--2---2--2--2---3---3---3---3---|-3--3--3---3--3--3---0---0---0---0---|-3---3---3---3---2---2---2---2---|


E|-------------------------------------|-------------------------------------|-------------------------------------|
B|-------------------------------------|-------------------------------------|-------------------------------------|
G|-------------------------------------|-------------------------------------|-------------------------------------|
D|---------------------4-------4-------|---------------------5-------5-------|---------------------2-------2-------|
A|---------------------4-------4-------|---------------------5-------5-------|---------------------2-------2-------|
E|-2--2--2---2--2--2---2---2---2---2---|-2--2--2---2--2--2---3---3---3---3---|-3--3--3---3--3--3---0---0---0---0---|


E|---------------------------------|-------------------------------------|-------------------------------------|
B|---------------------------------|-------------------------------------|-------------------------------------|
G|---------------------------------|-------------------------------------|-------------------------------------|
D|-5-------5-------4-------4-------|---------------------4-------4-------|---------------------5-------5-------|
A|-5-------5-------4-------4-------|---------------------4-------4-------|---------------------5-------5-------|
E|-3---3---3---3---2---2---2---2---|-2--2--2---2--2--2---2---2---2---2---|-2--2--2---2--2--2---3---3---3---3---|


E|-------------------------------------|---------------------------------|---------------------------------|
B|-------------------------------------|---------------------------------|---------------------------------|
G|-------------------------------------|---------------------------------|---------------------------------|
D|---------------------2-------2-------|-5-------5-------9---7-------5---|---------4-----------5-----------|
A|---------------------2-------2-------|-5-------5-------9---7-------5---|---------4-----------5-----------|
E|-3--3--3---3--3--3---0---0---0---0---|-3---3---3---3---7---5---0---3---|-0---0---2---0---0---3---0---0---|


E|---------------------------------|---------------------------------|---------------------------------|
B|---------------------------------|---------------------------------|---------------------------------|
G|---------------------------------|---------------------------------|---------------------------------|
D|-4-------5-------9---7-------5---|---------4-----------3-----------|-----------------9---7-------5---|
A|-4-------5-------9---7-------5---|---------4-----------3-----------|-----------------9---7-------5---|
E|-2---0---3---0---7---5---0---3---|-0---0---2---0---0---1---0---0---|-0---0---0---0---7---5---0---3---|


E|---------------------------------|---------------------------------|---------------------------------|
B|---------------------------------|---------------------------------|---------------------------------|
G|---------------------------------|---------------------------------|---------------------------------|
D|---------4-----------5-----------|-4-------5-------9---7-------5---|---------4-----------3-----------|
A|---------4-----------5-----------|-4-------5-------9---7-------5---|---------4-----------3-----------|
E|-0---0---2---0---0---3---0---0---|-2---0---3---0---7---5---0---3---|-0---0---2---0---0---1---0---0---|


E|---------------------------------|---------------------------------|---------------------------------|
B|---------------------------------|---------------------------------|---------------------------------|
G|---------------------------------|---------------------------------|---------------------------------|
D|-----------------9---7-------5---|---------4-----------5-----------|-4-------5-------9---7-------5---|
A|-----------------9---7-------5---|---------4-----------5-----------|-4-------5-------9---7-------5---|
E|-0---0---0---0---7---5---0---3---|-0---0---2---0---0---3---0---0---|-2---0---3---0---7---5---0---3---|


E|---------------------------------|---------------------------------|---------------------------------|
B|---------------------------------|---------------------------------|---------------------------------|
G|---------------------------------|---------------------------------|---------------------------------|
D|---------4-----------3-----------|-----------------9---7-------5---|---------4-----------5-----------|
A|---------4-----------3-----------|-----------------9---7-------5---|---------4-----------5-----------|
E|-0---0---2---0---0---1---0---0---|-0---0---0---0---7---5---0---3---|-0---0---2---0---0---3---0---0---|


E|---------------------------------|---------------------------------|---------------------------------|
B|---------------------------------|---------------------------------|---------------------------------|
G|---------------------------------|---------------------------------|---------------------------------|
D|-4-------5-------9---7-------5---|---------4-----------3-----------|-----------------4-------4-------|
A|-4-------5-------9---7-------5---|---------4-----------3-----------|-----------------4-------4-------|
E|-2---0---3---0---7---5---0---3---|-0---0---2---0---0---1---0---0---|-0---0---0---0---2---2---2---2---|


E|-------------------------------------|-------------------------------------|-------------------------------------|
B|-------------------------------------|-------------------------------------|-------------------------------------|
G|-------------------------------------|-------------------------------------|-------------------------------------|
D|---------------------4-------4-------|---------------------5-------5-------|---------------------2-------2-------|
A|---------------------4-------4-------|---------------------5-------5-------|---------------------2-------2-------|
E|-2--2--2---2--2--2---2---2---2---2---|-2--2--2---2--2--2---3---3---3---3---|-3--3--3---3--3--3---0---0---0---0---|


E|---------------------------------|-------------------------------------|-------------------------------------|
B|---------------------------------|-------------------------------------|-------------------------------------|
G|---------------------------------|-------------------------------------|-------------------------------------|
D|-5-------5-------4-------4-------|---------------------4-------4-------|---------------------5-------5-------|
A|-5-------5-------4-------4-------|---------------------4-------4-------|---------------------5-------5-------|
E|-3---3---3---3---2---2---2---2---|-2--2--2---2--2--2---2---2---2---2---|-2--2--2---2--2--2---3---3---3---3---|


E|-------------------------------------|---------------------------------|-------------------------------------|
B|-------------------------------------|---------------------------------|-------------------------------------|
G|-------------------------------------|---------------------------------|-------------------------------------|
D|---------------------2-------2-------|-5-------5-------4-------4-------|---------------------4-------4-------|
A|---------------------2-------2-------|-5-------5-------4-------4-------|---------------------4-------4-------|
E|-3--3--3---3--3--3---0---0---0---0---|-3---3---3---3---2---2---2---2---|-2--2--2---2--2--2---2---2---2---2---|


E|-------------------------------------|-------------------------------------|---------------------------------|
B|-------------------------------------|-------------------------------------|---------------------------------|
G|-------------------------------------|-------------------------------------|---------------------------------|
D|---------------------5-------5-------|---------------------2-------2-------|-5-------5-------4-------4-------|
A|---------------------5-------5-------|---------------------2-------2-------|-5-------5-------4-------4-------|
E|-2--2--2---2--2--2---3---3---3---3---|-3--3--3---3--3--3---0---0---0---0---|-3---3---3---3---2---2---2---2---|


E|-------------------------------------|-------------------------------------|-------------------------------------|
B|-------------------------------------|-------------------------------------|-------------------------------------|
G|-------------------------------------|-------------------------------------|-------------------------------------|
D|---------------------4-------4-------|---------------------5-------5-------|---------------------2-------2-------|
A|---------------------4-------4-------|---------------------5-------5-------|---------------------2-------2-------|
E|-2--2--2---2--2--2---2---2---2---2---|-2--2--2---2--2--2---3---3---3---3---|-3--3--3---3--3--3---0---0---0---0---|


E|---------------------------------|---------------------------------|---------------------------------|
B|---------------------------------|---------------------------------|---------------------------------|
G|---------------------------------|---------------------------------|---------------------------------|
D|-5-------5-------3-----------3---|---------3-------4-----------4---|---------4-------3-----------3---|
A|-5-------5-----------1---1-------|-1---1-------1-------2---2-------|-2---2-------2-------1---1-------|
E|-3---3---3---3-------------------|---------------------------------|---------------------------------|


E|---------------------------------|---------------------------------|---------------------------------|
B|---------------------------------|---------------------------------|---------------------------------|
G|---------------------------------|---------------------------------|---------------------------------|
D|---------3-------4-----------4---|---------4-------3-----------3---|---------3-------4-----------4---|
A|-1---1-------1-------2---2-------|-2---2-------2-------1---1-------|-1---1-------1-------2---2-------|
E|---------------------------------|---------------------------------|---------------------------------|


E|---------------------------------|---------------------------------|------------------------------|
B|---------------------------------|---------------------------------|------------------------------|
G|---------------------------------|---------------------------------|------------------------------|
D|---------4-------5-----------5---|---------5-------7-----------7---|-8-----------8---2------------|
A|-2---2-------2-------3---3-------|-3---3-------3-------5---5-------|-----6---6-------2------------|
E|---------------------------------|---------------------------------|-----------------0------------|


E|--------------------|--------------------|--------------------|-------------|
B|--------------------|--------------------|--------------------|-------------|
G|--------------------|--------------------|--------------------|-------------|
D|-------2------------|-------2------------|-------2------------|-------------|
A|-------2------------|-------2------------|-------2------------|-------------|
E|-------0------------|-------0------------|-------0------------|-------------|





Track 2: Bass arr. 4 Guitar

E|--------|--------|--------|--------|--------|--------|--------|--------|-----------------------------------|
B|--------|--------|--------|--------|--------|--------|--------|--------|-----3-----------------------------|
G|--------|--------|--------|--------|--------|--------|--------|--------|---------4---------------3--4--3---|
D|--------|--------|--------|--------|--------|--------|--------|--------|-------------5-------4-------------|
A|--------|--------|--------|--------|--------|--------|--------|--------|-----------------------------------|
E|--------|--------|--------|--------|--------|--------|--------|--------|-0---------------0-----------------|


E|-------------------------------------|-----------------------------------|-------------------------------------|
B|-----1-------------------------------|-----3-----------------------------|-----1-------------------------------|
G|---------2-------------4---------7---|---------4---------------3--4--3---|---------2-------------4---------7---|
D|-------------3---1--2------4--5------|-------------5-------4-------------|-------------3---1--2------4--5------|
A|-------------------------------------|-----------------------------------|-------------------------------------|
E|-0-----------------------------------|-0---------------0-----------------|-0-----------------------------------|


E|-----------------------------------|-------------------------------------|-----------------------------------|
B|-----3-----------------------------|-----1-------------------------------|-----3-----------------------------|
G|---------4---------------3--4--3---|---------2-------------4---------7---|---------4---------------3--4--3---|
D|-------------5-------4-------------|-------------3---1--2------4--5------|-------------5-------4-------------|
A|-----------------------------------|-------------------------------------|-----------------------------------|
E|-0---------------0-----------------|-0-----------------------------------|-0---------------0-----------------|


E|-------------------------------------|--------|--------|--------|--------|--------|
B|-----1-------------------------------|--------|--------|--------|--------|--------|
G|---------2-------------4---------7---|--------|--------|--------|--------|--------|
D|-------------3---1--2------4--5------|--------|--------|--------|--------|--------|
A|-------------------------------------|--------|--------|--------|--------|--------|
E|-0-----------------------------------|--------|--------|--------|--------|--------|


E|--------|--------|--------|--------|--------|--------|--------|--------|--------|
B|--------|--------|--------|--------|--------|--------|--------|--------|--------|
G|--------|--------|--------|--------|--------|--------|--------|--------|--------|
D|--------|--------|--------|--------|--------|--------|--------|--------|--------|
A|--------|--------|--------|--------|--------|--------|--------|--------|--------|
E|--------|--------|--------|--------|--------|--------|--------|--------|--------|


E|--------|--------|-----------------------------------|-------------------------------------|
B|--------|--------|-----3-----------------------------|-----1-------------------------------|
G|--------|--------|---------4---------------3--4--3---|---------2-------------4---------7---|
D|--------|--------|-------------5-------4-------------|-------------3---1--2------4--5------|
A|--------|--------|-----------------------------------|-------------------------------------|
E|--------|--------|-0---------------0-----------------|-0-----------------------------------|


E|-----------------------------------|-------------------------------------|-----------------------------------|
B|-----3-----------------------------|-----1-------------------------------|-----3-----------------------------|
G|---------4---------------3--4--3---|---------2-------------4---------7---|---------4---------------3--4--3---|
D|-------------5-------4-------------|-------------3---1--2------4--5------|-------------5-------4-------------|
A|-----------------------------------|-------------------------------------|-----------------------------------|
E|-0---------------0-----------------|-0-----------------------------------|-0---------------0-----------------|


E|-------------------------------------|-----------------------------------|-------------------------------------|
B|-----1-------------------------------|-----3-----------------------------|-----1-------------------------------|
G|---------2-------------4---------7---|---------4---------------3--4--3---|---------2-------------4---------7---|
D|-------------3---1--2------4--5------|-------------5-------4-------------|-------------3---1--2------4--5------|
A|-------------------------------------|-----------------------------------|-------------------------------------|
E|-0-----------------------------------|-0---------------0-----------------|-0-----------------------------------|


E|--------|--------|--------|--------|--------|--------|--------|--------|--------|
B|--------|--------|--------|--------|--------|--------|--------|--------|--------|
G|--------|--------|--------|--------|--------|--------|--------|--------|--------|
D|--------|--------|--------|--------|--------|--------|--------|--------|--------|
A|--------|--------|--------|--------|--------|--------|--------|--------|--------|
E|--------|--------|--------|--------|--------|--------|--------|--------|--------|


E|--------|--------|--------|--------|--------|--------|--------|--------|--------|
B|--------|--------|--------|--------|--------|--------|--------|--------|--------|
G|--------|--------|--------|--------|--------|--------|--------|--------|--------|
D|--------|--------|--------|--------|--------|--------|--------|--------|--------|
A|--------|--------|--------|--------|--------|--------|--------|--------|--------|
E|--------|--------|--------|--------|--------|--------|--------|--------|--------|


E|--------|--------|--------|--------|--------|--------|--------|--------|--------|
B|--------|--------|--------|--------|--------|--------|--------|--------|--------|
G|--------|--------|--------|--------|--------|--------|--------|--------|--------|
D|--------|--------|--------|--------|--------|--------|--------|--------|--------|
A|--------|--------|--------|--------|--------|--------|--------|--------|--------|
E|--------|--------|--------|--------|--------|--------|--------|--------|--------|


E|--------|--------|--------|--------|--------|--------|--------|--------|--------|
B|--------|--------|--------|--------|--------|--------|--------|--------|--------|
G|--------|--------|--------|--------|--------|--------|--------|--------|--------|
D|--------|--------|--------|--------|--------|--------|--------|--------|--------|
A|--------|--------|--------|--------|--------|--------|--------|--------|--------|
E|--------|--------|--------|--------|--------|--------|--------|--------|--------|


E|--------|--------|--------|--------|--------|--------|--------|--------|--------|
B|--------|--------|--------|--------|--------|--------|--------|--------|--------|
G|--------|--------|--------|--------|--------|--------|--------|--------|--------|
D|--------|--------|--------|--------|--------|--------|--------|--------|--------|
A|--------|--------|--------|--------|--------|--------|--------|--------|--------|
E|--------|--------|--------|--------|--------|--------|--------|--------|--------|


E|--------|--------|--------|--------|--------|--------|--------|--------|--------|
B|--------|--------|--------|--------|--------|--------|--------|--------|--------|
G|--------|--------|--------|--------|--------|--------|--------|--------|--------|
D|--------|--------|--------|--------|--------|--------|--------|--------|--------|
A|--------|--------|--------|--------|--------|--------|--------|--------|--------|
E|--------|--------|--------|--------|--------|--------|--------|--------|--------|


E|--------|--------|--------|--------|--------|--------|--------|--------|--------|
B|--------|--------|--------|--------|--------|--------|--------|--------|--------|
G|--------|--------|--------|--------|--------|--------|--------|--------|--------|
D|--------|--------|--------|--------|--------|--------|--------|--------|--------|
A|--------|--------|--------|--------|--------|--------|--------|--------|--------|
E|--------|--------|--------|--------|--------|--------|--------|--------|--------|


E|--------|--------|--------|--------|--------|--------|--------|--------|--------|
B|--------|--------|--------|--------|--------|--------|--------|--------|--------|
G|--------|--------|--------|--------|--------|--------|--------|--------|--------|
D|--------|--------|--------|--------|--------|--------|--------|--------|--------|
A|--------|--------|--------|--------|--------|--------|--------|--------|--------|
E|--------|--------|--------|--------|--------|--------|--------|--------|--------|


E|--------|--------|--------|--------|--------|--------|--------|--------|--------|
B|--------|--------|--------|--------|--------|--------|--------|--------|--------|
G|--------|--------|--------|--------|--------|--------|--------|--------|--------|
D|--------|--------|--------|--------|--------|--------|--------|--------|--------|
A|--------|--------|--------|--------|--------|--------|--------|--------|--------|
E|--------|--------|--------|--------|--------|--------|--------|--------|--------|


E|--------|--------|--------|--------|--------|--------|--------|--------|--------|
B|--------|--------|--------|--------|--------|--------|--------|--------|--------|
G|--------|--------|--------|--------|--------|--------|--------|--------|--------|
D|--------|--------|--------|--------|--------|--------|--------|--------|--------|
A|--------|--------|--------|--------|--------|--------|--------|--------|--------|
E|--------|--------|--------|--------|--------|--------|--------|--------|--------|


E|--------|--------|--------|--------|--------|--------|--------|--------|--------|
B|--------|--------|--------|--------|--------|--------|--------|--------|--------|
G|--------|--------|--------|--------|--------|--------|--------|--------|--------|
D|--------|--------|--------|--------|--------|--------|--------|--------|--------|
A|--------|--------|--------|--------|--------|--------|--------|--------|--------|
E|--------|--------|--------|--------|--------|--------|--------|--------|--------|


E|--------|--------|--------|--------|--------|--------|--------|--------|--------|
B|--------|--------|--------|--------|--------|--------|--------|--------|--------|
G|--------|--------|--------|--------|--------|--------|--------|--------|--------|
D|--------|--------|--------|--------|--------|--------|--------|--------|--------|
A|--------|--------|--------|--------|--------|--------|--------|--------|--------|
E|--------|--------|--------|--------|--------|--------|--------|--------|--------|


E|--------|--------|--------|--------|--------|--------|--------|--------|--------|
B|--------|--------|--------|--------|--------|--------|--------|--------|--------|
G|--------|--------|--------|--------|--------|--------|--------|--------|--------|
D|--------|--------|--------|--------|--------|--------|--------|--------|--------|
A|--------|--------|--------|--------|--------|--------|--------|--------|--------|
E|--------|--------|--------|--------|--------|--------|--------|--------|--------|


E|--------|--------|--------|--------|--------|--------|--------|--------|--------|
B|--------|--------|--------|--------|--------|--------|--------|--------|--------|
G|--------|--------|--------|--------|--------|--------|--------|--------|--------|
D|--------|--------|--------|--------|--------|--------|--------|--------|--------|
A|--------|--------|--------|--------|--------|--------|--------|--------|--------|
E|--------|--------|--------|--------|--------|--------|--------|--------|--------|


E|--------|--------|
B|--------|--------|
G|--------|--------|
D|--------|--------|
A|--------|--------|
E|--------|--------|





Track 3: Untitled

E|--------|--------|--------|--------|--------|--------|--------|--------|--------|
B|--------|--------|--------|--------|--------|--------|--------|--------|--------|
G|--------|--------|--------|--------|--------|--------|--------|--------|--------|
D|--------|--------|--------|--------|--------|--------|--------|--------|--------|
A|--------|--------|--------|--------|--------|--------|--------|--------|--------|
E|--------|--------|--------|--------|--------|--------|--------|--------|--------|


E|--------|--------|--------|--------|--------|--------|--------|-------------------------2---0---|
B|--------|--------|--------|--------|--------|--------|--------|-------------3-------------------|
G|--------|--------|--------|--------|--------|--------|--------|---------4-----------3-----------|
D|--------|--------|--------|--------|--------|--------|--------|-----5-----------4---------------|
A|--------|--------|--------|--------|--------|--------|--------|---------------------------------|
E|--------|--------|--------|--------|--------|--------|--------|-0-------------------------------|


E|-------------------------------------|---------------------------|-------------------------------------|
B|-------------1-----------------------|---------15-----------14---|---------13------------12--------15--|
G|---------2-------------4---------7---|-----16--16-------15--15---|-----14------14--8--9--9---11-12-12--|
D|-----3-----------1--2--2---4--5--5---|---------------------------|-------------------------------------|
A|-------------------------------------|---------------------------|-------------------------------------|
E|-0-----------------------------------|---------------------------|-------------------------------------|


E|-------------------------2---0---|-------------------------------------|---------------------------|
B|-------------3-------------------|-------------1-----------------------|---------15-----------14---|
G|---------4-----------3-----------|---------2-------------4---------7---|-----16--16-------15--15---|
D|-----5-----------4---------------|-----3-----------1--2--2---4--5--5---|---------------------------|
A|---------------------------------|-------------------------------------|---------------------------|
E|-0-------------------------------|-0-----------------------------------|---------------------------|


E|-------------------------7---8---|--------|--------|--------|--------|--------|--------|
B|---------13----------9-----------|--------|--------|--------|--------|--------|--------|
G|-----14------14--9---9-----------|--------|--------|--------|--------|--------|--------|
D|---------------------------------|--------|--------|--------|--------|--------|--------|
A|---------------------------------|--------|--------|--------|--------|--------|--------|
E|---------------------------------|--------|--------|--------|--------|--------|--------|


E|--------|--------|--------|--------|--------|--------|--------|--------|--------|
B|--------|--------|--------|--------|--------|--------|--------|--------|--------|
G|--------|--------|--------|--------|--------|--------|--------|--------|--------|
D|--------|--------|--------|--------|--------|--------|--------|--------|--------|
A|--------|--------|--------|--------|--------|--------|--------|--------|--------|
E|--------|--------|--------|--------|--------|--------|--------|--------|--------|


E|--------|-------------------------2---0---|-------------------------------------|
B|--------|-------------3-------------------|-------------1-----------------------|
G|--------|---------4-----------3-----------|---------2-------------4---------7---|
D|--------|-----5-----------4---------------|-----3-----------1--2--2---4--5--5---|
A|--------|---------------------------------|-------------------------------------|
E|--------|-0-------------------------------|-0-----------------------------------|


E|---------------------------|-------------------------------------|-------------------------2---0---|
B|---------15-----------14---|---------13------------12--------15--|-------------3-------------------|
G|-----16--16-------15--15---|-----14------14--8--9--9---11-12-12--|---------4-----------3-----------|
D|---------------------------|-------------------------------------|-----5-----------4---------------|
A|---------------------------|-------------------------------------|---------------------------------|
E|---------------------------|-------------------------------------|-0-------------------------------|


E|-------------------------------------|---------------------------|-------------------------7---8---|
B|-------------1-----------------------|---------15-----------14---|---------13----------9-----------|
G|---------2-------------4---------7---|-----16--16-------15--15---|-----14------14--9---9-----------|
D|-----3-----------1--2--2---4--5--5---|---------------------------|---------------------------------|
A|-------------------------------------|---------------------------|---------------------------------|
E|-0-----------------------------------|---------------------------|---------------------------------|


E|---------------------------------|-----------------------------------|--------|--------|
B|---------------------------------|-----------------------------------|--------|--------|
G|---------5---4-----------5---4---|---------5---4---------------------|--------|--------|
D|-----5---------------4-----------|-----3-----------------------------|--------|--------|
A|-0---------------0---------------|-0---------------------------------|--------|--------|
E|---------------------------------|-----------------0---0---3--2--0---|--------|--------|


E|--------|--------|--------|--------|--------|--------|--------|--------|--------|
B|--------|--------|--------|--------|--------|--------|--------|--------|--------|
G|--------|--------|--------|--------|--------|--------|--------|--------|--------|
D|--------|--------|--------|--------|--------|--------|--------|--------|--------|
A|--------|--------|--------|--------|--------|--------|--------|--------|--------|
E|--------|--------|--------|--------|--------|--------|--------|--------|--------|


E|--------|--------|--------|--------|--------|--------|--------|--------|--------|
B|--------|--------|--------|--------|--------|--------|--------|--------|--------|
G|--------|--------|--------|--------|--------|--------|--------|--------|--------|
D|--------|--------|--------|--------|--------|--------|--------|--------|--------|
A|--------|--------|--------|--------|--------|--------|--------|--------|--------|
E|--------|--------|--------|--------|--------|--------|--------|--------|--------|


E|--------|--------|--------|--------|--------|--------|--------|--------|--------|
B|--------|--------|--------|--------|--------|--------|--------|--------|--------|
G|--------|--------|--------|--------|--------|--------|--------|--------|--------|
D|--------|--------|--------|--------|--------|--------|--------|--------|--------|
A|--------|--------|--------|--------|--------|--------|--------|--------|--------|
E|--------|--------|--------|--------|--------|--------|--------|--------|--------|


E|--------|--------|--------|--------|--------|--------|--------|--------|--------|
B|--------|--------|--------|--------|--------|--------|--------|--------|--------|
G|--------|--------|--------|--------|--------|--------|--------|--------|--------|
D|--------|--------|--------|--------|--------|--------|--------|--------|--------|
A|--------|--------|--------|--------|--------|--------|--------|--------|--------|
E|--------|--------|--------|--------|--------|--------|--------|--------|--------|


E|--------|--------|--------|--------|--------|--------|--------|--------|--------|
B|--------|--------|--------|--------|--------|--------|--------|--------|--------|
G|--------|--------|--------|--------|--------|--------|--------|--------|--------|
D|--------|--------|--------|--------|--------|--------|--------|--------|--------|
A|--------|--------|--------|--------|--------|--------|--------|--------|--------|
E|--------|--------|--------|--------|--------|--------|--------|--------|--------|


E|--------|--------|--------|--------|--------|--------|--------|--------|--------|
B|--------|--------|--------|--------|--------|--------|--------|--------|--------|
G|--------|--------|--------|--------|--------|--------|--------|--------|--------|
D|--------|--------|--------|--------|--------|--------|--------|--------|--------|
A|--------|--------|--------|--------|--------|--------|--------|--------|--------|
E|--------|--------|--------|--------|--------|--------|--------|--------|--------|


E|--------|--------|--------|--------|--------|--------|--------|--------|--------|
B|--------|--------|--------|--------|--------|--------|--------|--------|--------|
G|--------|--------|--------|--------|--------|--------|--------|--------|--------|
D|--------|--------|--------|--------|--------|--------|--------|--------|--------|
A|--------|--------|--------|--------|--------|--------|--------|--------|--------|
E|--------|--------|--------|--------|--------|--------|--------|--------|--------|


E|--------|--------|--------|--------|--------|--------|--------|--------|--------|
B|--------|--------|--------|--------|--------|--------|--------|--------|--------|
G|--------|--------|--------|--------|--------|--------|--------|--------|--------|
D|--------|--------|--------|--------|--------|--------|--------|--------|--------|
A|--------|--------|--------|--------|--------|--------|--------|--------|--------|
E|--------|--------|--------|--------|--------|--------|--------|--------|--------|


E|--------|--------|--------|--------|--------|--------|--------|--------|--------|
B|--------|--------|--------|--------|--------|--------|--------|--------|--------|
G|--------|--------|--------|--------|--------|--------|--------|--------|--------|
D|--------|--------|--------|--------|--------|--------|--------|--------|--------|
A|--------|--------|--------|--------|--------|--------|--------|--------|--------|
E|--------|--------|--------|--------|--------|--------|--------|--------|--------|


E|--------|--------|--------|--------|--------|--------|--------|--------|--------|
B|--------|--------|--------|--------|--------|--------|--------|--------|--------|
G|--------|--------|--------|--------|--------|--------|--------|--------|--------|
D|--------|--------|--------|--------|--------|--------|--------|--------|--------|
A|--------|--------|--------|--------|--------|--------|--------|--------|--------|
E|--------|--------|--------|--------|--------|--------|--------|--------|--------|


E|--------|--------|--------|--------|--------|--------|--------|--------|--------|
B|--------|--------|--------|--------|--------|--------|--------|--------|--------|
G|--------|--------|--------|--------|--------|--------|--------|--------|--------|
D|--------|--------|--------|--------|--------|--------|--------|--------|--------|
A|--------|--------|--------|--------|--------|--------|--------|--------|--------|
E|--------|--------|--------|--------|--------|--------|--------|--------|--------|


E|--------|--------|--------|--------|--------|--------|--------|--------|--------|
B|--------|--------|--------|--------|--------|--------|--------|--------|--------|
G|--------|--------|--------|--------|--------|--------|--------|--------|--------|
D|--------|--------|--------|--------|--------|--------|--------|--------|--------|
A|--------|--------|--------|--------|--------|--------|--------|--------|--------|
E|--------|--------|--------|--------|--------|--------|--------|--------|--------|


E|--------|--------|--------|--------|--------|--------|--------|--------|
B|--------|--------|--------|--------|--------|--------|--------|--------|
G|--------|--------|--------|--------|--------|--------|--------|--------|
D|--------|--------|--------|--------|--------|--------|--------|--------|
A|--------|--------|--------|--------|--------|--------|--------|--------|
E|--------|--------|--------|--------|--------|--------|--------|--------|





Track 4: Untitled

E|--------|--------|--------|--------|--------|--------|--------|--------|--------|
B|--------|--------|--------|--------|--------|--------|--------|--------|--------|
G|--------|--------|--------|--------|--------|--------|--------|--------|--------|
D|--------|--------|--------|--------|--------|--------|--------|--------|--------|
A|--------|--------|--------|--------|--------|--------|--------|--------|--------|
E|--------|--------|--------|--------|--------|--------|--------|--------|--------|


E|--------|--------|--------|--------|--------|--------|--------|--------|--------|
B|--------|--------|--------|--------|--------|--------|--------|--------|--------|
G|--------|--------|--------|--------|--------|--------|--------|--------|--------|
D|--------|--------|--------|--------|--------|--------|--------|--------|--------|
A|--------|--------|--------|--------|--------|--------|--------|--------|--------|
E|--------|--------|--------|--------|--------|--------|--------|--------|--------|


E|--------|--------|--------|--------|--------|--------|-----12-13-12------------------------|
B|--------|--------|--------|--------|--------|--------|---------------15--13--12-13---------|
G|--------|--------|--------|--------|--------|--------|-----------------------------14--13--|
D|--------|--------|--------|--------|--------|--------|-------------------------------------|
A|--------|--------|--------|--------|--------|--------|-------------------------------------|
E|--------|--------|--------|--------|--------|--------|-------------------------------------|


E|--------------------------5--7--8--7--5-----|-5------------0--------------|-----------------------------|
B|-----------------------5-----------------8--|-----------0-----0---0---0---|-0-----0---0---0---0---------|
G|-14-----------------5-----------------------|-----------2-----4---5---7---|-5--4--2---0---2---1---------|
D|--------------4--7--------------------------|-----------------------------|---------------3---2---------|
A|-----------5--------------------------------|-----------------------------|-----------------------------|
E|--------------------------------------------|-----------------------------|-----------------------------|


E|-------------------------------------------|-1--0--------------------------|-----------------------------------|
B|----------------------------0--1--0--------|-------3--1--0-----------------|--------------------------------0--|
G|-2--2-2-2--1--2----2-----2-----------2--1--|----------------2--1-----------|--------------------------0--------|
D|----------------------2--------------------|----------------------3--2-----|-2---------------0-----3-----7-----|
A|-------------------------------------------|-------------------------------|-----------2--3-----7--------------|
E|-------------------------------------------|-------------------------------|-----------------------------------|


E|----------0--3-----0---------------|-5------|-5------|-5------|--------|--------|
B|-------3--------6-----3--5---------|-5------|-5------|-5------|--------|--------|
G|-4--5------------------------------|-5------|-5------|-5------|--------|--------|
D|-----------------------------------|-5------|-5------|-5------|--------|--------|
A|-----------------------------------|-5------|-5------|-5------|--------|--------|
E|-----------------------------------|-5------|-5------|-5------|--------|--------|


E|--------|--------|--------|--------|--------|--------|--------|--------|--------|
B|--------|--------|--------|--------|--------|--------|--------|--------|--------|
G|--------|--------|--------|--------|--------|--------|--------|--------|--------|
D|--------|--------|--------|--------|--------|--------|--------|--------|--------|
A|--------|--------|--------|--------|--------|--------|--------|--------|--------|
E|--------|--------|--------|--------|--------|--------|--------|--------|--------|


E|--------|--------|--------|--------|--------|--------|--------|--------|--------|
B|--------|--------|--------|--------|--------|--------|--------|--------|--------|
G|--------|--------|--------|--------|--------|--------|--------|--------|--------|
D|--------|--------|--------|--------|--------|--------|--------|--------|--------|
A|--------|--------|--------|--------|--------|--------|--------|--------|--------|
E|--------|--------|--------|--------|--------|--------|--------|--------|--------|


E|--------|--------|--------|--------|--------|--------|--------|--------|--------|
B|--------|--------|--------|--------|--------|--------|--------|--------|--------|
G|--------|--------|--------|--------|--------|--------|--------|--------|--------|
D|--------|--------|--------|--------|--------|--------|--------|--------|--------|
A|--------|--------|--------|--------|--------|--------|--------|--------|--------|
E|--------|--------|--------|--------|--------|--------|--------|--------|--------|


E|--------|--------|--------|--------|--------|--------|--------|--------|--------|
B|--------|--------|--------|--------|--------|--------|--------|--------|--------|
G|--------|--------|--------|--------|--------|--------|--------|--------|--------|
D|--------|--------|--------|--------|--------|--------|--------|--------|--------|
A|--------|--------|--------|--------|--------|--------|--------|--------|--------|
E|--------|--------|--------|--------|--------|--------|--------|--------|--------|


E|--------|--------|--------|--------|--------|--------|--------|--------|--------|
B|--------|--------|--------|--------|--------|--------|--------|--------|--------|
G|--------|--------|--------|--------|--------|--------|--------|--------|--------|
D|--------|--------|--------|--------|--------|--------|--------|--------|--------|
A|--------|--------|--------|--------|--------|--------|--------|--------|--------|
E|--------|--------|--------|--------|--------|--------|--------|--------|--------|


E|--------|--------|--------|--------|--------|--------|--------|--------|--------|
B|--------|--------|--------|--------|--------|--------|--------|--------|--------|
G|--------|--------|--------|--------|--------|--------|--------|--------|--------|
D|--------|--------|--------|--------|--------|--------|--------|--------|--------|
A|--------|--------|--------|--------|--------|--------|--------|--------|--------|
E|--------|--------|--------|--------|--------|--------|--------|--------|--------|


E|--------|--------|--------|--------|--------|--------|--------|--------|--------|
B|--------|--------|--------|--------|--------|--------|--------|--------|--------|
G|--------|--------|--------|--------|--------|--------|--------|--------|--------|
D|--------|--------|--------|--------|--------|--------|--------|--------|--------|
A|--------|--------|--------|--------|--------|--------|--------|--------|--------|
E|--------|--------|--------|--------|--------|--------|--------|--------|--------|


E|--------|--------|--------|--------|--------|--------|--------|--------|--------|
B|--------|--------|--------|--------|--------|--------|--------|--------|--------|
G|--------|--------|--------|--------|--------|--------|--------|--------|--------|
D|--------|--------|--------|--------|--------|--------|--------|--------|--------|
A|--------|--------|--------|--------|--------|--------|--------|--------|--------|
E|--------|--------|--------|--------|--------|--------|--------|--------|--------|


E|--------|--------|--------|--------|--------|--------|--------|--------|--------|
B|--------|--------|--------|--------|--------|--------|--------|--------|--------|
G|--------|--------|--------|--------|--------|--------|--------|--------|--------|
D|--------|--------|--------|--------|--------|--------|--------|--------|--------|
A|--------|--------|--------|--------|--------|--------|--------|--------|--------|
E|--------|--------|--------|--------|--------|--------|--------|--------|--------|


E|--------|--------|--------|--------|--------|--------|--------|--------|--------|
B|--------|--------|--------|--------|--------|--------|--------|--------|--------|
G|--------|--------|--------|--------|--------|--------|--------|--------|--------|
D|--------|--------|--------|--------|--------|--------|--------|--------|--------|
A|--------|--------|--------|--------|--------|--------|--------|--------|--------|
E|--------|--------|--------|--------|--------|--------|--------|--------|--------|


E|--------|--------|--------|--------|--------|--------|--------|--------|--------|
B|--------|--------|--------|--------|--------|--------|--------|--------|--------|
G|--------|--------|--------|--------|--------|--------|--------|--------|--------|
D|--------|--------|--------|--------|--------|--------|--------|--------|--------|
A|--------|--------|--------|--------|--------|--------|--------|--------|--------|
E|--------|--------|--------|--------|--------|--------|--------|--------|--------|


E|--------|--------|--------|--------|--------|--------|--------|--------|--------|
B|--------|--------|--------|--------|--------|--------|--------|--------|--------|
G|--------|--------|--------|--------|--------|--------|--------|--------|--------|
D|--------|--------|--------|--------|--------|--------|--------|--------|--------|
A|--------|--------|--------|--------|--------|--------|--------|--------|--------|
E|--------|--------|--------|--------|--------|--------|--------|--------|--------|


E|--------|--------|--------|--------|--------|--------|--------|--------|--------|
B|--------|--------|--------|--------|--------|--------|--------|--------|--------|
G|--------|--------|--------|--------|--------|--------|--------|--------|--------|
D|--------|--------|--------|--------|--------|--------|--------|--------|--------|
A|--------|--------|--------|--------|--------|--------|--------|--------|--------|
E|--------|--------|--------|--------|--------|--------|--------|--------|--------|


E|--------|--------|--------|--------|--------|--------|--------|--------|--------|
B|--------|--------|--------|--------|--------|--------|--------|--------|--------|
G|--------|--------|--------|--------|--------|--------|--------|--------|--------|
D|--------|--------|--------|--------|--------|--------|--------|--------|--------|
A|--------|--------|--------|--------|--------|--------|--------|--------|--------|
E|--------|--------|--------|--------|--------|--------|--------|--------|--------|


E|--------|--------|--------|--------|--------|
B|--------|--------|--------|--------|--------|
G|--------|--------|--------|--------|--------|
D|--------|--------|--------|--------|--------|
A|--------|--------|--------|--------|--------|
E|--------|--------|--------|--------|--------|





Track 5: Untitled

E|--------|--------|--------|--------|--------|--------|--------|--------|--------|
B|--------|--------|--------|--------|--------|--------|--------|--------|--------|
G|--------|--------|--------|--------|--------|--------|--------|--------|--------|
D|--------|--------|--------|--------|--------|--------|--------|--------|--------|
A|--------|--------|--------|--------|--------|--------|--------|--------|--------|
E|--------|--------|--------|--------|--------|--------|--------|--------|--------|


E|--------|--------|--------|--------|--------|--------|--------|--------|--------|
B|--------|--------|--------|--------|--------|--------|--------|--------|--------|
G|--------|--------|--------|--------|--------|--------|--------|--------|--------|
D|--------|--------|--------|--------|--------|--------|--------|--------|--------|
A|--------|--------|--------|--------|--------|--------|--------|--------|--------|
E|--------|--------|--------|--------|--------|--------|--------|--------|--------|


E|--------|--------|--------|--------|--------|--------|--------|--------|--------|
B|--------|--------|--------|--------|--------|--------|--------|--------|--------|
G|--------|--------|--------|--------|--------|--------|--------|--------|--------|
D|--------|--------|--------|--------|--------|--------|--------|--------|--------|
A|--------|--------|--------|--------|--------|--------|--------|--------|--------|
E|--------|--------|--------|--------|--------|--------|--------|--------|--------|


E|--------|--------|--------|--------|--------|--------|--------|--------|--------|
B|--------|--------|--------|--------|--------|--------|--------|--------|--------|
G|--------|--------|--------|--------|--------|--------|--------|--------|--------|
D|--------|--------|--------|--------|--------|--------|--------|--------|--------|
A|--------|--------|--------|--------|--------|--------|--------|--------|--------|
E|--------|--------|--------|--------|--------|--------|--------|--------|--------|


E|--------|--------|--------|--------|--------|--------|--------|--------|--------|
B|--------|--------|--------|--------|--------|--------|--------|--------|--------|
G|--------|--------|--------|--------|--------|--------|--------|--------|--------|
D|--------|--------|--------|--------|--------|--------|--------|--------|--------|
A|--------|--------|--------|--------|--------|--------|--------|--------|--------|
E|--------|--------|--------|--------|--------|--------|--------|--------|--------|


E|--------|--------|--------------------|-----12-13-12------------------------|-----------------------12-17-12-------------|
B|--------|--------|--------------------|---------------15--13--12-13---------|--------------------13----------13----------|
G|--------|--------|--------------------|-----------------------------14--13--|-14----14--------14----------------14-------|
D|--------|--------|--------------------|-------------------------------------|--------------14----------------------14----|
A|--------|--------|--------------------|-------------------------------------|-----------12----------------------------15-|
E|--------|--------|------------12-16---|-------------------------------------|--------------------------------------------|


E|----------------------------------10----|----------------------------------------|
B|----------------10----12----13----------|-13----10----12----10-12-10-9-----9--3--|
G|-------------9-----9-----9-----9-----9--|----10----10----10----------------------|
D|----------------------------------------|----------------------------------------|
A|-12---12--------------------------------|----------------------------------------|
E|----------------------------------------|----------------------------------------|


E|-------------------------------------------|-12-13----12------------------------------------|
B|----------------------------12-13-12-------|-------15----15-13-12-13----12------------------|
G|-14-141414-13-14---14----14----------14-13-|-------------------------14----14-13------------|
D|----------------------14-------------------|------------------------------------1514----14--|
A|-------------------------------------------|------------------------------------------------|
E|-------------------------------------------|------------------------------------------------|


E|-----------------------------------------|-----------------------171920222222----|
B|-----------------------------------------|-----------------171820----------------|
G|-----------------------------12--14--16--|-1716------161719----------------------|
D|-----------------12--14--15--------------|-----191819----------------------------|
A|-12---14-14--15--------------------------|---------------------------------------|
E|-----------------------------------------|---------------------------------------|


E|-------22----19-24-19-|-19---19---19-------|--------|--------|--------|--------|
B|----------------------|--------------------|--------|--------|--------|--------|
G|----------------------|--------------------|--------|--------|--------|--------|
D|----------------------|--------------------|--------|--------|--------|--------|
A|----------------------|--------------------|--------|--------|--------|--------|
E|----------------------|--------------------|--------|--------|--------|--------|


E|--------|--------|--------|--------|--------|-----------------------|---------------------------------|
B|--------|--------|--------|--------|--------|-----------------------|---------------------------------|
G|--------|--------|--------|--------|--------|-----------------------|---------------------------------|
D|--------|--------|--------|--------|--------|-----------------------|---------6-------7----6--6-------|
A|--------|--------|--------|--------|--------|-------7----5--5---8---|-8--7--------8---------------8---|
E|--------|--------|--------|--------|--------|-----------------------|---------------------------------|


E|---------------------------------|---------------------------------|---------------------------|
B|---------------------------------|-----------------10---9--9-------|---------------------------|
G|-----------------10---9--9-------|---------10--9---------------10--|-10-9----------------------|
D|---------10--9---------------10--|-10-9----------------------------|---------10--9---11----11--|
A|-8--7----------------------------|---------------------------------|---------------------------|
E|---------------------------------|---------------------------------|---------------------------|


E|-------------|-------------|-------------|-------------|---------------------|-------------------------------|
B|-------------|-------------|-------------|-------11----|-11----11--11----11--|-11----------------------------|
G|-------------|-------------|-------------|-------------|---------------------|-------------------------------|
D|-11----11----|-------11----|-------------|-------------|---------------------|---------------------10-10-----|
A|-------------|-------------|-------------|-------------|---------------------|-----------10-10-12--------12--|
E|-------------|-------------|-------------|-------------|---------------------|-------------------------------|


E|-------------------------------------------------|----------12-------------------|
B|-------------------------------12----------------|-12-14-15----15-14-12-14-17----|
G|----------12-14-12----12-14-15----15-14-12-14-15-|-------------------------------|
D|----10-12----------14----------------------------|-------------------------------|
A|-12----------------------------------------------|-------------------------------|
E|-------------------------------------------------|-------------------------------|


E|-----------------|-------------|-------------|----------------------------------------|
B|-17----17--17----|-17----17----|-------------|----------7--8--10-7-----10-7-----10-7--|
G|-----------------|-------------|-------------|----------------------9--------9--------|
D|-----------------|-------------|-------------|----------------------------------------|
A|-----------------|-------------|-------------|----------------------------------------|
E|-----------------|-------------|-------------|----------------------------------------|


E|--------------------------------------------------|--------------------------------------------------|
B|----10-7-----10-7---------9--7-----9--7-----9--7--|----9--7-----9--7---------10-7-----10-7-----10-7--|
G|-9--------9--------9--7---------9--------9--------|-9--------9--------9--7---------9--------9--------|
D|--------------------------------------------------|--------------------------------------------------|
A|--------------------------------------------------|--------------------------------------------------|
E|--------------------------------------------------|--------------------------------------------------|


E|--------------------------------------------------|--------------------------------|
B|----10-7-----10-7---------9--7-----9--7-----9--7--|----9--7-----9--7---------------|
G|-9--------9--------9--7---------9--------9--------|-9--------9--------9--7---6-----|
D|--------------------------------------------------|--------------------------------|
A|--------------------------------------------------|--------------------------------|
E|--------------------------------------------------|--------------------------------|


E|-------------|-------------|-------------|--------------------|--------|--------|
B|-------------|-------------|-------------|--------------------|--------|--------|
G|-------6-----|-------6-----|-------6-----|----------6---------|--------|--------|
D|-------------|-------------|-------------|--------------------|--------|--------|
A|-------------|-------------|-------------|--------------------|--------|--------|
E|-------------|-------------|-------------|--------------------|--------|--------|


E|--------|--------|--------|--------|--------|-------------|-------------|---------------------12--12--|
B|--------|--------|--------|--------|--------|-------12----|-12----12----|-12---15-12-15--15-------15--|
G|--------|--------|--------|--------|--------|-------------|-------------|-----------------------------|
D|--------|--------|--------|--------|--------|-------------|-------------|-----------------------------|
A|--------|--------|--------|--------|--------|-------------|-------------|-----------------------------|
E|--------|--------|--------|--------|--------|-------------|-------------|-----------------------------|


E|-12--12------13--13----|-13----13--17----17--|-17---17---17--17----|-17----17--17-15----15-12-12-----|
B|-15------15--16--16----|-16----16------------|---------------------|-----------------17----------15--|
G|-----------------------|---------------------|---------------------|---------------------------------|
D|-----------------------|---------------------|---------------------|---------------------------------|
A|-----------------------|---------------------|---------------------|---------------------------------|
E|-----------------------|---------------------|---------------------|---------------------------------|


E|-12----------------------------------------------------|-----------------------------------------------|
B|----15-12-15-12-12-------------------12-15-12----------|-----------------------10-12-9--10-9-----------|
G|-------------------15-14-12-12-14-15----------15-14-12-|-14-15-14-12--------------------------11-9--9--|
D|-------------------------------------------------------|-------------15-----14-------------------------|
A|-------------------------------------------------------|-----------------------------------------------|
E|-------------------------------------------------------|-----------------------------------------------|


E|---------------------------------------------|-------------------------------------------------|
B|--------10-----------------------------------|-------------------------------------------9--10-|
G|-9---9-----9---------------------------------|-------------------------------------9--11-------|
D|--------------11-9---12-10-9-----11-9--------|----------------------------9--11-12-------------|
A|------------------------------12-------12-11-|-12-11-9-----11----9--11-12----------------------|
E|---------------------------------------------|----------12----12-------------------------------|


E|----9--9--------7------------------------------|----14---------------------------|
B|-12-------12-------10-7-----8-----10----14-----|-14----17-14----14-14--17----17--|
G|-------------------------11----12----16----16--|-------------16------------------|
D|-----------------------------------------------|---------------------------------|
A|-----------------------------------------------|---------------------------------|
E|-----------------------------------------------|---------------------------------|


E|-14-------------------------------|-----------------18-14-----17-14-17-14-|----14----------14-------------------------------------|
B|----17-14-19-19---19--17--17--17--|-17--17--5---17--------17--------------|-17----17-14-------------------------------------------|
G|----------------------------------|---------------------------------------|-------------17----17-16-14----16----14-14-------------|
D|----------------------------------|---------------------------------------|----------------------------16----16-------16-14-15-17-|
A|----------------------------------|---------------------------------------|-------------------------------------------------------|
E|----------------------------------|---------------------------------------|-------------------------------------------------------|


E|-------------------17-17-19-9--5-----5--9--5--9--5--|----5--9--5--9--5-----5--9--5-----5--9--5--9--5--|
B|----------17-18-19----------------7-----------------|-7-----------------7-----------7-----------------|
G|-14-16-18-------------------------------------------|-------------------------------------------------|
D|----------------------------------------------------|-------------------------------------------------|
A|----------------------------------------------------|-------------------------------------------------|
E|----------------------------------------------------|-------------------------------------------------|


E|----5--9--5--9--5-----5--10-6-----6--10-6--10-6--|----6--10-6--10-6--------------------------------|
B|-7-----------------7-----------8-----------------|-8-----------------8--------------8--11-10-8-----|
G|-------------------------------------------------|-------------------------8--10-11-------------10-|
D|-------------------------------------------------|-------------------------------------------------|
A|-------------------------------------------------|-------------------------------------------------|
E|-------------------------------------------------|-------------------------------------------------|


E|----------8--11-10-8-----9--5-----5--9--5--9--5--|----5--9--5--9--5-----5--9--5-----5--9--5--9--5--|
B|-8--10-11-------------10-------7-----------------|-7-----------------7-----------7-----------------|
G|-------------------------------------------------|-------------------------------------------------|
D|-------------------------------------------------|-------------------------------------------------|
A|-------------------------------------------------|-------------------------------------------------|
E|-------------------------------------------------|-------------------------------------------------|


E|----5--9--5--9--5-----5--10-6-----6--10-6--10-6--|----6--10-6--10-6--------10-8--6-----8--6--------|
B|-7-----------------7-----------8-----------------|-8-----------------8--------------10-------10-8--|
G|-------------------------------------------------|-------------------------------------------------|
D|-------------------------------------------------|-------------------------------------------------|
A|-------------------------------------------------|-------------------------------------------------|
E|-------------------------------------------------|-------------------------------------------------|


E|-6-------------------------------------------|-------------------------------------------------|
B|----10-8---10-7--9---15-12----15-12----15-12-|----15-12----17-12----12-15-12----15-12----16-12-|
G|---------------------------15-------15-------|-15-------15-------15----------15-------15-------|
D|---------------------------------------------|-------------------------------------------------|
A|---------------------------------------------|-------------------------------------------------|
E|---------------------------------------------|-------------------------------------------------|


E|-------------------------------------------------------|-----------------------17-12-------------------|
B|-15-16-12----12-17-12----12-15-12----12-17-12----15-12-|-12-17-12-15-17-12-15--------15-12----12-15-12-|
G|----------15----------15----------15----------15-------|-----------------------------------14----------|
D|-------------------------------------------------------|-----------------------------------------------|
A|-------------------------------------------------------|-----------------------------------------------|
E|-------------------------------------------------------|-----------------------------------------------|


E|----------------------------------|------------------------------------|-------------------------------------------|
B|----------------------------------|------------------------------------|-------------------------------------------|
G|-14-15-15-14-12-12-12-14-14-14----|-14------------12-14-14--14-14--14--|-14---14-14-14--12-14-12-14-12-14-12-14-12-|
D|----------------------------------|------12-13-14----------------------|-------------------------------------------|
A|----------------------------------|------------------------------------|-------------------------------------------|
E|----------------------------------|------------------------------------|-------------------------------------------|


E|-------------------------------------------------|-----------------------------------|
B|-------------------------------------------------|-------------------------12--------|
G|-14-12-14-12-14-12-14-12-14-12-14-12-14-12-14-12-|-14-12-14-12-14-12-14-12-12--------|
D|-------------------------------------------------|-----------------------------------|
A|-------------------------------------------------|-------------------------------14--|
E|-------------------------------------------------|-----------------------------------|


E|-----------------------------|-------------------------|-----------------|--------------------------------------|
B|-12--------12--14-14-14--12--|-14-14--12-12------------|-----------------|--------------------------------------|
G|-12--------12--14-14-14--12--|-14-14--12-12------14----|------14---14----|-14---14---12-------------------------|
D|-------14--------------------|---------------14--------|-----------------|--------------------------------------|
A|-----------------------------|-------------------------|-----------------|----------------------13--16--13------|
E|-----------------------------|-------------------------|-----------------|--------------12--15--------------15--|


E|-------------------------------------------------|-------------------------------|
B|-------------------------------------------------|---------17--20--17------17----|
G|---------------------------------15--18--15------|-15--18--------------18--------|
D|---------14--17--14------14--17--------------17--|-------------------------------|
A|-13--16--------------16--------------------------|-------------------------------|
E|-------------------------------------------------|-------------------------------|


E|-----------------|---------------------|------------------------------|--------------------------|
B|-------17--------|-----------5----5----|----------5-------5-------5---|-5-----5--5---------------|
G|-----------------|-----------4----4----|----------4-------4-------4---|-4-----4--2--4----2--4----|
D|-----------------|---------------------|------------------------------|--------------------------|
A|-------------24--|-20---15-------------|------------------------------|--------------------------|
E|-------------24--|-20---15-------------|------------------------------|--------------------------|


E|------------------------------|---------------------------------|---------------------------------|
B|------------------------------|---------------------------------|---------------------------------|
G|------------------2-------4---|---------4---3---3---3---3---3---|-3-------------------4---3---6---|
D|------4---2---4-------4-------|-----4---------------------------|-----4---2-------2---------------|
A|------------------------------|---------------------------------|-------------4-------------------|
E|------------------------------|---------------------------------|---------------------------------|


E|-----7---6-------------------------9--10-|----9--------------------------------------------|
B|-5------------------------9--10-12-------|-12----12-10-9-----10-9--------------------------|
G|-----------------9--10-11----------------|----------------11-------11-9--------------------|
D|-----------------------------------------|-------------------------------12-11-9-----11-9--|
A|-----------------------------------------|----------------------------------------12-------|
E|-----------------------------------------|-------------------------------------------------|


E|-----------------------21-17----17-21-17-21-17-|----17-21-17-21-17----17-21-17----17-21-17-21-17-|
B|-----------------------------19----------------|-19----------------19----------19----------------|
G|-----------------------------------------------|-------------------------------------------------|
D|-----------------------------------------------|-------------------------------------------------|
A|-12-11-10-10-9--9--10--------------------------|-------------------------------------------------|
E|-----------------------------------------------|-------------------------------------------------|


E|----17-21-17-21-17----17-22-18----18-22-18-22-18-|----18-22-18-22-18-------------------------------|
B|-19----------------19----------20----------------|-20----------------20-------------20-23-22-20----|
G|-------------------------------------------------|-------------------------20-22-23-------------22-|
D|-------------------------------------------------|-------------------------------------------------|
A|-------------------------------------------------|-------------------------------------------------|
E|-------------------------------------------------|-------------------------------------------------|


E|----------20-23-22-20----21-17----17-21-17-21-17-|----17-21-17-21-17----17-21-17----17-21-17-21-17-|
B|-20-22-23-------------22-------19----------------|-19----------------19----------19----------------|
G|-------------------------------------------------|-------------------------------------------------|
D|-------------------------------------------------|-------------------------------------------------|
A|-------------------------------------------------|-------------------------------------------------|
E|-------------------------------------------------|-------------------------------------------------|


E|----17-21-17-21-17----17-22-18----18-22-18-22-18-|----18-22-18-22-18-------22-20-18----20-18-------|
B|-19----------------19----------20----------------|-20----------------20-------------22-------22-20-|
G|-------------------------------------------------|-------------------------------------------------|
D|-------------------------------------------------|-------------------------------------------------|
A|-------------------------------------------------|-------------------------------------------------|
E|-------------------------------------------------|-------------------------------------------------|


E|-18----------------------------|-------------|--------|--------|--------|--------|
B|----22-20-18-22-20-19----------|-------------|--------|--------|--------|--------|
G|----------------------21-19----|-------------|--------|--------|--------|--------|
D|-------------------------------|-------------|--------|--------|--------|--------|
A|-------------------------------|-------------|--------|--------|--------|--------|
E|-------------------------------|-------------|--------|--------|--------|--------|


E|--------|--------|--------|--------|--------|--------|--------|
B|--------|--------|--------|--------|--------|--------|--------|
G|--------|--------|--------|--------|--------|--------|--------|
D|--------|--------|--------|--------|--------|--------|--------|
A|--------|--------|--------|--------|--------|--------|--------|
E|--------|--------|--------|--------|--------|--------|--------|





Track 6: Untitled

E|--------|--------|--------|--------|--------|--------|--------|--------|--------|
B|--------|--------|--------|--------|--------|--------|--------|--------|--------|
G|--------|--------|--------|--------|--------|--------|--------|--------|--------|
D|--------|--------|--------|--------|--------|--------|--------|--------|--------|
A|--------|--------|--------|--------|--------|--------|--------|--------|--------|
E|--------|--------|--------|--------|--------|--------|--------|--------|--------|


E|--------|--------|--------|--------|--------|--------|--------|--------|--------|
B|--------|--------|--------|--------|--------|--------|--------|--------|--------|
G|--------|--------|--------|--------|--------|--------|--------|--------|--------|
D|--------|--------|--------|--------|--------|--------|--------|--------|--------|
A|--------|--------|--------|--------|--------|--------|--------|--------|--------|
E|--------|--------|--------|--------|--------|--------|--------|--------|--------|


E|--------|--------|--------|--------|--------|--------|--------|--------|--------|
B|--------|--------|--------|--------|--------|--------|--------|--------|--------|
G|--------|--------|--------|--------|--------|--------|--------|--------|--------|
D|--------|--------|--------|--------|--------|--------|--------|--------|--------|
A|--------|--------|--------|--------|--------|--------|--------|--------|--------|
E|--------|--------|--------|--------|--------|--------|--------|--------|--------|


E|--------|--------|--------|--------|--------|--------|--------|--------|--------|
B|--------|--------|--------|--------|--------|--------|--------|--------|--------|
G|--------|--------|--------|--------|--------|--------|--------|--------|--------|
D|--------|--------|--------|--------|--------|--------|--------|--------|--------|
A|--------|--------|--------|--------|--------|--------|--------|--------|--------|
E|--------|--------|--------|--------|--------|--------|--------|--------|--------|


E|--------|--------|--------|--------|--------|--------|--------|--------|--------|
B|--------|--------|--------|--------|--------|--------|--------|--------|--------|
G|--------|--------|--------|--------|--------|--------|--------|--------|--------|
D|--------|--------|--------|--------|--------|--------|--------|--------|--------|
A|--------|--------|--------|--------|--------|--------|--------|--------|--------|
E|--------|--------|--------|--------|--------|--------|--------|--------|--------|


E|--------|--------|--------|--------|--------|--------|--------|--------|--------|
B|--------|--------|--------|--------|--------|--------|--------|--------|--------|
G|--------|--------|--------|--------|--------|--------|--------|--------|--------|
D|--------|--------|--------|--------|--------|--------|--------|--------|--------|
A|--------|--------|--------|--------|--------|--------|--------|--------|--------|
E|--------|--------|--------|--------|--------|--------|--------|--------|--------|


E|--------|--------|--------|--------|--------|--------|--------|--------|--------|
B|--------|--------|--------|--------|--------|--------|--------|--------|--------|
G|--------|--------|--------|--------|--------|--------|--------|--------|--------|
D|--------|--------|--------|--------|--------|--------|--------|--------|--------|
A|--------|--------|--------|--------|--------|--------|--------|--------|--------|
E|--------|--------|--------|--------|--------|--------|--------|--------|--------|


E|--------|--------|--------|--------|--------|--------|--------|--------|--------|
B|--------|--------|--------|--------|--------|--------|--------|--------|--------|
G|--------|--------|--------|--------|--------|--------|--------|--------|--------|
D|--------|--------|--------|--------|--------|--------|--------|--------|--------|
A|--------|--------|--------|--------|--------|--------|--------|--------|--------|
E|--------|--------|--------|--------|--------|--------|--------|--------|--------|


E|--------|--------|--------|--------|--------|--------|--------|--------|--------|
B|--------|--------|--------|--------|--------|--------|--------|--------|--------|
G|--------|--------|--------|--------|--------|--------|--------|--------|--------|
D|--------|--------|--------|--------|--------|--------|--------|--------|--------|
A|--------|--------|--------|--------|--------|--------|--------|--------|--------|
E|--------|--------|--------|--------|--------|--------|--------|--------|--------|


E|--------|--------|--------|--------|--------|--------|--------|--------|--------|
B|--------|--------|--------|--------|--------|--------|--------|--------|--------|
G|--------|--------|--------|--------|--------|--------|--------|--------|--------|
D|--------|--------|--------|--------|--------|--------|--------|--------|--------|
A|--------|--------|--------|--------|--------|--------|--------|--------|--------|
E|--------|--------|--------|--------|--------|--------|--------|--------|--------|


E|--------|--------|--------|--------|--------|--------|--------|--------|--------|
B|--------|--------|--------|--------|--------|--------|--------|--------|--------|
G|--------|--------|--------|--------|--------|--------|--------|--------|--------|
D|--------|--------|--------|--------|--------|--------|--------|--------|--------|
A|--------|--------|--------|--------|--------|--------|--------|--------|--------|
E|--------|--------|--------|--------|--------|--------|--------|--------|--------|


E|--------|--------|--------|--------|--------|--------|--------|--------|--------|
B|--------|--------|--------|--------|--------|--------|--------|--------|--------|
G|--------|--------|--------|--------|--------|--------|--------|--------|--------|
D|--------|--------|--------|--------|--------|--------|--------|--------|--------|
A|--------|--------|--------|--------|--------|--------|--------|--------|--------|
E|--------|--------|--------|--------|--------|--------|--------|--------|--------|


E|--------|--------|--------|--------|--------|--------|--------|-------------------------------|
B|--------|--------|--------|--------|--------|--------|--------|-------10-7-----7--10-7--10-7--|
G|--------|--------|--------|--------|--------|--------|--------|-------------9-----------------|
D|--------|--------|--------|--------|--------|--------|--------|-------------------------------|
A|--------|--------|--------|--------|--------|--------|--------|-------------------------------|
E|--------|--------|--------|--------|--------|--------|--------|-------------------------------|


E|-------------------------------------------------|-------------------------------------------------|
B|----7--10-7--10-7-----7--10-7-----7--10-7--10-7--|----7--10-7--10-7-----7--11-8-----8--11-8--11-8--|
G|-9-----------------9-----------9-----------------|-9-----------------9-----------10----------------|
D|-------------------------------------------------|-------------------------------------------------|
A|-------------------------------------------------|-------------------------------------------------|
E|-------------------------------------------------|-------------------------------------------------|


E|-------------------------------------------------|-------------------------------------------------|
B|----8--11-8--11-8--------------------------------|----------8--11-10-8-----10-7-----7--10-7--10-7--|
G|-10----------------10-------------7--10-9--7-----|-7--9--10-------------9--------9-----------------|
D|-------------------------8--10-11-------------10-|-------------------------------------------------|
A|-------------------------------------------------|-------------------------------------------------|
E|-------------------------------------------------|-------------------------------------------------|


E|-------------------------------------------------|-------------------------------------------------|
B|----7--10-7--10-7-----7--10-7-----7--10-7--10-7--|----7--10-7--10-7-----7--11-8-----8--11-8--11-8--|
G|-9-----------------9-----------9-----------------|-9-----------------9-----------10----------------|
D|-------------------------------------------------|-------------------------------------------------|
A|-------------------------------------------------|-------------------------------------------------|
E|-------------------------------------------------|-------------------------------------------------|


E|-------------------------------------------------|-------------------------------|
B|----8--11-8--11-8--------11-10-8-----10-8--------|-8-----------------------------|
G|-10----------------10-------------10-------10-9--|----10-9--7--10-9--7-----------|
D|-------------------------------------------------|----------------------10-------|
A|-------------------------------------------------|-------------------------------|
E|-------------------------------------------------|-------------------------------|


E|--------|--------|--------|--------|--------|--------|--------|--------|--------|
B|--------|--------|--------|--------|--------|--------|--------|--------|--------|
G|--------|--------|--------|--------|--------|--------|--------|--------|--------|
D|--------|--------|--------|--------|--------|--------|--------|--------|--------|
A|--------|--------|--------|--------|--------|--------|--------|--------|--------|
E|--------|--------|--------|--------|--------|--------|--------|--------|--------|


E|--------|--------|--------|--------|--------|--------|--------|--------|--------|
B|--------|--------|--------|--------|--------|--------|--------|--------|--------|
G|--------|--------|--------|--------|--------|--------|--------|--------|--------|
D|--------|--------|--------|--------|--------|--------|--------|--------|--------|
A|--------|--------|--------|--------|--------|--------|--------|--------|--------|
E|--------|--------|--------|--------|--------|--------|--------|--------|--------|


E|--------|--------|--------|--------|--------|-------------------------------|-------------------------------------------------|
B|--------|--------|--------|--------|--------|-------22-19----19-22-19-22-19-|----19-22-19-22-19----19-22-19----19-22-19-22-19-|
G|--------|--------|--------|--------|--------|-------------21----------------|-21----------------21----------21----------------|
D|--------|--------|--------|--------|--------|-------------------------------|-------------------------------------------------|
A|--------|--------|--------|--------|--------|-------------------------------|-------------------------------------------------|
E|--------|--------|--------|--------|--------|-------------------------------|-------------------------------------------------|


E|-------------------------------------------------|-------------------------------------------------|
B|----19-22-19-22-19----19-23-20----20-23-20-23-20-|----20-23-20-23-20-------------------------------|
G|-21----------------21----------22----------------|-22----------------22-------------19-22-21-19----|
D|-------------------------------------------------|-------------------------20-22-23-------------22-|
A|-------------------------------------------------|-------------------------------------------------|
E|-------------------------------------------------|-------------------------------------------------|


E|-------------------------------------------------|-------------------------------------------------|
B|----------20-23-22-20----22-19----19-22-19-22-19-|----19-22-19-22-19----19-22-19----19-22-19-22-19-|
G|-19-21-22-------------21-------21----------------|-21----------------21----------21----------------|
D|-------------------------------------------------|-------------------------------------------------|
A|-------------------------------------------------|-------------------------------------------------|
E|-------------------------------------------------|-------------------------------------------------|


E|-------------------------------------------------|-------------------------------------------------|
B|----19-22-19-22-19----19-23-20----20-23-20-23-20-|----20-23-20-23-20-------23-22-20----22-20-------|
G|-21----------------21----------22----------------|-22----------------22-------------22-------22-21-|
D|-------------------------------------------------|-------------------------------------------------|
A|-------------------------------------------------|-------------------------------------------------|
E|-------------------------------------------------|-------------------------------------------------|


E|-------------------------------|-------------|--------|--------|--------|--------|
B|-20----------------------------|-------------|--------|--------|--------|--------|
G|----22-19-17-22-21-19----------|-------------|--------|--------|--------|--------|
D|----------------------22-20----|-------------|--------|--------|--------|--------|
A|-------------------------------|-------------|--------|--------|--------|--------|
E|-------------------------------|-------------|--------|--------|--------|--------|


E|--------|--------|--------|--------|--------|--------|--------|
B|--------|--------|--------|--------|--------|--------|--------|
G|--------|--------|--------|--------|--------|--------|--------|
D|--------|--------|--------|--------|--------|--------|--------|
A|--------|--------|--------|--------|--------|--------|--------|
E|--------|--------|--------|--------|--------|--------|--------|





Track 7: Untitled

G|--------|--------|--------|--------|--------|--------|--------|--------|--------|
D|--------|--------|--------|--------|--------|--------|--------|--------|--------|
A|--------|--------|--------|--------|--------|--------|--------|--------|--------|
E|--------|--------|--------|--------|--------|--------|--------|--------|--------|


G|--------|--------|--------|--------|--------|--------|--------|--------|--------|
D|--------|--------|--------|--------|--------|--------|--------|--------|--------|
A|--------|--------|--------|--------|--------|--------|--------|--------|--------|
E|--------|--------|--------|--------|--------|--------|--------|--------|--------|


G|--------|--------|--------|--------|--------|--------|--------|--------|--------|
D|--------|--------|--------|--------|--------|--------|--------|--------|--------|
A|--------|--------|--------|--------|--------|--------|--------|--------|--------|
E|--------|--------|--------|--------|--------|--------|--------|--------|--------|


G|--------|--------|--------|--------|--------|--------|--------|--------|--------|
D|--------|--------|--------|--------|--------|--------|--------|--------|--------|
A|--------|--------|--------|--------|--------|--------|--------|--------|--------|
E|--------|--------|--------|--------|--------|--------|--------|--------|--------|


G|--------|--------|--------|--------|--------|--------|--------|--------|--------|
D|--------|--------|--------|--------|--------|--------|--------|--------|--------|
A|--------|--------|--------|--------|--------|--------|--------|--------|--------|
E|--------|--------|--------|--------|--------|--------|--------|--------|--------|


G|--------|--------|--------|--------|--------|--------|--------|--------|--------|
D|--------|--------|--------|--------|--------|--------|--------|--------|--------|
A|--------|--------|--------|--------|--------|--------|--------|--------|--------|
E|--------|--------|--------|--------|--------|--------|--------|--------|--------|


G|--------|--------|--------|--------|--------|--------|--------|--------|--------|
D|--------|--------|--------|--------|--------|--------|--------|--------|--------|
A|--------|--------|--------|--------|--------|--------|--------|--------|--------|
E|--------|--------|--------|--------|--------|--------|--------|--------|--------|


G|--------|--------|--------|--------|--------|--------|--------|--------|--------|
D|--------|--------|--------|--------|--------|--------|--------|--------|--------|
A|--------|--------|--------|--------|--------|--------|--------|--------|--------|
E|--------|--------|--------|--------|--------|--------|--------|--------|--------|


G|--------|--------|--------|--------|--------|--------|--------|--------|--------|
D|--------|--------|--------|--------|--------|--------|--------|--------|--------|
A|--------|--------|--------|--------|--------|--------|--------|--------|--------|
E|--------|--------|--------|--------|--------|--------|--------|--------|--------|


G|--------|--------|--------|--------|--------|--------|--------|--------|--------|
D|--------|--------|--------|--------|--------|--------|--------|--------|--------|
A|--------|--------|--------|--------|--------|--------|--------|--------|--------|
E|--------|--------|--------|--------|--------|--------|--------|--------|--------|


G|--------|--------|--------|--------|--------|--------|--------|--------|--------|
D|--------|--------|--------|--------|--------|--------|--------|--------|--------|
A|--------|--------|--------|--------|--------|--------|--------|--------|--------|
E|--------|--------|--------|--------|--------|--------|--------|--------|--------|


G|--------|--------|--------|--------|--------|--------|--------|--------|--------|
D|--------|--------|--------|--------|--------|--------|--------|--------|--------|
A|--------|--------|--------|--------|--------|--------|--------|--------|--------|
E|--------|--------|--------|--------|--------|--------|--------|--------|--------|


G|--------|--------|--------|--------|--------|--------|--------|--------|--------|
D|--------|--------|--------|--------|--------|--------|--------|--------|--------|
A|--------|--------|--------|--------|--------|--------|--------|--------|--------|
E|--------|--------|--------|--------|--------|--------|--------|--------|--------|


G|--------|--------|--------|--------|--------|--------|--------|--------|--------|
D|--------|--------|--------|--------|--------|--------|--------|--------|--------|
A|--------|--------|--------|--------|--------|--------|--------|--------|--------|
E|--------|--------|--------|--------|--------|--------|--------|--------|--------|


G|--------|--------|--------|--------|--------|--------|--------|--------|--------|
D|--------|--------|--------|--------|--------|--------|--------|--------|--------|
A|--------|--------|--------|--------|--------|--------|--------|--------|--------|
E|--------|--------|--------|--------|--------|--------|--------|--------|--------|


G|--------|--------|--------|--------|--------|--------|--------|--------|--------|
D|--------|--------|--------|--------|--------|--------|--------|--------|--------|
A|--------|--------|--------|--------|--------|--------|--------|--------|--------|
E|--------|--------|--------|--------|--------|--------|--------|--------|--------|


G|--------|--------|--------|--------|--------|--------|--------|--------|--------|
D|--------|--------|--------|--------|--------|--------|--------|--------|--------|
A|--------|--------|--------|--------|--------|--------|--------|--------|--------|
E|--------|--------|--------|--------|--------|--------|--------|--------|--------|


G|--------|--------|--------|--------|--------|--------|--------|--------|--------|
D|--------|--------|--------|--------|--------|--------|--------|--------|--------|
A|--------|--------|--------|--------|--------|--------|--------|--------|--------|
E|--------|--------|--------|--------|--------|--------|--------|--------|--------|


G|--------|--------|--------|--------|--------|--------|
D|--------|--------|--------|--------|--------|--------|
A|--------|--------|--------|--------|--------|--------|
E|--------|--------|--------|--------|--------|--------|