Menu:

 

Search:

 

megadeth - psychotron:

 



Title: Psychotron
Artist: 
Album: Countdown To Extinction
Author: Dave Mustaine


Track 1: Rhythm Guitar

E|---------------------|---------------------------------|---------------------|---------------------------------|
B|---------------------|---------------------------------|---------------------|---------------------------------|
G|---------------------|---------------------------------|---------------------|---------------------------------|
D|------9----9---------|---------------------------------|------9----9---------|---------------------------------|
A|------7----7---9-----|-9---10------5---5---------------|------7----7---9-----|-9---10------5---5-------9---8---|
E|-0-------------7-----|-7---8---0---3---3---0---2---1---|-0-------------7-----|-7---8---0---3---3---0-----------|


E|---------------------|---------------------------------|---------------------|---------------------------------|
B|---------------------|---------------------------------|---------------------|---------------------------------|
G|---------------------|---------------------------------|---------------------|---------------------------------|
D|------9----9---------|---------------------------------|------9----9---------|---------------------------------|
A|-7----7----7---9-----|-9---10------5---5---------------|------7----7---9-----|-9---10------5---5-------9---8---|
E|---------------7-----|-7---8---0---3---3---0---2---1---|-0-------------7-----|-7---8---0---3---3---0-----------|


E|--------------------------------------|------------------------------------|--------------------------------------|
B|--------------------------------------|------------------------------------|--------------------------------------|
G|--------------------------------------|------------------------------------|--------------------------------------|
D|--------------------------------------|------------------------------------|--------------------------------------|
A|-7---------2----2--2--2---3--3--3--5--|-6---2--2--2----2--2--2---3--3--3---|-3---2--2--2----2--2--2---3--3--3--5--|
E|-----0--0--0----0--0--0---1--1--1--3--|-4---0--0--0----0--0--0---1--1--1---|-1---0--0--0----0--0--0---1--1--1--3--|


E|----------------------------------|--------------------------------------|------------------------------------|
B|----------------------------------|--------------------------------------|------------------------------------|
G|----------------------------------|--------------------------------------|------------------------------------|
D|----------------------------------|--------------------------------------|------------------------------------|
A|-6---2--2--2----2--2--3-------3---|-----2--2--2----2--2--2---3--3--3--5--|-6---2--2--2----2--2--2---3--3--3---|
E|-4---0--0--0----0--0--1-------1---|-0---0--0--0----0--0--0---1--1--1--3--|-4---0--0--0----0--0--0---1--1--1---|


E|--------------------------------------|------------------|-----------------|------------------------------|
B|--------------------------------------|------------------|-----------------|------------------------------|
G|--------------------------------------|------------------|-----------------|------------------------------|
D|--------------------------------------|------------------|-----------------|---------2-----------3----0---|
A|-3---2--2--2----2--2--2---3--3--3--5--|-6---2--2--3------|-3-----3-----3---|---------2-----------3----0---|
E|-1---0--0--0----0--0--0---1--1--1--3--|-4---0--0--1------|-1-----1-----1---|-0---0-------0---0------------|


E|------------------------------|------------------------------|---------------------------------|
B|------------------------------|------------------------------|---------------------------------|
G|------------------------------|--------------------------4---|-4---2---------------------------|
D|---------5-----------6----3---|---------2-----------3----2---|-2---0---5---4---3---2---2---3---|
A|---------5-----------6----3---|---------2-----------3--------|---------3---2---0-------0---1---|
E|-0---0-------0---0------------|-0---0-------0---0------------|---------------------3-----------|


E|------------------------------|------------------------------|------------------------------|
B|------------------------------|------------------------------|------------------------------|
G|------------------------------|------------------------------|------------------------------|
D|---------2-----------3----0---|---------5-----------6----3---|---------2-----------3----1---|
A|---------2-----------3----0---|---------5-----------6----3---|---------2-----------3----2---|
E|-0---0-------0---0------------|-0---0-------0---0------------|-0---0-------0---0------------|


E|---------------------------------|------------------------------|------------------------------|
B|---------------------------------|------------------------------|------------------------------|
G|---------------------------------|------------------------------|------------------------------|
D|-1---0---2---1---4---2---4---5---|---------2-----------3----0---|---------5-----------6----3---|
A|-2---0---3---2---5---3---2---3---|---------2-----------3----0---|---------5-----------6----3---|
E|---------------------------------|-0---0-------0---0------------|-0---0-------0---0------------|


E|------------------------------|---------------------------------|------------------------------|
B|------------------------------|---------------------------------|------------------------------|
G|--------------------------4---|-4---2---------------------------|------------------------------|
D|---------2-----------3----2---|-2---0---5---4---3---2---2---3---|---------2-----------3----0---|
A|---------2-----------3--------|---------3---2---0-------0---1---|---------2-----------3----0---|
E|-0---0-------0---0------------|---------------------3-----------|-0---0-------0---0------------|


E|------------------------------|------------------------------|---------------------------------|
B|------------------------------|------------------------------|---------------------------------|
G|------------------------------|------------------------------|---------------------------------|
D|---------5-----------6----3---|---------2-----------3----1---|-1---0---2---1---4---2---4---5---|
A|---------5-----------6----3---|---------2-----------3----2---|-2---0---3---2---5---3---2---3---|
E|-0---0-------0---0------------|-0---0-------0---0------------|---------------------------------|


E|---------------------------|---------------------------|---------------------------|
B|---------------------------|---------------------------|---------------------------|
G|---------------------------|---------------------------|---------------------------|
D|-----------------9----9----|-----------------9----9----|-----------------9---------|
A|-----------------7----7----|-----------------7----7----|-----------------7----5----|
E|-0---0-------0-------------|-0---0-------0-------------|-0---0-------0--------3----|


E|-------------|---------------------|---------------------------------|---------------------|
B|-------------|---------------------|---------------------------------|---------------------|
G|-------------|---------------------|---------------------------------|---------------------|
D|-------------|------9----9---------|---------------------------------|------9----9---------|
A|-5------3----|------7----7---9-----|-9---10------5---5---------------|------7----7---9-----|
E|-3------1----|-0-------------7-----|-7---8---0---3---3---0---2---1---|-0-------------7-----|


E|---------------------------------|---------------------|---------------------------------|
B|---------------------------------|---------------------|---------------------------------|
G|---------------------------------|---------------------|---------------------------------|
D|---------------------------------|------9----9---------|---------------------------------|
A|-9---10------5---5-------9---8---|-7----7----7---9-----|-9---10------5---5---------------|
E|-7---8---0---3---3---0-----------|---------------7-----|-7---8---0---3---3---0---2---1---|


E|---------------------|---------------------------------|---------------------------------|
B|---------------------|---------------------------------|---------------------------------|
G|---------------------|---------------------------------|---------------------------------|
D|------9----9---------|-4---5---------------------------|-2---0-----------0---------------|
A|------7----7---9-----|-2---3---3---3---3---3---3---3---|-3---2---3---2---2---3---2---0---|
E|-0-------------7-----|---------------------------------|---------5---3-------5---3---1---|


E|------------------------------|------------------------------|------------------------------|
B|------------------------------|------------------------------|------------------------------|
G|------------------------------|------------------------------|--------------------------4---|
D|---------2-----------3----0---|---------5-----------6----3---|---------2-----------3----2---|
A|---------2-----------3----0---|---------5-----------6----3---|---------2-----------3--------|
E|-0---0-------0---0------------|-0---0-------0---0------------|-0---0-------0---0------------|


E|---------------------------------|------------------------------|------------------------------|
B|---------------------------------|------------------------------|------------------------------|
G|-4---2---------------------------|------------------------------|------------------------------|
D|-2---0---5---4---3---2---2---3---|---------2-----------3----0---|---------5-----------6----3---|
A|---------3---2---0-------0---1---|---------2-----------3----0---|---------5-----------6----3---|
E|---------------------3-----------|-0---0-------0---0------------|-0---0-------0---0------------|


E|------------------------------|---------------------------------|------------------------------|
B|------------------------------|---------------------------------|------------------------------|
G|------------------------------|---------------------------------|------------------------------|
D|---------2-----------3----1---|-1---0---2---1---4---2---4---5---|---------2-----------3----0---|
A|---------2-----------3----2---|-2---0---3---2---5---3---2---3---|---------2-----------3----0---|
E|-0---0-------0---0------------|---------------------------------|-0---0-------0---0------------|


E|------------------------------|------------------------------|---------------------------------|
B|------------------------------|------------------------------|---------------------------------|
G|------------------------------|--------------------------4---|-4---2---------------------------|
D|---------5-----------6----3---|---------2-----------3----2---|-2---0---5---4---3---2---2---3---|
A|---------5-----------6----3---|---------2-----------3--------|---------3---2---0-------0---1---|
E|-0---0-------0---0------------|-0---0-------0---0------------|---------------------3-----------|


E|------------------------------|------------------------------|------------------------------|
B|------------------------------|------------------------------|------------------------------|
G|------------------------------|------------------------------|------------------------------|
D|---------2-----------3----0---|---------5-----------6----3---|---------2-----------3----1---|
A|---------2-----------3----0---|---------5-----------6----3---|---------2-----------3----2---|
E|-0---0-------0---0------------|-0---0-------0---0------------|-0---0-------0---0------------|


E|---------------------------------|---------------------------|---------------------------|
B|---------------------------------|---------------------------|---------------------------|
G|---------------------------------|---------------------------|---------------------------|
D|-1---0---2---1---4---2---4---5---|-----------------9----9----|-----------------9----9----|
A|-2---0---3---2---5---3---2---3---|-----------------7----7----|-----------------7----7----|
E|---------------------------------|-0---0-------0-------------|-0---0-------0-------------|


E|---------------------------|-------------|---------------------|---------------------------------|
B|---------------------------|-------------|---------------------|---------------------------------|
G|---------------------------|-------------|---------------------|---------------------------------|
D|-----------------9---------|-------------|------9----9---------|---------------------------------|
A|-----------------7----5----|-5------3----|------7----7---9-----|-9---10------5---5---------------|
E|-0---0-------0--------3----|-3------1----|-0-------------7-----|-7---8---0---3---3---0---2---1---|


E|---------------------|---------------------------------|---------------------|---------------------------------|
B|---------------------|---------------------------------|---------------------|---------------------------------|
G|---------------------|---------------------------------|---------------------|---------------------------------|
D|------9----9---------|---------------------------------|------9----9---------|---------------------------------|
A|------7----7---9-----|-9---10------5---5-------9---8---|-7----7----7---9-----|-9---10------5---5---------------|
E|-0-------------7-----|-7---8---0---3---3---0-----------|---------------7-----|-7---8---0---3---3---0---2---1---|


E|---------------------|---------------------------------|---------------------------------|
B|---------------------|---------------------------------|---------------------------------|
G|---------------------|---------------------------------|---------------------------------|
D|------9----9---------|-4---5---------------------------|-2---0-----------0---------------|
A|------7----7---9-----|-2---3---3---3---3---3---3---3---|-3---2---3---2---2---3---2---0---|
E|-0-------------7-----|---------------------------------|---------5---3-------5---3---1---|


E|---------------------|---------------------------------|---------------------|---------------------------------|
B|---------------------|---------------------------------|---------------------|---------------------------------|
G|---------------------|---------------------------------|---------------------|---------------------------------|
D|------9----9---------|---------------------------------|------9----9---------|---------------------------------|
A|------7----7---9-----|-9---10------5---5---------------|------7----7---9-----|-9---10------5---5-------9---8---|
E|-0-------------7-----|-7---8---0---3---3---0---2---1---|-0-------------7-----|-7---8---0---3---3---0-----------|


E|---------------------|---------------------------------|---------------------|---------------------------------|
B|---------------------|---------------------------------|---------------------|---------------------------------|
G|---------------------|---------------------------------|---------------------|---------------------------------|
D|------9----9---------|---------------------------------|------9----9---------|-4---5---------------------------|
A|-7----7----7---9-----|-9---10------5---5---------------|------7----7---9-----|-2---3---3---3---3---3---3---3---|
E|---------------7-----|-7---8---0---3---3---0---2---1---|-0-------------7-----|---------------------------------|


E|---------------------------------|----------------------------------|----------------------------------|
B|---------------------------------|----------------------------------|----------------------------------|
G|---------------------------------|----------------------------------|----------------------------------|
D|-2---0-----------0---------------|------------------------------2---|----------------------------------|
A|-3---2---3---2---2---3---2---0---|-----4--4--4----4--4--4-------0---|-4---4--4--4----4--4--4-------5---|
E|---------5---3-------5---3---1---|-----2--2--2----2--2--2-----------|-2---2--2--2----2--2--2-------3---|


E|----------------------------------|-----------------------------|----------------------------------|
B|----------------------------------|-----------------------------|----------------------------------|
G|----------------------------------|-----------------------------|----------------------------------|
D|------------------------------2---|-----------------------------|------------------------------2---|
A|-4---4--4--4----4--4--4-------0---|-4---4--4--4----4---5----5---|-4---4--4--4----4--4--4-------0---|
E|-2---2--2--2----2--2--2-----------|-2---2--2--2----2---3----3---|-2---2--2--2----2--2--2-----------|


E|----------------------------------|----------------------------------|------------------|
B|----------------------------------|----------------------------------|------------------|
G|----------------------------------|----------------------------------|------------------|
D|----------------------------------|------------------------------2---|------------------|
A|-4---4--4--4----4--4--4-------5---|-4---4--4--4----4--4--4-------0---|-4---4--4--5------|
E|-2---2--2--2----2--2--2-------3---|-2---2--2--2----2--2--2-----------|-2---2--2--3------|


E|-----------------|------------------------------|------------------------------|
B|-----------------|------------------------------|------------------------------|
G|-----------------|------------------------------|------------------------------|
D|-----------------|---------2-----------3----0---|---------5-----------6----3---|
A|-5-----5-----3---|---------2-----------3----0---|---------5-----------6----3---|
E|-3-----3-----1---|-0---0-------0---0------------|-0---0-------0---0------------|


E|------------------------------|---------------------------------|------------------------------|
B|------------------------------|---------------------------------|------------------------------|
G|--------------------------4---|-4---2---------------------------|------------------------------|
D|---------2-----------3----2---|-2---0---5---4---3---2---2---3---|---------2-----------3----0---|
A|---------2-----------3--------|---------3---2---0-------0---1---|---------2-----------3----0---|
E|-0---0-------0---0------------|---------------------3-----------|-0---0-------0---0------------|


E|------------------------------|------------------------------|---------------------------------|
B|------------------------------|------------------------------|---------------------------------|
G|------------------------------|------------------------------|---------------------------------|
D|---------5-----------6----3---|---------2-----------3----1---|-1---0---2---1---4---2---4---5---|
A|---------5-----------6----3---|---------2-----------3----2---|-2---0---3---2---5---3---2---3---|
E|-0---0-------0---0------------|-0---0-------0---0------------|---------------------------------|


E|------------------------------|------------------------------|------------------------------|
B|------------------------------|------------------------------|------------------------------|
G|------------------------------|------------------------------|--------------------------4---|
D|---------2-----------3----0---|---------5-----------6----3---|---------2-----------3----2---|
A|---------2-----------3----0---|---------5-----------6----3---|---------2-----------3--------|
E|-0---0-------0---0------------|-0---0-------0---0------------|-0---0-------0---0------------|


E|---------------------------------|------------------------------|------------------------------|
B|---------------------------------|------------------------------|------------------------------|
G|-4---2---------------------------|------------------------------|------------------------------|
D|-2---0---5---4---3---2---2---3---|---------2-----------3----0---|---------5-----------6----3---|
A|---------3---2---0-------0---1---|---------2-----------3----0---|---------5-----------6----3---|
E|---------------------3-----------|-0---0-------0---0------------|-0---0-------0---0------------|


E|------------------------------|-------------|--------|--------|--------|--------|
B|------------------------------|-------------|--------|--------|--------|--------|
G|------------------------------|-------------|--------|--------|--------|--------|
D|---------2-----------3--------|-------------|--------|--------|--------|--------|
A|---------2-----------3----5---|-5------3----|--------|--------|--------|--------|
E|-0---0-------0---0--------3---|-3------1----|--------|--------|--------|--------|


E|--------|--------|--------|--------|--------|----------------------------------|
B|--------|--------|--------|--------|--------|----------------------------------|
G|--------|--------|--------|--------|--------|----------------------------------|
D|--------|--------|--------|--------|--------|----------------------------------|
A|--------|--------|--------|--------|--------|-2--2--2----2--2--2-------5---2---|
E|--------|--------|--------|--------|--------|-0--0--0----0--0--0-------3---0---|


E|----------------------------------|----------------------------------|-----------------------------|
B|----------------------------------|----------------------------------|-----------------------------|
G|----------------------------------|----------------------------------|-----------------------------|
D|----------------------------------|----------------------------------|-----------------------------|
A|-2--2--2----2--2--2---2---3---3---|-2--2--2----2--2--2-------5---2---|-2--2--2----2---3----3-------|
E|-0--0--0----0--0--0---0---1---1---|-0--0--0----0--0--0-------3---0---|-0--0--0----0---1----1-------|


E|--------|--------|--------|--------|--------|--------|--------|--------|----------------|
B|--------|--------|--------|--------|--------|--------|--------|--------|----------------|
G|--------|--------|--------|--------|--------|--------|--------|--------|----------------|
D|--------|--------|--------|--------|--------|--------|--------|--------|----------------|
A|--------|--------|--------|--------|--------|--------|--------|--------|----------------|
E|--------|--------|--------|--------|--------|--------|--------|--------|----------------|


E|----------------------------------|----------------------------------|----------------------------------|
B|----------------------------------|----------------------------------|----------------------------------|
G|----------------------------------|----------------------------------|----------------------------------|
D|--------------------------2-------|----------------------------------|--------------------------2-------|
A|-4--4--4----4--4--4-------0---4---|-4--4--4----4--4--4-------5---4---|-4--4--4----4--4--4-------0---4---|
E|-2--2--2----2--2--2-----------2---|-2--2--2----2--2--2-------3---2---|-2--2--2----2--2--2-----------2---|


E|-----------------------------|----------------------------------|----------------------------------|
B|-----------------------------|----------------------------------|----------------------------------|
G|-----------------------------|----------------------------------|----------------------------------|
D|-----------------------------|--------------------------2-------|----------------------------------|
A|-4--4--4----4---5----5---4---|-4--4--4----4--4--4-------0---4---|-4--4--4----4--4--4-------5---4---|
E|-2--2--2----2---3----3---2---|-2--2--2----2--2--2-----------2---|-2--2--2----2--2--2-------3---2---|


E|----------------------------------|------------------|---------------------|------------------------------|
B|----------------------------------|------------------|---------------------|------------------------------|
G|----------------------------------|------------------|---------------------|------------------------------|
D|--------------------------2-------|------------------|---------------------|-----2-----------3----0-------|
A|-4--4--4----4--4--4-------0---4---|-4--4--5------5---|-------5-----3-------|-----2-----------3----0-------|
E|-2--2--2----2--2--2-----------2---|-2--2--3------3---|-------3-----1---0---|-0-------0---0------------0---|


E|------------------------------|------------------------------|---------------------------------|
B|------------------------------|------------------------------|---------------------------------|
G|------------------------------|----------------------4---4---|-2-------------------------------|
D|-----5-----------6----3-------|-----2-----------3----2---2---|-0---5---4---3---2---2---3-------|
A|-----5-----------6----3-------|-----2-----------3------------|-----3---2---0-------0---1-------|
E|-0-------0---0------------0---|-0-------0---0----------------|-----------------3-----------0---|


E|------------------------------|------------------------------|------------------------------|
B|------------------------------|------------------------------|------------------------------|
G|------------------------------|------------------------------|------------------------------|
D|-----2-----------3----0-------|-----5-----------6----3-------|-----2-----------3----1---1---|
A|-----2-----------3----0-------|-----5-----------6----3-------|-----2-----------3----2---2---|
E|-0-------0---0------------0---|-0-------0---0------------0---|-0-------0---0----------------|


E|---------------------------------|------------------------------|------------------------------|
B|---------------------------------|------------------------------|------------------------------|
G|---------------------------------|------------------------------|------------------------------|
D|-0---2---1---4---2---4---5-------|-----2-----------3----0-------|-----5-----------6----3-------|
A|-0---3---2---5---3---2---3-------|-----2-----------3----0-------|-----5-----------6----3-------|
E|-----------------------------0---|-0-------0---0------------0---|-0-------0---0------------0---|


E|------------------------------|---------------------------------|------------------------------|
B|------------------------------|---------------------------------|------------------------------|
G|----------------------4---4---|-2-------------------------------|------------------------------|
D|-----2-----------3----2---2---|-0---5---4---3---2---2---3-------|-----2-----------3----0-------|
A|-----2-----------3------------|-----3---2---0-------0---1-------|-----2-----------3----0-------|
E|-0-------0---0----------------|-----------------3-----------0---|-0-------0---0------------0---|


E|------------------------------|------------------------------|--------------------|
B|------------------------------|------------------------------|--------------------|
G|------------------------------|------------------------------|--------------------|
D|-----5-----------6----3-------|-----2-----------3------------|--------------------|
A|-----5-----------6----3-------|-----2-----------3----5---5---|-----------3----2---|
E|-0-------0---0------------0---|-0-------0---0--------3---3---|-----------1----0---|


E|----------------------------------|----------------------------------|----------------------------------|
B|----------------------------------|----------------------------------|----------------------------------|
G|----------------------------------|----------------------------------|----------------------------------|
D|----------------------------------|----------------------------------|----------------------------------|
A|-2--2--2----2--2--2-------5---2---|-2--2--2----2--2--2---2---3---3---|-2--2--2----2--2--2-------5---2---|
E|-0--0--0----0--0--0-------3---0---|-0--0--0----0--0--0---0---1---1---|-0--0--0----0--0--0-------3---0---|


E|-----------------------------|----------------------------------|----------------------------------|
B|-----------------------------|----------------------------------|----------------------------------|
G|-----------------------------|----------------------------------|----------------------------------|
D|-----------------------------|----------------------------------|----------------------------------|
A|-2--2--2----2---3----3---2---|-2--2--2----2--2--2-------5---2---|-2--2--2----2--2--2---2---3---3---|
E|-0--0--0----0---1----1---0---|-0--0--0----0--0--0-------3---0---|-0--0--0----0--0--0---0---1---1---|


E|----------------------------------|-----------------------------|-----------------------------|
B|----------------------------------|-----------------------------|-----------------------------|
G|----------------------------------|-----------------------------|-----------------------------|
D|----------------------------------|-----------------------------|---------------------2-------|
A|-2--2--2----2--2--2-------5---2---|-2--2--2----2---3----3---2---|-2--2--3----3---5----0---2---|
E|-0--0--0----0--0--0-------3---0---|-0--0--0----0---1----1---0---|-0--0--1----1---3--------0---|


E|--------------------|
B|--------------------|
G|--------------------|
D|--------------------|
A|--------------------|
E|--------------------|





Track 2: Rhythm Guitar

E|--------|--------|--------|--------|--------|--------|--------|--------|--------|
B|--------|--------|--------|--------|--------|--------|--------|--------|--------|
G|--------|--------|--------|--------|--------|--------|--------|--------|--------|
D|--------|--------|--------|--------|--------|--------|--------|--------|--------|
A|--------|--------|--------|--------|--------|--------|--------|--------|--------|
E|--------|--------|--------|--------|--------|--------|--------|--------|--------|


E|--------|--------|--------|--------|--------|--------|--------|--------|--------|
B|--------|--------|--------|--------|--------|--------|--------|--------|--------|
G|--------|--------|--------|--------|--------|--------|--------|--------|--------|
D|--------|--------|--------|--------|--------|--------|--------|--------|--------|
A|--------|--------|--------|--------|--------|--------|--------|--------|--------|
E|--------|--------|--------|--------|--------|--------|--------|--------|--------|


E|--------|--------|--------|--------|--------|--------|--------|--------|--------|
B|--------|--------|--------|--------|--------|--------|--------|--------|--------|
G|--------|--------|--------|--------|--------|--------|--------|--------|--------|
D|--------|--------|--------|--------|--------|--------|--------|--------|--------|
A|--------|--------|--------|--------|--------|--------|--------|--------|--------|
E|--------|--------|--------|--------|--------|--------|--------|--------|--------|


E|--------|--------|--------|--------|--------|--------|--------|--------|--------|
B|--------|--------|--------|--------|--------|--------|--------|--------|--------|
G|--------|--------|--------|--------|--------|--------|--------|--------|--------|
D|--------|--------|--------|--------|--------|--------|--------|--------|--------|
A|--------|--------|--------|--------|--------|--------|--------|--------|--------|
E|--------|--------|--------|--------|--------|--------|--------|--------|--------|


E|--------|--------|--------|--------|--------|--------|--------|--------|--------|
B|--------|--------|--------|--------|--------|--------|--------|--------|--------|
G|--------|--------|--------|--------|--------|--------|--------|--------|--------|
D|--------|--------|--------|--------|--------|--------|--------|--------|--------|
A|--------|--------|--------|--------|--------|--------|--------|--------|--------|
E|--------|--------|--------|--------|--------|--------|--------|--------|--------|


E|--------|--------|--------|--------|--------|--------|--------|--------|--------|
B|--------|--------|--------|--------|--------|--------|--------|--------|--------|
G|--------|--------|--------|--------|--------|--------|--------|--------|--------|
D|--------|--------|--------|--------|--------|--------|--------|--------|--------|
A|--------|--------|--------|--------|--------|--------|--------|--------|--------|
E|--------|--------|--------|--------|--------|--------|--------|--------|--------|


E|--------|--------|--------|--------|--------|--------|--------|--------|--------|
B|--------|--------|--------|--------|--------|--------|--------|--------|--------|
G|--------|--------|--------|--------|--------|--------|--------|--------|--------|
D|--------|--------|--------|--------|--------|--------|--------|--------|--------|
A|--------|--------|--------|--------|--------|--------|--------|--------|--------|
E|--------|--------|--------|--------|--------|--------|--------|--------|--------|


E|--------|--------|--------|--------|--------|--------|--------|--------|--------|
B|--------|--------|--------|--------|--------|--------|--------|--------|--------|
G|--------|--------|--------|--------|--------|--------|--------|--------|--------|
D|--------|--------|--------|--------|--------|--------|--------|--------|--------|
A|--------|--------|--------|--------|--------|--------|--------|--------|--------|
E|--------|--------|--------|--------|--------|--------|--------|--------|--------|


E|--------|--------|--------|--------|--------|--------|--------|--------|--------|
B|--------|--------|--------|--------|--------|--------|--------|--------|--------|
G|--------|--------|--------|--------|--------|--------|--------|--------|--------|
D|--------|--------|--------|--------|--------|--------|--------|--------|--------|
A|--------|--------|--------|--------|--------|--------|--------|--------|--------|
E|--------|--------|--------|--------|--------|--------|--------|--------|--------|


E|--------|--------|--------|--------|--------|--------|--------|--------|--------|
B|--------|--------|--------|--------|--------|--------|--------|--------|--------|
G|--------|--------|--------|--------|--------|--------|--------|--------|--------|
D|--------|--------|--------|--------|--------|--------|--------|--------|--------|
A|--------|--------|--------|--------|--------|--------|--------|--------|--------|
E|--------|--------|--------|--------|--------|--------|--------|--------|--------|


E|--------|--------|--------|--------|--------|--------|--------|--------|--------|
B|--------|--------|--------|--------|--------|--------|--------|--------|--------|
G|--------|--------|--------|--------|--------|--------|--------|--------|--------|
D|--------|--------|--------|--------|--------|--------|--------|--------|--------|
A|--------|--------|--------|--------|--------|--------|--------|--------|--------|
E|--------|--------|--------|--------|--------|--------|--------|--------|--------|


E|--------|--------|--------|--------|--------|--------|--------|--------|--------|
B|--------|--------|--------|--------|--------|--------|--------|--------|--------|
G|--------|--------|--------|--------|--------|--------|--------|--------|--------|
D|--------|--------|--------|--------|--------|--------|--------|--------|--------|
A|--------|--------|--------|--------|--------|--------|--------|--------|--------|
E|--------|--------|--------|--------|--------|--------|--------|--------|--------|


E|--------|--------|--------|--------|--------|--------|--------|--------|--------|
B|--------|--------|--------|--------|--------|--------|--------|--------|--------|
G|--------|--------|--------|--------|--------|--------|--------|--------|--------|
D|--------|--------|--------|--------|--------|--------|--------|--------|--------|
A|--------|--------|--------|--------|--------|--------|--------|--------|--------|
E|--------|--------|--------|--------|--------|--------|--------|--------|--------|


E|--------|--------|--------|--------|--------|--------|--------|--------|--------|
B|--------|--------|--------|--------|--------|--------|--------|--------|--------|
G|--------|--------|--------|--------|--------|--------|--------|--------|--------|
D|--------|--------|--------|--------|--------|--------|--------|--------|--------|
A|--------|--------|--------|--------|--------|--------|--------|--------|--------|
E|--------|--------|--------|--------|--------|--------|--------|--------|--------|


E|--------|--------|--------|--------|--------|--------|--------|--------|--------|
B|--------|--------|--------|--------|--------|--------|--------|--------|--------|
G|--------|--------|--------|--------|--------|--------|--------|--------|--------|
D|--------|--------|--------|--------|--------|--------|--------|--------|--------|
A|--------|--------|--------|--------|--------|--------|--------|--------|--------|
E|--------|--------|--------|--------|--------|--------|--------|--------|--------|


E|--------|--------|--------|--------|--------|--------|--------|--------|--------|
B|--------|--------|--------|--------|--------|--------|--------|--------|--------|
G|--------|--------|--------|--------|--------|--------|--------|--------|--------|
D|--------|--------|--------|--------|--------|--------|--------|--------|--------|
A|--------|--------|--------|--------|--------|--------|--------|--------|--------|
E|--------|--------|--------|--------|--------|--------|--------|--------|--------|


E|--------|--------|--------|--------|--------|--------|--------|--------|--------|
B|--------|--------|--------|--------|--------|--------|--------|--------|--------|
G|--------|--------|--------|--------|--------|--------|--------|--------|--------|
D|--------|--------|--------|--------|--------|--------|--------|--------|--------|
A|--------|--------|--------|--------|--------|--------|--------|--------|--------|
E|--------|--------|--------|--------|--------|--------|--------|--------|--------|


E|--------|--------|--------|--------|--------|--------|--------|--------|--------|
B|--------|--------|--------|--------|--------|--------|--------|--------|--------|
G|--------|--------|--------|--------|--------|--------|--------|--------|--------|
D|--------|--------|--------|--------|--------|--------|--------|--------|--------|
A|--------|--------|--------|--------|--------|--------|--------|--------|--------|
E|--------|--------|--------|--------|--------|--------|--------|--------|--------|


E|--------|--------|--------|--------|
B|--------|--------|--------|--------|
G|--------|--------|--------|--------|
D|--------|--------|--------|--------|
A|--------|--------|--------|--------|
E|--------|--------|--------|--------|





Track 3: Solo Guitar

E|--------|--------|--------|--------|--------|--------|--------|--------|--------|
B|--------|--------|--------|--------|--------|--------|--------|--------|--------|
G|--------|--------|--------|--------|--------|--------|--------|--------|--------|
D|--------|--------|--------|--------|--------|--------|--------|--------|--------|
A|--------|--------|--------|--------|--------|--------|--------|--------|--------|
E|--------|--------|--------|--------|--------|--------|--------|--------|--------|


E|--------|--------|--------|--------|--------|--------|--------|--------|--------|
B|--------|--------|--------|--------|--------|--------|--------|--------|--------|
G|--------|--------|--------|--------|--------|--------|--------|--------|--------|
D|--------|--------|--------|--------|--------|--------|--------|--------|--------|
A|--------|--------|--------|--------|--------|--------|--------|--------|--------|
E|--------|--------|--------|--------|--------|--------|--------|--------|--------|


E|--------|--------|--------|------------------------|------------------------|---------------------------------------|
B|--------|--------|--------|-5----8----7---10--10---|-8----5----8---7---7----|---------------------------------------|
G|--------|--------|--------|-4----7----6---9---9----|-7----4----7---6---6----|-9----7--------------------------------|
D|--------|--------|--------|------------------------|------------------------|---------9--7--------8---7---------7---|
A|--------|--------|--------|------------------------|------------------------|---------------10-7----------7--5------|
E|--------|--------|--------|------------------------|------------------------|---------------------------------------|


E|-------------|--------|--------|--------|--------------------|-------------------------------------------------|
B|-------------|--------|--------|--------|--------------------|-------------------------------------------------|
G|-------------|--------|--------|--------|--------------------|---------14------15--------------16------18--17--|
D|-7------7----|--------|--------|--------|--------------------|-----13--------------14------15------------------|
A|-------------|--------|--------|--------|-----------------13-|-12----------13----------14----------15----------|
E|-------------|--------|--------|--------|--------------------|-------------------------------------------------|


E|-------------------------------|-----------------------------------------------------|
B|-----15--16--15--16------------|-------------17--16--15----15--15--------------------|
G|-18------------------17--17----|-17--16--14-------------16--------16-15-14-12-14-12--|
D|-------------------------------|-----------------------------------------------------|
A|-------------------------------|-----------------------------------------------------|
E|-------------------------------|-----------------------------------------------------|


E|---------------------|--------|--------|--------|--------|--------|--------|--------|
B|---------------------|--------|--------|--------|--------|--------|--------|--------|
G|-12----12--12---12---|--------|--------|--------|--------|--------|--------|--------|
D|---------------------|--------|--------|--------|--------|--------|--------|--------|
A|---------------------|--------|--------|--------|--------|--------|--------|--------|
E|---------------------|--------|--------|--------|--------|--------|--------|--------|


E|--------|--------|--------|--------|--------|--------|--------|--------|--------|
B|--------|--------|--------|--------|--------|--------|--------|--------|--------|
G|--------|--------|--------|--------|--------|--------|--------|--------|--------|
D|--------|--------|--------|--------|--------|--------|--------|--------|--------|
A|--------|--------|--------|--------|--------|--------|--------|--------|--------|
E|--------|--------|--------|--------|--------|--------|--------|--------|--------|


E|----------------17-17---|-15-------17----15-------17---15-------|-17---17---17---15--------------|
B|-------------15---------|----17-15----------17-15---------17-15-|-------------------17---17------|
G|-16-------16------------|---------------------------------------|----------------------------14--|
D|------------------------|---------------------------------------|--------------------------------|
A|------------------------|---------------------------------------|--------------------------------|
E|------------------------|---------------------------------------|--------------------------------|


E|-12----------12--------------------------|--------------------------------|--------|
B|----12-15-15----15-12--------------------|--------------------------------|--------|
G|----------------------14--12-------12----|--------------------------------|--------|
D|--------------------------------14----14-|-14-12---14--12-14-12-----------|--------|
A|-----------------------------------------|----------------------14--10----|--------|
E|-----------------------------------------|--------------------------------|--------|


E|--------|--------|-----------------|------------------------------------|---------------------------------|
B|--------|--------|-----------17----|-17---15-17---17-----------14-15----|-14------------------------------|
G|--------|--------|-----------------|------------------14-15-16-------16-|----16-15-14-12-14-14--12--12----|
D|--------|--------|-----------------|------------------------------------|---------------------------------|
A|--------|--------|-----------------|------------------------------------|---------------------------------|
E|--------|--------|-----------------|------------------------------------|---------------------------------|


E|-----7-------------------------------|----------------------------------|--------|
B|---------5--3--0---------------------|-10--11--10--8----10-10--10--10---|--------|
G|-9-----------------9---7-------------|----------------------------------|--------|
D|---------------------------9--7--8---|-7---8---7---5----7--7---7---7----|--------|
A|-------------------------------------|----------------------------------|--------|
E|-------------------------------------|----------------------------------|--------|


E|--------|--------|--------|--------|--------|--------|--------|--------|--------|
B|--------|--------|--------|--------|--------|--------|--------|--------|--------|
G|--------|--------|--------|--------|--------|--------|--------|--------|--------|
D|--------|--------|--------|--------|--------|--------|--------|--------|--------|
A|--------|--------|--------|--------|--------|--------|--------|--------|--------|
E|--------|--------|--------|--------|--------|--------|--------|--------|--------|


E|--------|--------|--------|--------|--------|--------|--------|--------|--------|
B|--------|--------|--------|--------|--------|--------|--------|--------|--------|
G|--------|--------|--------|--------|--------|--------|--------|--------|--------|
D|--------|--------|--------|--------|--------|--------|--------|--------|--------|
A|--------|--------|--------|--------|--------|--------|--------|--------|--------|
E|--------|--------|--------|--------|--------|--------|--------|--------|--------|


E|--------|--------|--------|-----------------|-----------------|-----------------|
B|--------|--------|--------|-------17----17--|-14----14----14--|-10----12----12--|
G|--------|--------|--------|-----------------|-----------------|-----------------|
D|--------|--------|--------|-----------------|-----------------|-----------------|
A|--------|--------|--------|-----------------|-----------------|-----------------|
E|--------|--------|--------|-----------------|-----------------|-----------------|


E|-----------------|-----------------------------------|-------9--------9--10----9--10-12-9--10----9---|
B|-9-----9-----9---|-7-----7------9--10----9--10-12-9--|-10-12----10-12-------12----------------12-----|
G|-----------------|-----------11-------11-------------|-----------------------------------------------|
D|-----------------|-----------------------------------|-----------------------------------------------|
A|-----------------|-----------------------------------|-----------------------------------------------|
E|-----------------|-----------------------------------|-----------------------------------------------|


E|-12--12--9---------------------------------------|--------------------|--------|
B|-------------12--12--10--------------------------|--------------------|--------|
G|-------------------------11--9-------------------|-------------7------|-7------|
D|---------------------------------11--10--9---7---|--------------------|--------|
A|-------------------------------------------------|-9---7--------------|--------|
E|-------------------------------------------------|---------10---------|--------|


E|--------|--------|--------|-----------------5--|---------------------------|-------------------------15-17-17-17-|
B|--------|--------|--------|--------------------|-3--5----5----8--5----5----|-12--14--14--14--12--14--------------|
G|--------|--------|--------|--------------------|---------------------------|-12--14--14--14--12--14--12-14-14-14-|
D|--------|--------|--------|--------------------|---------------------------|-------------------------------------|
A|--------|--------|--------|--------------------|---------------------------|-------------------------------------|
E|--------|--------|--------|-------17-----------|---------------------------|-------------------------------------|


E|-17-15-15-15-15-17-17-17-17-15-15-15-15-14-14-14-|-14-12-12-12-12-10-10-10-10--10----|
B|-------------------------------------------------|-----------------------------------|
G|-14-12-12-12-12-14-14-14-14-12-12-12-12-11-11-11-|-11-9--9--9--9--7--7--7--7---------|
D|-------------------------------------------------|-----------------------------------|
A|-------------------------------------------------|-----------------------------------|
E|-------------------------------------------------|-----------------------------------|


E|-10--------------|--------|--------|-------13---13---13---|-16---16---16---19---19---19---|
B|-----------------|--------|--------|----------------------|-------------------------------|
G|-----------------|--------|--------|-------10---10---10---|-13---13---13---16---16--------|
D|-----------------|--------|--------|----------------------|-------------------------------|
A|-----------------|--------|--------|----------------------|-------------------------------|
E|-----------------|--------|--------|----------------------|-------------------------------|


E|-16-13--------------------------16-16---16---|----------------0--0------0--3--0--3---|
B|-------15----------------121512--------------|----------------------3----------------|
G|----------16-13----13-16---------------------|-2----2----2---------------------------|
D|----------------15---------------------------|---------------------------------------|
A|---------------------------------------------|---------------------------------------|
E|---------------------------------------------|---------------------------------------|


E|-3-----3-----|---------------------|---------------------------------|---------------------|
B|-------------|---------------------|---------------------------------|---------------------|
G|-------------|---------------------|---------------------------------|---------------------|
D|-------------|------9----9---------|---------------------------------|------9----9---------|
A|-------------|------7----7---9-----|-9---10------5---5---------------|------7----7---9-----|
E|-------------|-0-------------7-----|-7---8---0---3---3---0---2---1---|-0-------------7-----|


E|---------------------------------|---------------------|---------------------------------|
B|---------------------------------|---------------------|---------------------------------|
G|---------------------------------|---------------------|---------------------------------|
D|---------------------------------|------9----9---------|---------------------------------|
A|-9---10------5---5-------9---8---|-7----7----7---9-----|-9---10------5---5---------------|
E|-7---8---0---3---3---0-----------|---------------7-----|-7---8---0---3---3---0---2---1---|


E|---------------------|---------------------------------|---------------------------------|
B|---------------------|---------------------------------|---------------------------------|
G|---------------------|---------------------------------|---------------------------------|
D|------9----9---------|-4---5---------------------------|-2---0-----------0---------------|
A|------7----7---9-----|-2---3---3---3---3---3---3---3---|-3---2---3---2---2---3---2---0---|
E|-0-------------7-----|---------------------------------|---------5---3-------5---3---1---|


E|------------------------|---------------------------|------------------------|---------------------------|
B|------------------------|---------------------------|------------------------|------------------12-------|
G|------------------------|---------------------------|------------------------|------4---4---10-----------|
D|-9----9-----------------|---------------------------|------------------------|-3-------------------------|
A|----------7-------------|------------------7--------|---------------2----2---|---------------------------|
E|--------------------7---|------6---6---7--------1---|------0---0-------------|-----------------------0---|


E|------------------------|---------------------------------|------------------------|
B|------------------------|---------------------------------|------------------------|
G|------------------------|---------------------------------|------------------------|
D|-----9----9-------------|---------------------------------|-----9----9-------------|
A|-----7----7---9-----9---|-10------5---5-------------------|-----7----7---9-----9---|
E|--------------7-----7---|-8---0---3---3---0---2---1---0---|--------------7-----7---|


E|---------------------------------|------------------------|---------------------------------|
B|---------------------------------|------------------------|---------------------------------|
G|---------------------------------|------------------------|---------------------------------|
D|---------------------------------|-----9----9-------------|---------------------------------|
A|-10------5---5-------9---8---7---|-----7----7---9-----9---|-10------5---5-------------------|
E|-8---0---3---3---0---------------|--------------7-----7---|-8---0---3---3---0---2---1---0---|


E|------------------------|---------------------------------|---------------------------------|
B|------------------------|---------------------------------|---------------------------------|
G|------------------------|---------------------------------|---------------------------------|
D|-----9----9---------4---|-5---------------------------2---|-0-----------0-------------------|
A|-----7----7---9-----2---|-3---3---3---3---3---3---3---3---|-2---3---2---2---3---2---0-------|
E|--------------7---------|---------------------------------|-----5---3-------5---3---1-------|


E|---------------------|---------------------|---------------------|---------------------|
B|-------17----17--14--|-------14----14--10--|-------12----12--9---|-------9-----9---7---|
G|---------------------|---------------------|---------------------|---------------------|
D|---------------------|---------------------|---------------------|---------------------|
A|---------------------|---------------------|---------------------|---------------------|
E|---------------------|---------------------|---------------------|---------------------|


E|----------------------------------------|-9--------9--10----9--10-12-9--10----9---12--12-|
B|------7------9--10----9--10-12-9--10-12-|----10-12-------12----------------12------------|
G|----------11-------11-------------------|------------------------------------------------|
D|----------------------------------------|------------------------------------------------|
A|----------------------------------------|------------------------------------------------|
E|----------------------------------------|------------------------------------------------|


E|----9----------------------------------------------|-------------------|----------------|
B|--------12--12--10---------------------------------|-------------------|----------------|
G|--------------------11--9--------------------------|--------7------7---|----------------|
D|----------------------------11--10--9---7----------|-------------------|----------------|
A|--------------------------------------------9---7--|-------------------|----------------|
E|---------------------------------------------------|----10-------------|----------------|


E|----------------|----------------|----------------|-----------------5--------|---------------------------|
B|----------------|----------------|----------------|--------------------3--5--|-----5----8--5----5----12--|
G|----------------|----------------|----------------|--------------------------|-----------------------12--|
D|----------------|----------------|----------------|--------------------------|---------------------------|
A|----------------|----------------|----------------|--------------------------|---------------------------|
E|----------------|----------------|----------------|-------17-----------------|---------------------------|


E|---------------------15-17-17-17-17-15-|-15-15-15-17-17-17-17-15-15-15-15-14-14-14-14-12-|
B|-14--14--14--12--14--------------------|-------------------------------------------------|
G|-14--14--14--12--14--12-14-14-14-14-12-|-12-12-12-14-14-14-14-12-12-12-12-11-11-11-11-9--|
D|---------------------------------------|-------------------------------------------------|
A|---------------------------------------|-------------------------------------------------|
E|---------------------------------------|-------------------------------------------------|


E|-12-12-12-10-10-10-10--10----10--|--------------------|----------------|----------------|
B|---------------------------------|--------------------|----------------|----------------|
G|-9--9--9--7--7--7--7-------------|--------------------|----------------|----------------|
D|---------------------------------|--------------------|----------------|----------------|
A|---------------------------------|--------------------|----------------|----------------|
E|---------------------------------|--------------------|----------------|----------------|


E|-------13---13---13---16--|----16---16---19---19---19---16-13-|--------------------------16-16---16-------|
B|--------------------------|-----------------------------------|-15----------------121512------------------|
G|-------10---10---10---13--|----13---13---16---16--------------|----16-13----13-16---------------------2---|
D|--------------------------|-----------------------------------|----------15-------------------------------|
A|--------------------------|-----------------------------------|-------------------------------------------|
E|--------------------------|-----------------------------------|-------------------------------------------|


E|--------------0--0------0--3--0--3---3---|-------3---------|------------------------|
B|--------------------3--------------------|-----------------|------------------------|
G|----2----2-------------------------------|-----------------|------------------------|
D|-----------------------------------------|-----------------|-----9----9-------------|
A|-----------------------------------------|-----------------|--------------7---------|
E|-----------------------------------------|-------------0---|--------------------7---|


E|---------------------------|------------------------|---------------------------|
B|---------------------------|------------------------|------------------12-------|
G|---------------------------|------------------------|------4---4---10-----------|
D|---------------------------|------------------------|-3-------------------------|
A|------------------7--------|---------------2----2---|---------------------------|
E|------6---6---7--------1---|------0---0-------------|-----------------------0---|


E|------------------------|---------------------------|------------------------|---------------------------|
B|------------------------|---------------------------|------------------------|------------------12-------|
G|------------------------|---------------------------|------------------------|------4---4---10-----------|
D|-----9----9-------------|---------------------------|------------------------|-3-------------------------|
A|--------------7---------|------------------7--------|---------------2----2---|-----------------------2---|
E|--------------------7---|------6---6---7--------1---|------0---0-------------|---------------------------|


E|---------------------------|--------------------|
B|---------------------------|--------------------|
G|---------------------------|--------------------|
D|-3-------------------------|--------------------|
A|-------------------0-------|--------------------|
E|-----1----1---3--------0---|--------------------|





Track 4: Untitled

G|--------|--------|--------|--------|--------|--------|--------|--------|--------|
D|--------|--------|--------|--------|--------|--------|--------|--------|--------|
A|--------|--------|--------|--------|--------|--------|--------|--------|--------|
E|--------|--------|--------|--------|--------|--------|--------|--------|--------|


G|--------|--------|--------|--------|--------|--------|--------|--------|--------|
D|--------|--------|--------|--------|--------|--------|--------|--------|--------|
A|--------|--------|--------|--------|--------|--------|--------|--------|--------|
E|--------|--------|--------|--------|--------|--------|--------|--------|--------|


G|--------|--------|--------|--------|--------|--------|--------|--------|--------|
D|--------|--------|--------|--------|--------|--------|--------|--------|--------|
A|--------|--------|--------|--------|--------|--------|--------|--------|--------|
E|--------|--------|--------|--------|--------|--------|--------|--------|--------|


G|--------|--------|--------|--------|--------|--------|--------|--------|--------|
D|--------|--------|--------|--------|--------|--------|--------|--------|--------|
A|--------|--------|--------|--------|--------|--------|--------|--------|--------|
E|--------|--------|--------|--------|--------|--------|--------|--------|--------|


G|--------|--------|--------|--------|--------|--------|--------|--------|--------|
D|--------|--------|--------|--------|--------|--------|--------|--------|--------|
A|--------|--------|--------|--------|--------|--------|--------|--------|--------|
E|--------|--------|--------|--------|--------|--------|--------|--------|--------|


G|--------|--------|--------|--------|--------|--------|--------|--------|--------|
D|--------|--------|--------|--------|--------|--------|--------|--------|--------|
A|--------|--------|--------|--------|--------|--------|--------|--------|--------|
E|--------|--------|--------|--------|--------|--------|--------|--------|--------|


G|--------|--------|--------|--------|--------|--------|--------|--------|--------|
D|--------|--------|--------|--------|--------|--------|--------|--------|--------|
A|--------|--------|--------|--------|--------|--------|--------|--------|--------|
E|--------|--------|--------|--------|--------|--------|--------|--------|--------|


G|--------|--------|--------|--------|--------|--------|--------|--------|--------|
D|--------|--------|--------|--------|--------|--------|--------|--------|--------|
A|--------|--------|--------|--------|--------|--------|--------|--------|--------|
E|--------|--------|--------|--------|--------|--------|--------|--------|--------|


G|--------|--------|--------|--------|--------|--------|--------|--------|--------|
D|--------|--------|--------|--------|--------|--------|--------|--------|--------|
A|--------|--------|--------|--------|--------|--------|--------|--------|--------|
E|--------|--------|--------|--------|--------|--------|--------|--------|--------|


G|--------|--------|--------|--------|--------|--------|--------|--------|--------|
D|--------|--------|--------|--------|--------|--------|--------|--------|--------|
A|--------|--------|--------|--------|--------|--------|--------|--------|--------|
E|--------|--------|--------|--------|--------|--------|--------|--------|--------|


G|--------|--------|--------|--------|--------|--------|--------|--------|--------|
D|--------|--------|--------|--------|--------|--------|--------|--------|--------|
A|--------|--------|--------|--------|--------|--------|--------|--------|--------|
E|--------|--------|--------|--------|--------|--------|--------|--------|--------|


G|--------|--------|--------|--------|--------|--------|--------|--------|--------|
D|--------|--------|--------|--------|--------|--------|--------|--------|--------|
A|--------|--------|--------|--------|--------|--------|--------|--------|--------|
E|--------|--------|--------|--------|--------|--------|--------|--------|--------|


G|--------|--------|--------|--------|--------|--------|--------|--------|--------|
D|--------|--------|--------|--------|--------|--------|--------|--------|--------|
A|--------|--------|--------|--------|--------|--------|--------|--------|--------|
E|--------|--------|--------|--------|--------|--------|--------|--------|--------|


G|--------|--------|--------|--------|--------|--------|--------|--------|--------|
D|--------|--------|--------|--------|--------|--------|--------|--------|--------|
A|--------|--------|--------|--------|--------|--------|--------|--------|--------|
E|--------|--------|--------|--------|--------|--------|--------|--------|--------|


G|--------|--------|--------|--------|--------|--------|--------|--------|--------|
D|--------|--------|--------|--------|--------|--------|--------|--------|--------|
A|--------|--------|--------|--------|--------|--------|--------|--------|--------|
E|--------|--------|--------|--------|--------|--------|--------|--------|--------|


G|--------|--------|--------|--------|--------|--------|--------|--------|--------|
D|--------|--------|--------|--------|--------|--------|--------|--------|--------|
A|--------|--------|--------|--------|--------|--------|--------|--------|--------|
E|--------|--------|--------|--------|--------|--------|--------|--------|--------|


G|--------|--------|--------|--------|--------|--------|--------|--------|--------|
D|--------|--------|--------|--------|--------|--------|--------|--------|--------|
A|--------|--------|--------|--------|--------|--------|--------|--------|--------|
E|--------|--------|--------|--------|--------|--------|--------|--------|--------|


G|--------|--------|--------|--------|--------|--------|--------|--------|--------|
D|--------|--------|--------|--------|--------|--------|--------|--------|--------|
A|--------|--------|--------|--------|--------|--------|--------|--------|--------|
E|--------|--------|--------|--------|--------|--------|--------|--------|--------|


G|--------|--------|--------|--------|
D|--------|--------|--------|--------|
A|--------|--------|--------|--------|
E|--------|--------|--------|--------|