Menu:

 

Search:

 

megadeth - poison was the cure:

 



Title: Poison was the Cure
Artist: 
Album: Rust in Peace
Author: Megadeth


Track 1: Dave Mustaine

E|--------|--------|--------|--------|--------|--------|--------|--------|--------|
B|--------|--------|--------|--------|--------|--------|--------|--------|--------|
G|--------|--------|--------|--------|--------|--------|--------|--------|--------|
D|--------|--------|--------|--------|--------|--------|--------|--------|--------|
A|--------|--------|--------|--------|--------|--------|--------|--------|--------|
E|--------|--------|--------|--------|--------|--------|--------|--------|--------|


E|--------|--------|--------|--------|--------|--------|--------|---------------------------------|
B|--------|--------|--------|--------|--------|--------|--------|---------------------------------|
G|--------|--------|--------|--------|--------|--------|--------|---------------------------------|
D|--------|--------|--------|--------|--------|--------|--------|-2-------------------------------|
A|--------|--------|--------|--------|--------|--------|--------|-0---0---0---0---0---0---0---0---|
E|--------|--------|--------|--------|--------|--------|--------|---------------------------------|


E|---------------------------------|-----------------------|--------|---------------------------------|
B|---------------------------------|-----------------------|--------|---------------------------------|
G|---------------------------------|-----------------------|--------|---------------------------------|
D|---------------------------------|-5---6-------2---------|--------|-2-------------------------------|
A|-0---0---0---0---0---0---0---0---|-3---4---0---0---------|--------|-0---0---0---0---0---0---0---0---|
E|---------------------------------|-----------------------|--------|---------------------------------|


E|---------------------------------|-----------------------|--------|---------------------------------|
B|---------------------------------|-----------------------|--------|---------------------------------|
G|---------------------------------|-----------------------|--------|---------------------------------|
D|---------------------------------|-5---6-------2---------|--------|-2-------------------------------|
A|-0---0---0---0---0---0---0---0---|-3---4---0---0---------|--------|-0---0---0---0---0---0---0---0---|
E|---------------------------------|-----------------------|--------|---------------------------------|


E|---------------------------------|-----------------------|--------|---------------------------------|
B|---------------------------------|-----------------------|--------|---------------------------------|
G|---------------------------------|-----------------------|--------|---------------------------------|
D|---------------------------------|-5---6-------2---------|--------|-2-------------------------------|
A|-0---0---0---0---0---0---0---0---|-3---4---0---0---------|--------|-0---0---0---0---0---0---0---0---|
E|---------------------------------|-----------------------|--------|---------------------------------|


E|---------------------------------|-----------------------|--------|--------|--------|
B|---------------------------------|-----------------------|--------|--------|--------|
G|---------------------------------|-------------14--14----|-14-----|-14-----|-14-----|
D|---------------------------------|-5---6-------14--14----|-14-----|-14-----|-14-----|
A|-0---0---0---0---0---0---0---0---|-3---4---0---12--12----|-12-----|-12-----|-12-----|
E|---------------------------------|-----------------------|--------|--------|--------|


E|--------|---------------------------|---------------------|---------------------------|
B|--------|------------------0--------|---------------------|---------------------------|
G|-14-----|------2---0-------0--------|-2--------------0----|------2---0-------0--------|
D|-14-----|---------------------------|-2-----2---2----0----|---------------------------|
A|-12-----|-0------------0--------0---|-------2---2---------|-0------------0------------|
E|--------|---------------------------|-------0---0---------|---------------------------|


E|---------------------|---------------------------|---------------------|---------------------------|
B|---------------------|------------------0--------|---------------------|---------------------------|
G|---------------------|------2---0-------0--------|-2--------------0----|------2---0-------0--------|
D|-7-----5---5----4----|---------------------------|-2-----2---2----0----|---------------------------|
A|-5-----3---3----2----|-0------------0--------0---|-------2---2---------|-0------------0------------|
E|---------------------|---------------------------|-------0---0---------|---------------------------|


E|---------------------|---------------------------|---------------------|---------------------------|
B|---------------------|------------------0--------|---------------------|---------------------------|
G|---------------------|------2---0-------0--------|-2--------------0----|------2---0-------0--------|
D|-7-----8---8----9----|---------------------------|-2-----2---2----0----|---------------------------|
A|-5-----6---6----7----|-0------------0--------0---|-------2---2---------|-0------------0------------|
E|---------------------|---------------------------|-------0---0---------|---------------------------|


E|---------------------|---------------------------|---------------------|---------------------------|
B|---------------------|------------------0--------|---------------------|---------------------------|
G|---------------------|------2---0-------0--------|-2--------------0----|------2---0-------0--------|
D|-7-----5---5----4----|---------------------------|-2-----2---2----0----|---------------------------|
A|-5-----3---3----2----|-0------------0--------0---|-------2---2---------|-0------------0------------|
E|---------------------|---------------------------|-------0---0---------|---------------------------|


E|---------------------|---------------------------|---------------------|---------------------------|
B|---------------------|------------------0--------|---------------------|---------------------------|
G|---------------------|------2---0-------0--------|-2--------------0----|------2---0-------0--------|
D|-7-----8---8----9----|---------------------------|-2-----2---2----0----|---------------------------|
A|-5-----6---6----7----|-0------------0--------0---|-------2---2---------|-0------------0------------|
E|---------------------|---------------------------|-------0---0---------|---------------------------|


E|---------------------|---------------------------|---------------------|---------------------------|
B|---------------------|------------------0--------|---------------------|---------------------------|
G|---------------------|------2---0-------0--------|-2--------------0----|------2---0-------0--------|
D|-7-----5---5----4----|---------------------------|-2-----2---2----0----|---------------------------|
A|-5-----3---3----2----|-0------------0--------0---|-------2---2---------|-0------------0------------|
E|---------------------|---------------------------|-------0---0---------|---------------------------|


E|---------------------|---------------------------|---------------------|---------------------------|
B|---------------------|------------------0--------|---------------------|---------------------------|
G|---------------------|------2---0-------0--------|-2--------------0----|------2---0-------0--------|
D|-7-----8---8----9----|---------------------------|-2-----2---2----0----|---------------------------|
A|-5-----6---6----7----|-0------------0--------0---|-------2---2---------|-0------------0------------|
E|---------------------|---------------------------|-------0---0---------|---------------------------|


E|---------------------|---------------------------|---------------------|---------------------------|
B|---------------------|------------------0--------|---------------------|---------------------------|
G|---------------------|------2---0-------0--------|-2--------------0----|------2---0-------0--------|
D|-7-----5---5----4----|---------------------------|-2-----2---2----0----|---------------------------|
A|-5-----3---3----2----|-0------------0--------0---|-------2---2---------|-0------------0------------|
E|---------------------|---------------------------|-------0---0---------|---------------------------|


E|---------------------|---------------------------|---------------------|---------------------------|
B|---------------------|------------------0--------|---------------------|---------------------------|
G|---------------------|------2---0-------0--------|-2--------------0----|------2---0-------0--------|
D|-7-----8---8----9----|---------------------------|-2-----2---2----0----|---------------------------|
A|-5-----6---6----7----|-0------------0--------0---|-------2---2---------|-0------------0------------|
E|---------------------|---------------------------|-------0---0---------|---------------------------|


E|---------------------|---------------------------|---------------------|---------------------------|
B|---------------------|------------------0--------|---------------------|---------------------------|
G|---------------------|------2---0-------0--------|-2--------------0----|------2---0-------0--------|
D|-7-----5---5----4----|---------------------------|-2-----2---2----0----|---------------------------|
A|-5-----3---3----2----|-0------------0--------0---|-------2---2---------|-0------------0------------|
E|---------------------|---------------------------|-------0---0---------|---------------------------|


E|---------------------|---------------------------|---------------------|---------------------------|
B|---------------------|------------------0--------|---------------------|---------------------------|
G|---------------------|------2---0-------0--------|-2--------------0----|------2---0-------0--------|
D|-7-----8---8----9----|---------------------------|-2-----2---2----0----|---------------------------|
A|-5-----6---6----7----|-0------------0--------0---|-------2---2---------|-0------------0------------|
E|---------------------|---------------------------|-------0---0---------|---------------------------|


E|---------------------|---------------------------|---------------------|---------------------------|
B|---------------------|------------------0--------|---------------------|---------------------------|
G|---------------------|------2---0-------0--------|-2--------------0----|------2---0-------0--------|
D|-7-----5---5----4----|---------------------------|-2-----2---2----0----|---------------------------|
A|-5-----3---3----2----|-0------------0--------0---|-------2---2---------|-0------------0------------|
E|---------------------|---------------------------|-------0---0---------|---------------------------|


E|---------------------|---------------------|---------------------|--------|--------|
B|---------------------|---------------------|---------------------|--------|--------|
G|---------------------|---------------------|---------------------|--------|--------|
D|-7-----8---8----9----|---------------------|---------------------|-2------|-2------|
A|-5-----6---6----7----|-3-----4---4----5----|-5---6-----5----4----|-0------|-0------|
E|---------------------|-1-----2---2----3----|-3---4-----3----2----|--------|--------|


E|---------------------|---------------------|--------|--------|---------------------|
B|---------------------|---------------------|--------|--------|---------------------|
G|---------------------|---------------------|--------|--------|---------------------|
D|---------------------|---------------------|-4------|-4------|---------------------|
A|-3-----4---4----5----|-5---6-----5----4----|-2------|-2------|-3-----4---4----5----|
E|-1-----2---2----3----|-3---4-----3----2----|--------|--------|-1-----2---2----3----|


E|---------------------|---------------------|---------------------|---------------------|
B|---------------------|---------------------|---------------------|---------------------|
G|---------------------|---------------------|---------------------|---------------------|
D|---------------------|---------------------|---------------------|---------------------|
A|-5---6-----5----4----|-4-----5---5----6----|-6---7-----6----5----|-5-----6---6----7----|
E|-3---4-----3----2----|-2-----3---3----4----|-4---5-----4----3----|-3-----4---4----5----|


E|---------------------|---------------------|---------------------|------------------------------|
B|---------------------|---------------------|---------------------|------------------------------|
G|---------------------|---------------------|---------------------|-12---------------------------|
D|---------------------|---------------------|---------------------|-10---------------------------|
A|-7---8-----7----6----|-7-----8---8----9----|-7-----8---8----9----|------0---0---0---0---0---0---|
E|-5---6-----5----4----|-5-----6---6----7----|-5-----6---6----7----|------------------------------|


E|---------------------------------|------------------------------|---------------------------------|
B|---------------------------------|------------------------------|---------------------------------|
G|-------------------------12--11--|-11---------------------------|-------------------------11--10--|
D|-------------------------10--9---|-9----------------------------|-------------------------9---8---|
A|-0---0---0---0---0---0-----------|------0---0---0---0---0---0---|-0---0---0---0---0---0-----------|
E|---------------------------------|------------------------------|---------------------------------|


E|------------------------------|---------------------------------|------------------------------|
B|------------------------------|---------------------------------|------------------------------|
G|-10---------------------------|-------------------------10--9---|-9----------------------------|
D|-8----------------------------|-------------------------8---7---|-7----------------------------|
A|------0---0---0---0---0---0---|-0---0---0---0---0---0-----------|------0---0---0---0---0---0---|
E|------------------------------|---------------------------------|------------------------------|


E|---------------------------------|------------------------------|---------------------------------|
B|---------------------------------|------------------------------|---------------------------------|
G|-------------------------9---8---|-8----------------------------|-------------------------8---7---|
D|-------------------------7---6---|-6----------------------------|-------------------------6---5---|
A|-0---0---0---0---0---0-----------|------0---0---0---0---0---0---|-0---0---0---0---0---0-----------|
E|---------------------------------|------------------------------|---------------------------------|


E|------------------------------|---------------------------------|------------------------------|
B|------------------------------|---------------------------------|------------------------------|
G|-7----------------------------|-------------------------7---6---|-6----------------------------|
D|-5----------------------------|-------------------------5---4---|-4----------------------------|
A|------0---0---0---0---0---0---|-0---0---0---0---0---0-----------|------0---0---0---0---0---0---|
E|------------------------------|---------------------------------|------------------------------|


E|---------------------------------|--------------------|------------------------|
B|---------------------------------|--------------------|------------------------|
G|-------------------------6---5---|-5------------------|------------------------|
D|-------------------------4---3---|-3------------------|------------------------|
A|-0---0---0---0---0---0-----------|---------------3----|-----5---5----5----3----|
E|---------------------------------|---------------1----|-----3---3----3----1----|


E|---------------------------|---------------------|-------------|-------------|---------------------------|
B|---------------------------|---------------------|-------------|-------------|---------------------------|
G|---------------------------|---------------------|-------------|-------------|---------------------------|
D|---------------------------|----------------2----|--------2----|-------------|---------------------------|
A|-----4---4----5----5---6---|------5----4----0----|--------0----|--------3----|-----4---4----5----5---6---|
E|-----2---2----3----3---4---|------3----2---------|-------------|--------1----|-----2---2----3----3---4---|


E|---------------------|-------------|-------------|---------------------------------|
B|---------------------|-------------|-------------|---------------------------------|
G|---------------------|-------------|-------------|-2---0-------5---2---0---2---0---|
D|----------------4----|--------4----|-------------|---------------------------------|
A|------5----4----2----|--------2----|--------0----|---------0-----------------------|
E|------3----2---------|-------------|-------------|---------------------------------|


E|------------------------------|---------------------------------|------------------------------|
B|------------------------------|---------------------------------|------------------------------|
G|------------------------------|-2---0---5---5---2---0---2---0---|-0---0------------------------|
D|-2---0---0---1---2---0--------|---------------------------------|---------0---1---2---0---0----|
A|-------------------------3----|---------------------------------|------------------------------|
E|------------------------------|---------------------------------|------------------------------|


E|---------------------------|---------------------------|---------------------------|
B|---------------------------|---------------------------|---------------------------|
G|-2---0-------5-----2---0---|-----5---5---2---0---------|-----2---2---5-------------|
D|---------0-----------------|-0--------------------3----|-----------------3----2----|
A|---------------------------|---------------------------|---------------------------|
E|---------------------------|---------------------------|---------------------------|


E|---------------------------|---------------------------------|------------------------------|
B|-------------1-------------|---------------------------------|------------------------------|
G|-----1---1-----------------|-2---0-------5---2---0---2---0---|------------------------------|
D|-----------------2---------|---------------------------------|-2---0---0---1---2---0--------|
A|----------------------0----|---------0-----------------------|-------------------------3----|
E|---------------------------|---------------------------------|------------------------------|


E|---------------------------------|------------------------------|---------------------------|
B|---------------------------------|------------------------------|---------------------------|
G|-2---0---5---5---2---0---2---0---|-0---0------------------------|-2---0-------5-----2---0---|
D|---------------------------------|---------0---1---2---0---0----|---------0-----------------|
A|---------------------------------|------------------------------|---------------------------|
E|---------------------------------|------------------------------|---------------------------|


E|---------------------------|---------------------------|---------------------------|
B|---------------------------|---------------------------|-------------1-------------|
G|-----5---5---2---0---------|-----2---2---5-------------|-----1---1-----------------|
D|-0--------------------3----|-----------------3----2----|-----------------2---------|
A|---------------------------|---------------------------|----------------------0----|
E|---------------------------|---------------------------|---------------------------|


E|---------------------------------|------------------------------|---------------------------------|
B|---------------------------------|------------------------------|---------------------------------|
G|-2---0-------5---2---0---2---0---|------------------------------|-2---0---5---5---2---0---2---0---|
D|---------------------------------|-2---0---0---1---2---0--------|---------------------------------|
A|---------0-----------------------|-------------------------3----|---------------------------------|
E|---------------------------------|------------------------------|---------------------------------|


E|------------------------------|---------------------------|---------------------------|
B|------------------------------|---------------------------|---------------------------|
G|-0---0------------------------|-2---0-------5-----2---0---|-----5---5---2---0---------|
D|---------0---1---2---0---0----|---------0-----------------|-0--------------------3----|
A|------------------------------|---------------------------|---------------------------|
E|------------------------------|---------------------------|---------------------------|


E|---------------------------|---------------------------|---------------------------------|
B|---------------------------|-------------1-------------|---------------------------------|
G|-----2---2---5-------------|-----1---1-----------------|-2---0-------5---2---0---2---0---|
D|-----------------3----2----|-----------------2---------|---------------------------------|
A|---------------------------|----------------------0----|---------0-----------------------|
E|---------------------------|---------------------------|---------------------------------|


E|------------------------------|---------------------------------|------------------------------|
B|------------------------------|---------------------------------|------------------------------|
G|------------------------------|-2---0---5---5---2---0---2---0---|-0---0------------------------|
D|-2---0---0---1---2---0--------|---------------------------------|---------0---1---2---0---0----|
A|-------------------------3----|---------------------------------|------------------------------|
E|------------------------------|---------------------------------|------------------------------|


E|---------------------------|---------------------------|---------------------------|
B|---------------------------|---------------------------|---------------------------|
G|-2---0-------5-----2---0---|-----5---5---2---0---------|-----2---2---5-------------|
D|---------0-----------------|-0--------------------3----|-----------------3----2----|
A|---------------------------|---------------------------|---------------------------|
E|---------------------------|---------------------------|---------------------------|


E|---------------------------|---------------------------------|------------------------------|
B|-------------1-------------|---------------------------------|------------------------------|
G|-----1---1-----------------|---------------------------------|------------------------------|
D|-----------------2----2----|---------------------------------|-------------------------5----|
A|----------------------0----|-0---0---0---0---0---0---0---0---|-0---0---0---0---0---0---3----|
E|---------------------------|---------------------------------|------------------------------|


E|---------------------------------|------------------------------|---------------------------------|
B|---------------------------------|------------------------------|---------------------------------|
G|---------------------------------|------------------------------|---------------------------------|
D|---------------------------------|-------------------------7----|---------------------------------|
A|-3---3---3---3---3---3---3---3---|-3---3---3---3---3---3---5----|-5---5---5---5---5---5---5---5---|
E|---------------------------------|------------------------------|---------------------------------|


E|------------------------------|------------------------------|------------------------------|
B|------------------------------|------------------------------|------------------------------|
G|------------------------------|------------------------------|------------------------------|
D|-------------------------10---|-------------------------9----|-------------------------2----|
A|-5---5---5---5---5---5---8----|-8---8---8---8---8---8---7----|-7---7---7---7---7---7---0----|
E|------------------------------|------------------------------|------------------------------|


E|---------------------------------|------------------------------|---------------------------------|
B|---------------------------------|------------------------------|---------------------------------|
G|---------------------------------|------------------------------|---------------------------------|
D|---------------------------------|-------------------------5----|---------------------------------|
A|-0---0---0---0---0---0---0---0---|-0---0---0---0---0---0---3----|-3---3---3---3---3---3---3---3---|
E|---------------------------------|------------------------------|---------------------------------|


E|------------------------------|---------------------------------|------------------------------|
B|------------------------------|---------------------------------|------------------------------|
G|------------------------------|---------------------------------|------------------------------|
D|-------------------------7----|---------------------------------|-------------------------10---|
A|-3---3---3---3---3---3---5----|-5---5---5---5---5---5---5---5---|-5---5---5---5---5---5---8----|
E|------------------------------|---------------------------------|------------------------------|


E|------------------------------|------------------------------|------------------------------|
B|------------------------------|------------------------------|------------------------------|
G|------------------------------|------------------------------|------------------------------|
D|-------------------------9----|-------------------------2----|-------------------------2----|
A|-8---8---8---8---8---8---7----|-7---7---7---7---7---7---0----|-0---0---0---0---0---0---0----|
E|------------------------------|------------------------------|------------------------------|


E|------------------------|------------------------------|------------------------|
B|------------------------|------------------------------|------------------------|
G|------------------------|------------------------------|------------------------|
D|-----3---3----4----5----|-------------------------5----|-----7---7----9----7----|
A|-----1---1----2----3----|-3---3---3---3---3---3---3----|-----5---5----7----5----|
E|------------------------|------------------------------|------------------------|


E|------------------------------|------------------------|------------------------------|
B|------------------------------|------------------------|------------------------------|
G|------------------------------|------------------------|------------------------------|
D|-------------------------7----|-----8---8----9----10---|-------------------------9----|
A|-5---5---5---5---5---5---5----|-----6---6----7----8----|-8---8---8---8---8---8---7----|
E|------------------------------|------------------------|------------------------------|


E|------------------------------|-------------|------------------------|-------------|
B|------------------------------|-------------|------------------------|-------------|
G|------------------------------|-------------|------------------------|-------------|
D|-------------------------2----|--------2----|-----3---3----4----5----|--------5----|
A|-7---7---7---7---7---7---0----|--------0----|-----1---1----2----3----|--------3----|
E|------------------------------|-------------|------------------------|-------------|


E|------------------------|-------------|------------------------|-------------|-------------|
B|------------------------|-------------|------------------------|-------------|-------------|
G|------------------------|-------------|------------------------|-------------|-------------|
D|-----7---7----9----7----|--------7----|-----8---8----9----10---|--------9----|--------2----|
A|-----5---5----7----5----|--------5----|-----6---6----7----8----|--------7----|--------0----|
E|------------------------|-------------|------------------------|-------------|-------------|


E|-----------------|
B|-----------------|
G|-----------------|
D|-----------------|
A|-----------------|
E|-----------------|





Track 2: Marty Friedman

E|--------|--------|--------|--------|--------|--------|--------|--------|--------|
B|--------|--------|--------|--------|--------|--------|--------|--------|--------|
G|--------|--------|--------|--------|--------|--------|--------|--------|--------|
D|--------|--------|--------|--------|--------|--------|--------|--------|--------|
A|--------|--------|--------|--------|--------|--------|--------|--------|--------|
E|--------|--------|--------|--------|--------|--------|--------|--------|--------|


E|--------|--------|--------|--------|--------|--------|--------|--------|--------|
B|--------|--------|--------|--------|--------|--------|--------|--------|--------|
G|--------|--------|--------|--------|--------|--------|--------|--------|--------|
D|--------|--------|--------|--------|--------|--------|--------|--------|--------|
A|--------|--------|--------|--------|--------|--------|--------|--------|--------|
E|--------|--------|--------|--------|--------|--------|--------|--------|--------|


E|--------|--------|--------|--------|--------|--------|--------|--------|--------|
B|--------|--------|--------|--------|--------|--------|--------|--------|--------|
G|--------|--------|--------|--------|--------|--------|--------|--------|--------|
D|--------|--------|--------|--------|--------|--------|--------|--------|--------|
A|--------|--------|--------|--------|--------|--------|--------|--------|--------|
E|--------|--------|--------|--------|--------|--------|--------|--------|--------|


E|--------|--------|--------|--------|--------|--------|--------|--------|------------------------------|
B|--------|--------|--------|--------|--------|--------|--------|--------|------------------------------|
G|--------|--------|--------|--------|--------|--------|--------|--------|------------------------------|
D|--------|--------|--------|--------|--------|-14-----|-6------|--------|------7---5-------5-----------|
A|--------|--------|--------|--------|--------|-12-----|-4------|--------|-0------------0-------6---7---|
E|--------|--------|--------|--------|--------|--------|--------|--------|------------------------------|


E|---------------------------|---------------------------|------------------------------|
B|---------------------------|---------------------------|------------------------------|
G|---------------------------|---------------------------|-7---5-------5-----------4----|
D|------7---5-------5--------|------7---5-------5--------|---------7-------7---5--------|
A|-0------------7------------|-0------------7------------|------------------------------|
E|---------------------------|---------------------------|------------------------------|


E|------------------------------|---------------------------|---------------------------|
B|------------------------------|---------------------------|---------------------------|
G|------------------------------|---------------------------|---------------------------|
D|------7---5-------5-----------|------7---5-------5--------|------7---5-------5--------|
A|-0------------0-------6---7---|-0------------7------------|-0------------7------------|
E|------------------------------|---------------------------|---------------------------|


E|------------------------------|------------------------------|---------------------------|
B|------------------------------|------------------------------|---------------------------|
G|------------------------------|------------------------------|---------------------------|
D|------------------------------|------7---5-------5-----------|------7---5-------5--------|
A|-5---3-------6---6-------7----|-0------------0-------6---7---|-0------------7------------|
E|------------------------------|------------------------------|---------------------------|


E|---------------------------|------------------------------|------------------------------|
B|---------------------------|------------------------------|------------------------------|
G|---------------------------|-7---5-------5-----------4----|------------------------------|
D|------7---5-------5--------|---------7-------7---5--------|------7---5-------5-----------|
A|-0------------7------------|------------------------------|-0------------0-------6---7---|
E|---------------------------|------------------------------|------------------------------|


E|---------------------------|---------------------------|------------------------------|
B|---------------------------|---------------------------|------------------------------|
G|---------------------------|---------------------------|------------------------------|
D|------7---5-------5--------|------7---5-------5--------|------------------------------|
A|-0------------7------------|-0------------7------------|-5---3-------6---6-------7----|
E|---------------------------|---------------------------|------------------------------|


E|------------------------------|---------------------------|---------------------------|
B|------------------------------|---------------------------|---------------------------|
G|------------------------------|---------------------------|---------------------------|
D|------7---5-------5-----------|------7---5-------5--------|------7---5-------5--------|
A|-0------------0-------6---7---|-0------------7------------|-0------------7------------|
E|------------------------------|---------------------------|---------------------------|


E|------------------------------|------------------------------|---------------------------|
B|------------------------------|------------------------------|---------------------------|
G|-7---5-------5-----------4----|------------------------------|---------------------------|
D|---------7-------7---5--------|------7---5-------5-----------|------7---5-------5--------|
A|------------------------------|-0------------0-------6---7---|-0------------7------------|
E|------------------------------|------------------------------|---------------------------|


E|---------------------------|------------------------------|------------------------------|
B|---------------------------|------------------------------|------------------------------|
G|---------------------------|------------------------------|------------------------------|
D|------7---5-------5--------|------------------------------|------7---5-------5-----------|
A|-0------------7------------|-5---3-------6---6-------7----|-0------------0-------6---7---|
E|---------------------------|------------------------------|------------------------------|


E|---------------------------|---------------------------|------------------------------|
B|---------------------------|---------------------------|------------------------------|
G|---------------------------|---------------------------|-7---5-------5-----------4----|
D|------7---5-------5--------|------7---5-------5--------|---------7-------7---5--------|
A|-0------------7------------|-0------------7------------|------------------------------|
E|---------------------------|---------------------------|------------------------------|


E|------------------------------|---------------------------|---------------------------|
B|------------------------------|---------------------------|---------------------------|
G|------------------------------|---------------------------|---------------------------|
D|------7---5-------5-----------|------7---5-------5--------|------7---5-------5--------|
A|-0------------0-------6---7---|-0------------7------------|-0------------7------------|
E|------------------------------|---------------------------|---------------------------|


E|------------------------------|------------------------------|---------------------------|
B|------------------------------|------------------------------|---------------------------|
G|------------------------------|------------------------------|---------------------------|
D|------------------------------|------7---5-------5-----------|------7---5-------5--------|
A|-5---3-------6---6-------7----|-0------------0-------6---7---|-0------------7------------|
E|------------------------------|------------------------------|---------------------------|


E|---------------------------|------------------------------|------------------------------|
B|---------------------------|------------------------------|------------------------------|
G|---------------------------|-7---5-------5-----------4----|------------------------------|
D|------7---5-------5--------|---------7-------7---5--------|------7---5-------5-----------|
A|-0------------7------------|------------------------------|-0------------0-------6---7---|
E|---------------------------|------------------------------|------------------------------|


E|---------------------------|---------------------------|------------------------------|
B|---------------------------|---------------------------|------------------------------|
G|---------------------------|---------------------------|------------------------------|
D|------7---5-------5--------|------7---5-------5--------|------------------------------|
A|-0------------7------------|-0------------7------------|-5---3-------6---6-------7----|
E|---------------------------|---------------------------|------------------------------|


E|------------------------------|---------------------------|---------------------------|
B|------------------------------|---------------------------|---------------------------|
G|------------------------------|---------------------------|---------------------------|
D|------7---5-------5-----------|------7---5-------5--------|------7---5-------5--------|
A|-0------------0-------6---7---|-0------------7------------|-0------------7------------|
E|------------------------------|---------------------------|---------------------------|


E|------------------------------|------------------------------|---------------------------|
B|------------------------------|------------------------------|---------------------------|
G|-7---5-------5-----------4----|------------------------------|---------------------------|
D|---------7-------7---5--------|------7---5-------5-----------|------7---5-------5--------|
A|------------------------------|-0------------0-------6---7---|-0------------7------------|
E|------------------------------|------------------------------|---------------------------|


E|---------------------------|------------------------------|--------|--------|--------|
B|---------------------------|------------------------------|--------|--------|--------|
G|---------------------------|------------------------------|--------|--------|--------|
D|------7---5-------5--------|------------------------------|--------|--------|--------|
A|-0------------7------------|-5---3-------6---6-------7----|--------|--------|--------|
E|---------------------------|------------------------------|--------|--------|--------|


E|--------|--------|--------|--------|--------|--------|--------|--------|--------|
B|--------|--------|--------|--------|--------|--------|--------|--------|--------|
G|--------|--------|--------|--------|--------|--------|--------|--------|--------|
D|--------|--------|--------|--------|--------|--------|--------|--------|--------|
A|--------|--------|--------|--------|--------|--------|--------|--------|--------|
E|--------|--------|--------|--------|--------|--------|--------|--------|--------|


E|--------|--------|--------|--------|--------|--------|--------|--------|--------|
B|--------|--------|--------|--------|--------|--------|--------|--------|--------|
G|--------|--------|--------|--------|--------|--------|--------|--------|--------|
D|--------|--------|--------|--------|--------|--------|--------|--------|--------|
A|--------|--------|--------|--------|--------|--------|--------|--------|--------|
E|--------|--------|--------|--------|--------|--------|--------|--------|--------|


E|--------|--------|--------|--------|--------|--------|--------|--------|--------|
B|--------|--------|--------|--------|--------|--------|--------|--------|--------|
G|--------|--------|--------|--------|--------|--------|--------|--------|--------|
D|--------|--------|--------|--------|--------|--------|--------|--------|--------|
A|--------|--------|--------|--------|--------|--------|--------|--------|--------|
E|--------|--------|--------|--------|--------|--------|--------|--------|--------|


E|--------|--------|--------|--------|--------|--------|--------|--------|--------|
B|--------|--------|--------|--------|--------|--------|--------|--------|--------|
G|--------|--------|--------|--------|--------|--------|--------|--------|--------|
D|--------|--------|--------|--------|--------|--------|--------|--------|--------|
A|--------|--------|--------|--------|--------|--------|--------|--------|--------|
E|--------|--------|--------|--------|--------|--------|--------|--------|--------|


E|-------------|---------------------------------|------------------------------|---------------------------------|
B|-------------|---------------------------------|------------------------------|---------------------------------|
G|-------------|---------------------------------|------------------------------|---------------------------------|
D|--------2----|---------------------------------|-------------------------5----|---------------------------------|
A|--------0----|-0---0---0---0---0---0---0---0---|-0---0---0---0---0---0---3----|-0---0---0---0---0---0---0---0---|
E|-------------|---------------------------------|------------------------------|---------------------------------|


E|------------------------------|---------------------------------|------------------------------|
B|------------------------------|---------------------------------|------------------------------|
G|------------------------------|---------------------------------|------------------------------|
D|-------------------------7----|---------------------------------|-------------------------10---|
A|-0---0---0---0---0---0---5----|-0---0---0---0---0---0---0---0---|-0---0---0---0---0---0---8----|
E|------------------------------|---------------------------------|------------------------------|


E|------------------------------|------------------------------|---------------------------------|
B|------------------------------|------------------------------|---------------------------------|
G|------------------------------|------------------------------|---------------------------------|
D|-------------------------9----|-------------------------2----|---------------------------------|
A|-0---0---0---0---0---0---7----|-0---0---0---0---0---0---0----|-0---0---0---0---0---0---0---0---|
E|------------------------------|------------------------------|---------------------------------|


E|------------------------------|---------------------------------|------------------------------|
B|------------------------------|---------------------------------|------------------------------|
G|------------------------------|---------------------------------|------------------------------|
D|-------------------------5----|---------------------------------|-------------------------7----|
A|-0---0---0---0---0---0---3----|-0---0---0---0---0---0---0---0---|-0---0---0---0---0---0---5----|
E|------------------------------|---------------------------------|------------------------------|


E|---------------------------------|------------------------------|------------------------------|
B|---------------------------------|------------------------------|------------------------------|
G|---------------------------------|------------------------------|------------------------------|
D|---------------------------------|-------------------------10---|-------------------------9----|
A|-0---0---0---0---0---0---0---0---|-0---0---0---0---0---0---8----|-0---0---0---0---0---0---7----|
E|---------------------------------|------------------------------|------------------------------|


E|------------------------------|---------------------------------|------------------------------|
B|------------------------------|---------------------------------|------------------------------|
G|------------------------------|---------------------------------|------------------------------|
D|-------------------------2----|---------------------------------|-------------------------5----|
A|-0---0---0---0---0---0---0----|-0---0---0---0---0---0---0---0---|-0---0---0---0---0---0---3----|
E|------------------------------|---------------------------------|------------------------------|


E|---------------------------------|------------------------------|---------------------------------|
B|---------------------------------|------------------------------|---------------------------------|
G|---------------------------------|------------------------------|---------------------------------|
D|---------------------------------|-------------------------7----|---------------------------------|
A|-0---0---0---0---0---0---0---0---|-0---0---0---0---0---0---5----|-0---0---0---0---0---0---0---0---|
E|---------------------------------|------------------------------|---------------------------------|


E|------------------------------|------------------------------|------------------------------|
B|------------------------------|------------------------------|------------------------------|
G|------------------------------|------------------------------|------------------------------|
D|-------------------------10---|-------------------------9----|-------------------------2----|
A|-0---0---0---0---0---0---8----|-0---0---0---0---0---0---7----|-0---0---0---0---0---0---0----|
E|------------------------------|------------------------------|------------------------------|


E|---------------------------------|------------------------------|---------------------------------|
B|---------------------------------|------------------------------|---------------------------------|
G|---------------------------------|------------------------------|---------------------------------|
D|---------------------------------|-------------------------5----|---------------------------------|
A|-0---0---0---0---0---0---0---0---|-0---0---0---0---0---0---3----|-0---0---0---0---0---0---0---0---|
E|---------------------------------|------------------------------|---------------------------------|


E|------------------------------|---------------------------------|------------------------------|
B|------------------------------|---------------------------------|------------------------------|
G|------------------------------|---------------------------------|------------------------------|
D|-------------------------7----|---------------------------------|-------------------------3----|
A|-0---0---0---0---0---0---5----|-0---0---0---0---0---0---0---0---|-0---0---0---0---0---0--------|
E|------------------------------|---------------------------------|------------------------------|


E|---------------------------|---------------------------|--------|--------|--------|
B|---------------------------|-------------1-------------|--------|--------|--------|
G|-----2---2---5-------------|-----1---1-----------------|--------|--------|--------|
D|-----------------3----2----|-----------------2---------|--------|--------|--------|
A|---------------------------|---------------------------|--------|--------|--------|
E|---------------------------|---------------------------|--------|--------|--------|


E|--------|--------|--------|--------|--------|--------|--------|--------|--------|
B|--------|--------|--------|--------|--------|--------|--------|--------|--------|
G|--------|--------|--------|--------|--------|--------|--------|--------|--------|
D|--------|--------|--------|--------|--------|--------|--------|--------|--------|
A|--------|--------|--------|--------|--------|--------|--------|--------|--------|
E|--------|--------|--------|--------|--------|--------|--------|--------|--------|


E|--------|--------|--------|--------|--------|--------|--------|--------|--------|
B|--------|--------|--------|--------|--------|--------|--------|--------|--------|
G|--------|--------|--------|--------|--------|--------|--------|--------|--------|
D|--------|--------|--------|--------|--------|--------|--------|--------|--------|
A|--------|--------|--------|--------|--------|--------|--------|--------|--------|
E|--------|--------|--------|--------|--------|--------|--------|--------|--------|


E|--------|--------|--------|--------|--------|--------|--------|--------|--------|
B|--------|--------|--------|--------|--------|--------|--------|--------|--------|
G|--------|--------|--------|--------|--------|--------|--------|--------|--------|
D|--------|--------|--------|--------|--------|--------|--------|--------|--------|
A|--------|--------|--------|--------|--------|--------|--------|--------|--------|
E|--------|--------|--------|--------|--------|--------|--------|--------|--------|


E|--------|--------|--------|
B|--------|--------|--------|
G|--------|--------|--------|
D|--------|--------|--------|
A|--------|--------|--------|
E|--------|--------|--------|





Track 3: Marty Friedman - Solo Guitar

E|--------|--------|--------|--------|--------|--------|--------|--------|--------|
B|--------|--------|--------|--------|--------|--------|--------|--------|--------|
G|--------|--------|--------|--------|--------|--------|--------|--------|--------|
D|--------|--------|--------|--------|--------|--------|--------|--------|--------|
A|--------|--------|--------|--------|--------|--------|--------|--------|--------|
E|--------|--------|--------|--------|--------|--------|--------|--------|--------|


E|--------|--------|--------|--------|--------|--------|--------|--------|--------|
B|--------|--------|--------|--------|--------|--------|--------|--------|--------|
G|--------|--------|--------|--------|--------|--------|--------|--------|--------|
D|--------|--------|--------|--------|--------|--------|--------|--------|--------|
A|--------|--------|--------|--------|--------|--------|--------|--------|--------|
E|--------|--------|--------|--------|--------|--------|--------|--------|--------|


E|--------|--------|--------|--------|--------|--------|--------|--------|--------|
B|--------|--------|--------|--------|--------|--------|--------|--------|--------|
G|--------|--------|--------|--------|--------|--------|--------|--------|--------|
D|--------|--------|--------|--------|--------|--------|--------|--------|--------|
A|--------|--------|--------|--------|--------|--------|--------|--------|--------|
E|--------|--------|--------|--------|--------|--------|--------|--------|--------|


E|--------|--------|--------|--------|--------|--------|--------|--------|--------|
B|--------|--------|--------|--------|--------|--------|--------|--------|--------|
G|--------|--------|--------|--------|--------|--------|--------|--------|--------|
D|--------|--------|--------|--------|--------|--------|--------|--------|--------|
A|--------|--------|--------|--------|--------|--------|--------|--------|--------|
E|--------|--------|--------|--------|--------|--------|--------|--------|--------|


E|--------|--------|--------|--------|--------|--------|--------|--------|--------|
B|--------|--------|--------|--------|--------|--------|--------|--------|--------|
G|--------|--------|--------|--------|--------|--------|--------|--------|--------|
D|--------|--------|--------|--------|--------|--------|--------|--------|--------|
A|--------|--------|--------|--------|--------|--------|--------|--------|--------|
E|--------|--------|--------|--------|--------|--------|--------|--------|--------|


E|--------|--------|--------|--------|--------|--------|--------|--------|--------|
B|--------|--------|--------|--------|--------|--------|--------|--------|--------|
G|--------|--------|--------|--------|--------|--------|--------|--------|--------|
D|--------|--------|--------|--------|--------|--------|--------|--------|--------|
A|--------|--------|--------|--------|--------|--------|--------|--------|--------|
E|--------|--------|--------|--------|--------|--------|--------|--------|--------|


E|--------|--------|--------|--------|--------|--------|--------|--------|--------|
B|--------|--------|--------|--------|--------|--------|--------|--------|--------|
G|--------|--------|--------|--------|--------|--------|--------|--------|--------|
D|--------|--------|--------|--------|--------|--------|--------|--------|--------|
A|--------|--------|--------|--------|--------|--------|--------|--------|--------|
E|--------|--------|--------|--------|--------|--------|--------|--------|--------|


E|--------|--------|--------|--------|--------|--------|--------|--------|--------|
B|--------|--------|--------|--------|--------|--------|--------|--------|--------|
G|--------|--------|--------|--------|--------|--------|--------|--------|--------|
D|--------|--------|--------|--------|--------|--------|--------|--------|--------|
A|--------|--------|--------|--------|--------|--------|--------|--------|--------|
E|--------|--------|--------|--------|--------|--------|--------|--------|--------|


E|--------|--------|--------|--------|--------|--------|--------|--------|--------|
B|--------|--------|--------|--------|--------|--------|--------|--------|--------|
G|--------|--------|--------|--------|--------|--------|--------|--------|--------|
D|--------|--------|--------|--------|--------|--------|--------|--------|--------|
A|--------|--------|--------|--------|--------|--------|--------|--------|--------|
E|--------|--------|--------|--------|--------|--------|--------|--------|--------|


E|--------|--------|--------|--------|--------|--------|--------|--------|--------|
B|--------|--------|--------|--------|--------|--------|--------|--------|--------|
G|--------|--------|--------|--------|--------|--------|--------|--------|--------|
D|--------|--------|--------|--------|--------|--------|--------|--------|--------|
A|--------|--------|--------|--------|--------|--------|--------|--------|--------|
E|--------|--------|--------|--------|--------|--------|--------|--------|--------|


E|--------|--------|--------|--------|--------|--------|--------|--------|--------|
B|--------|--------|--------|--------|--------|--------|--------|--------|--------|
G|--------|--------|--------|--------|--------|--------|--------|--------|--------|
D|--------|--------|--------|--------|--------|--------|--------|--------|--------|
A|--------|--------|--------|--------|--------|--------|--------|--------|--------|
E|--------|--------|--------|--------|--------|--------|--------|--------|--------|


E|--------|--------|--------|--------|--------|--------|--------|--------|--------|
B|--------|--------|--------|--------|--------|--------|--------|--------|--------|
G|--------|--------|--------|--------|--------|--------|--------|--------|--------|
D|--------|--------|--------|--------|--------|--------|--------|--------|--------|
A|--------|--------|--------|--------|--------|--------|--------|--------|--------|
E|--------|--------|--------|--------|--------|--------|--------|--------|--------|


E|--------|--------|--------|--------|--------|--------|--------|--------|--------|
B|--------|--------|--------|--------|--------|--------|--------|--------|--------|
G|--------|--------|--------|--------|--------|--------|--------|--------|--------|
D|--------|--------|--------|--------|--------|--------|--------|--------|--------|
A|--------|--------|--------|--------|--------|--------|--------|--------|--------|
E|--------|--------|--------|--------|--------|--------|--------|--------|--------|


E|--------|--------|--------|--------|--------|--------|--------|--------|--------|
B|--------|--------|--------|--------|--------|--------|--------|--------|--------|
G|--------|--------|--------|--------|--------|--------|--------|--------|--------|
D|--------|--------|--------|--------|--------|--------|--------|--------|--------|
A|--------|--------|--------|--------|--------|--------|--------|--------|--------|
E|--------|--------|--------|--------|--------|--------|--------|--------|--------|


E|--------|--------|--------|--------|--------|--------|--------|--------|--------|
B|--------|--------|--------|--------|--------|--------|--------|--------|--------|
G|--------|--------|--------|--------|--------|--------|--------|--------|--------|
D|--------|--------|--------|--------|--------|--------|--------|--------|--------|
A|--------|--------|--------|--------|--------|--------|--------|--------|--------|
E|--------|--------|--------|--------|--------|--------|--------|--------|--------|


E|--------|--------|--------|--------|--------|--------|--------|--------|--------|
B|--------|--------|--------|--------|--------|--------|--------|--------|--------|
G|--------|--------|--------|--------|--------|--------|--------|--------|--------|
D|--------|--------|--------|--------|--------|--------|--------|--------|--------|
A|--------|--------|--------|--------|--------|--------|--------|--------|--------|
E|--------|--------|--------|--------|--------|--------|--------|--------|--------|


E|--------|--------|--------|--------|--------|--------|--------|--------|--------|
B|--------|--------|--------|--------|--------|--------|--------|--------|--------|
G|--------|--------|--------|--------|--------|--------|--------|--------|--------|
D|--------|--------|--------|--------|--------|--------|--------|--------|--------|
A|--------|--------|--------|--------|--------|--------|--------|--------|--------|
E|--------|--------|--------|--------|--------|--------|--------|--------|--------|


E|--------|------------------|-----------------|---------------------------|-------------|
B|--------|------------------|-----------------|----------------------6----|--------6----|
G|--------|--------7--7--7---|-7----7-----7----|-7---7---7----5------------|-------------|
D|--------|------------------|-----------------|------------------7--------|-------------|
A|--------|------------------|-----------------|---------------------------|-------------|
E|--------|------------------|-----------------|---------------------------|-------------|


E|-5----------------------------|----------------|---------------------------|---------------------|
B|-----8---5--------------------|----------------|-----5---------------------|---------------------|
G|-------------8---7---5---5----|--------7---5---|-7-------7---5-------------|-----------5----4----|
D|------------------------------|----------------|-----------------7----7----|------7--------------|
A|------------------------------|----------------|---------------------------|---------------------|
E|------------------------------|----------------|---------------------------|---------------------|


E|----------------|---------------------------------|-12--15--15--12----------15--12--|
B|----------------|-------------------------12--13--|-----------------13--12----------|
G|----------------|-----------------9---12----------|---------------------------------|
D|----------------|---------9---10------------------|---------------------------------|
A|----------------|-7---10--------------------------|---------------------------------|
E|--------5---8---|---------------------------------|---------------------------------|


E|---------12--13----------15---|-12---12-----------13--17--13--|-------------------------10--13--|
B|-13--15----------15--12-------|---------------15--------------|-15------------------10----------|
G|------------------------------|-----------14------------------|-----14--10------10--------------|
D|------------------------------|-------------------------------|-------------12------------------|
A|------------------------------|-------------------------------|---------------------------------|
E|------------------------------|-------------------------------|---------------------------------|


E|-10-----------22---17------|------------------------------|----------------|---------20--17------------------|
B|-----10----------------18--|------------------------------|--------20--17--|-----------------20--17--20--17--|
G|---------10----------------|-19---------------------------|----------------|-19--17--------------------------|
D|---------------------------|-----19----------19--17--17---|----------------|---------------------------------|
A|---------------------------|---------20--17---------------|----------------|---------------------------------|
E|---------------------------|------------------------------|----------------|---------------------------------|


E|---------20--17----------20--17--|-----------------20--17----------|-20---20--20--20-----------|
B|-----------------20--17----------|-20--17------------------20--17--|---------------------------|
G|-19--17--------------------------|---------19--17------------------|---------------------------|
D|---------------------------------|---------------------------------|-------------------0---1---|
A|---------------------------------|---------------------------------|---------------------------|
E|---------------------------------|---------------------------------|---------------------------|


E|--------------------------|------------------------|---------------------------------|
B|--------------------------|-10---9----8----7-------|---------------------------------|
G|---------------------9----|--------------------10--|-9---7---10---9----7-------------|
D|------7----9----10--------|------------------------|------------------------11---10--|
A|--------------------------|------------------------|---------------------------------|
E|--------------------------|------------------------|---------------------------------|


E|-------------------------------|-----5------------------------|-------------|-5----------------------------|
B|-------------------------------|---------3---5----------------|-------------|-----8---5--------------------|
G|-------------------------------|-----------------7---5--------|-------------|-------------8---7---5--------|
D|-----9--------9---10--9---7----|-------------------------7----|--------7----|-------------------------7----|
A|----------12-------------------|------------------------------|-------------|------------------------------|
E|-------------------------------|------------------------------|-------------|------------------------------|


E|-------------|-5-------------------------------|-----------------13--15----------|
B|-------------|-----8---5-----------------------|-------------15------------------|
G|-------------|-------------8---7---5---17-14---|-----14--17--------------17--14--|
D|--------7----|---------------------------------|-17------------------------------|
A|-------------|---------------------------------|---------------------------------|
E|-------------|---------------------------------|---------------------------------|


E|---------------------------22---|------22---20--17-------|-----------------|
B|-------------------17-----------|-------------------20---|-20--------------|
G|-----14--17--1719------19-------|------------------------|-----------------|
D|-17-----------------------------|------------------------|-----------------|
A|--------------------------------|------------------------|-----------------|
E|--------------------------------|------------------------|-----------------|





Track 4: David Ellefson

G|-10--9---------------------------|-10--9-----------10--9-----------|---------------------------------|
D|-10--10--------------------------|-10--10----------10--10----------|---------------------------------|
A|-0---0---0---0---0---0---0---0---|-0---0---0---0---0---0---0---0---|-3---4---0---0---0---0---0---0---|
E|---------------------------------|---------------------------------|---------------------------------|


G|---------------------------------|-10--9---------------------------|-10--9-----------10--9-----------|
D|---------------------------------|-10--10--------------------------|-10--10----------10--10----------|
A|-0---0---0---0---0---0---0---0---|-0---0---0---0---0---0---0---0---|-0---0---0---0---0---0---0---0---|
E|---------------------------------|---------------------------------|---------------------------------|


G|---------------------------------|---------------------------------|-10--9---------------------------|
D|---------------------------------|---------------------------------|-10--10--------------------------|
A|-3---4---0---0---0---0---0---0---|-0---0---0---0---0---0---0---0---|-0---0---0---0---0---0---0---0---|
E|---------------------------------|---------------------------------|---------------------------------|


G|-10--9-----------10--9-----------|---------------------------------|---------------------------------|
D|-10--10----------10--10----------|---------------------------------|---------------------------------|
A|-0---0---0---0---0---0---0---0---|-3---4---0---0---0---0---0---0---|-0---0---0---0---0---0---0---0---|
E|---------------------------------|---------------------------------|---------------------------------|


G|-10--9---------------------------|-10--9-----------10--9-----------|---------------------------------|
D|-10--10--------------------------|-10--10----------10--10----------|---------------------------------|
A|-0---0---0---0---0---0---0---0---|-0---0---0---0---0---0---0---0---|-3---4---0---0---0---0---0---0---|
E|---------------------------------|---------------------------------|---------------------------------|


G|---------------------------------|-10--9---------------------------|-10--9-----------10--9-----------|
D|---------------------------------|-10--10--------------------------|-10--10----------10--10----------|
A|-0---0---0---0---0---0---0---0---|-0---0---0---0---0---0---0---0---|-0---0---0---0---0---0---0---0---|
E|---------------------------------|---------------------------------|---------------------------------|


G|---------------------------------|---------------------------------|-10--9---------------------------|
D|---------------------------------|---------------------------------|-10--10--------------------------|
A|-3---4---0---0---0---0---0---0---|-0---0---0---0---0---0---0---0---|-0---0---0---0---0---0---0---0---|
E|---------------------------------|---------------------------------|---------------------------------|


G|-10--9-----------10--9-----------|---------------------------------|---------------------------------|
D|-10--10----------10--10----------|---------------------------------|---------------------------------|
A|-0---0---0---0---0---0---0---0---|-3---4---0---0---0---0---0---0---|-0---0---0---0---0---0---0---0---|
E|---------------------------------|---------------------------------|---------------------------------|


G|-10--9---------------------------|-10--9-----------10--9-----------|---------------------------------|
D|-10--10--------------------------|-10--10----------10--10----------|---------------------------------|
A|-0---0---0---0---0---0---0---0---|-0---0---0---0---0---0---0---0---|-3---4---0---0---0---0---0---0---|
E|---------------------------------|---------------------------------|---------------------------------|


G|---------------------------------|-10--9---------------------------|-10--9-----------10--9-----------|
D|---------------------------------|-10--10--------------------------|-10--10----------10--10----------|
A|-0---0---0---0---0---0---0---0---|-0---0---0---0---0---0---0---0---|-0---0---0---0---0---0---0---0---|
E|---------------------------------|---------------------------------|---------------------------------|


G|-----------------------|--------|--------|--------|--------|---------------------------------|
D|-----------------------|--------|--------|--------|--------|---------------------------------|
A|-3---4---0---12--12----|-12-----|-12-----|-12-----|-12-----|-0---0---0---0---0---0---0---0---|
E|-----------------------|--------|--------|--------|--------|---------------------------------|


G|---------------------------------|---------------------------------|---------------------|
D|---------------------------------|---------------------------------|---------------------|
A|-0---0---0---0---3---3---3---3---|-3---3---3---3---3---3---3---3---|-5-----3---3----2----|
E|---------------------------------|---------------------------------|---------------------|


G|---------------------------------|---------------------------------|---------------------------------|
D|---------------------------------|---------------------------------|---------------------------------|
A|-0---0---0---0---0---0---0---0---|-0---0---0---0---3---3---3---3---|-3---3---3---3---3---3---3---3---|
E|---------------------------------|---------------------------------|---------------------------------|


G|---------------------|---------------------------------|---------------------------------|
D|---------------------|---------------------------------|---------------------------------|
A|-5-----6---6----7----|-0---0---0---0---0---0---0---0---|-0---0---0---0---3---3---3---3---|
E|---------------------|---------------------------------|---------------------------------|


G|---------------------------------|---------------------|---------------------------------|
D|---------------------------------|---------------------|---------------------------------|
A|-3---3---3---3---3---3---3---3---|-5-----3---3----2----|-0---0---0---0---0---0---0---0---|
E|---------------------------------|---------------------|---------------------------------|


G|---------------------------------|---------------------------------|---------------------|
D|---------------------------------|---------------------------------|---------------------|
A|-0---0---0---0---3---3---3---3---|-3---3---3---3---3---3---3---3---|-5-----6---6----7----|
E|---------------------------------|---------------------------------|---------------------|


G|---------------------------------|---------------------------------|---------------------------------|
D|---------------------------------|---------------------------------|---------------------------------|
A|-0---0---0---0---0---0---0---0---|-0---0---0---0---3---3---3---3---|-3---3---3---3---3---3---3---3---|
E|---------------------------------|---------------------------------|---------------------------------|


G|---------------------|---------------------------------|---------------------------------|
D|---------------------|---------------------------------|---------------------------------|
A|-5-----3---3----2----|-0---0---0---0---0---0---0---0---|-0---0---0---0---3---3---3---3---|
E|---------------------|---------------------------------|---------------------------------|


G|---------------------------------|---------------------|---------------------------------|
D|---------------------------------|---------------------|---------------------------------|
A|-3---3---3---3---3---3---3---3---|-5-----6---6----7----|-0---0---0---0---0---0---0---0---|
E|---------------------------------|---------------------|---------------------------------|


G|---------------------------------|---------------------------------|---------------------|
D|---------------------------------|---------------------------------|---------------------|
A|-0---0---0---0---3---3---3---3---|-3---3---3---3---3---3---3---3---|-5-----3---3----2----|
E|---------------------------------|---------------------------------|---------------------|


G|---------------------------------|---------------------------------|---------------------------------|
D|---------------------------------|---------------------------------|---------------------------------|
A|-0---0---0---0---0---0---0---0---|-0---0---0---0---3---3---3---3---|-3---3---3---3---3---3---3---3---|
E|---------------------------------|---------------------------------|---------------------------------|


G|---------------------|---------------------------------|---------------------------------|
D|---------------------|---------------------------------|---------------------------------|
A|-5-----6---6----7----|-0---0---0---0---0---0---0---0---|-0---0---0---0---3---3---3---3---|
E|---------------------|---------------------------------|---------------------------------|


G|---------------------------------|---------------------|---------------------------------|
D|---------------------------------|---------------------|---------------------------------|
A|-3---3---3---3---3---3---3---3---|-5-----3---3----2----|-0---0---0---0---0---0---0---0---|
E|---------------------------------|---------------------|---------------------------------|


G|---------------------------------|---------------------------------|---------------------|
D|---------------------------------|---------------------------------|---------------------|
A|-0---0---0---0---3---3---3---3---|-3---3---3---3---3---3---3---3---|-5-----6---6----7----|
E|---------------------------------|---------------------------------|---------------------|


G|---------------------------------|---------------------------------|---------------------------------|
D|---------------------------------|---------------------------------|---------------------------------|
A|-0---0---0---0---0---0---0---0---|-0---0---0---0---3---3---3---3---|-3---3---3---3---3---3---3---3---|
E|---------------------------------|---------------------------------|---------------------------------|


G|---------------------|---------------------------------|---------------------------------|
D|---------------------|---------------------------------|---------------------------------|
A|-5-----3---3----2----|-0---0---0---0---0---0---0---0---|-0---0---0---0---3---3---3---3---|
E|---------------------|---------------------------------|---------------------------------|


G|---------------------------------|---------------------|---------------------|---------------------|
D|---------------------------------|---------------------|---------------------|---------------------|
A|-3---3---3---3---3---3---3---3---|-5-----6---6----7----|---------------------|---------------------|
E|---------------------------------|---------------------|-1-----2---2----3----|-3---4-----3----2----|


G|--------|--------|---------------------|---------------------|--------|--------|
D|--------|--------|---------------------|---------------------|--------|--------|
A|--------|--------|---------------------|---------------------|-2------|-2------|
E|-5------|-5------|-1-----2---2----3----|-3---4-----3----2----|--------|--------|


G|---------------------|---------------------|---------------------|---------------------|
D|---------------------|---------------------|---------------------|---------------------|
A|---------------------|---------------------|---------------------|---------------------|
E|-1-----2---2----3----|-3---4-----3----2----|-2-----3---3----4----|-4---5-----4----3----|


G|---------------------|---------------------|---------------------|---------------------|
D|---------------------|---------------------|---------------------|---------------------|
A|---------------------|---------------------|---------------------|---------------------|
E|-3-----4---4----5----|-5---6-----5----4----|-5-----6---6----7----|-5-----6---6----7----|


G|------------------------------|---------------------------------|------------------------------|
D|-10---------------------------|-------------------------10--9---|-9----------------------------|
A|------0---0---0---0---0---0---|-0---0---0---0---0---0-----------|------0---0---0---0---0---0---|
E|------------------------------|---------------------------------|------------------------------|


G|---------------------------------|------------------------------|---------------------------------|
D|-------------------------9---8---|-8----------------------------|-------------------------8---7---|
A|-0---0---0---0---0---0-----------|------0---0---0---0---0---0---|-0---0---0---0---0---0-----------|
E|---------------------------------|------------------------------|---------------------------------|


G|------------------------------|---------------------------------|------------------------------|
D|-7----------------------------|-------------------------7---6---|-6----------------------------|
A|------0---0---0---0---0---0---|-0---0---0---0---0---0-----------|------0---0---0---0---0---0---|
E|------------------------------|---------------------------------|------------------------------|


G|---------------------------------|------------------------------|---------------------------------|
D|-------------------------6---5---|-5----------------------------|-------------------------5---4---|
A|-0---0---0---0---0---0-----------|------0---0---0---0---0---0---|-0---0---0---0---0---0-----------|
E|---------------------------------|------------------------------|---------------------------------|


G|------------------------------|---------------------------------|--------------------|
D|-4----------------------------|-------------------------4---3---|-3------------------|
A|------0---0---0---0---0---0---|-0---0---0---0---0---0-----------|--------------------|
E|------------------------------|---------------------------------|---------------1----|


G|------------------------|---------------------------|---------------------|-------------|
D|------------------------|---------------------------|---------------------|-------------|
A|------------------------|---------------------------|---------------------|-------------|
E|-----3---3----3----1----|-----2---2----3----3---4---|------3----2----5----|--------5----|


G|-------------|---------------------------|---------------------|-------------|-------------|
D|-------------|---------------------------|---------------------|-------------|-------------|
A|-------------|---------------------------|----------------2----|--------2----|--------0----|
E|--------1----|-----2---2----3----3---4---|------3----2---------|-------------|-------------|


G|---------------------------------|------------------------------|---------------------------------|
D|---------------------------------|------------------------------|---------------------------------|
A|-0---0---0---0---0---0---0---0---|-0---0---0---0---0---0---3----|-0---0---0---0---0---0---0---0---|
E|---------------------------------|------------------------------|---------------------------------|


G|------------------------------|---------------------------------|------------------------------|
D|------------------------------|---------------------------------|------------------------------|
A|-0---0---0---0---0---0---5----|-0---0---0---0---0---0---0---0---|-0---0---0---0---0---0---8----|
E|------------------------------|---------------------------------|------------------------------|


G|------------------------------|------------------------------|---------------------------------|
D|------------------------------|------------------------------|---------------------------------|
A|-0---0---0---0---0---0---7----|-0---0---0---0---0---0---0----|-0---0---0---0---0---0---0---0---|
E|------------------------------|------------------------------|---------------------------------|


G|------------------------------|---------------------------------|------------------------------|
D|------------------------------|---------------------------------|------------------------------|
A|-0---0---0---0---0---0---3----|-0---0---0---0---0---0---0---0---|-0---0---0---0---0---0---5----|
E|------------------------------|---------------------------------|------------------------------|


G|---------------------------------|------------------------------|------------------------------|
D|---------------------------------|------------------------------|------------------------------|
A|-0---0---0---0---0---0---0---0---|-0---0---0---0---0---0---8----|-0---0---0---0---0---0---7----|
E|---------------------------------|------------------------------|------------------------------|


G|------------------------------|---------------------------------|------------------------------|
D|------------------------------|---------------------------------|------------------------------|
A|-0---0---0---0---0---0---0----|-0---0---0---0---0---0---0---0---|-0---0---0---0---0---0---3----|
E|------------------------------|---------------------------------|------------------------------|


G|---------------------------------|------------------------------|---------------------------------|
D|---------------------------------|------------------------------|---------------------------------|
A|-0---0---0---0---0---0---0---0---|-0---0---0---0---0---0---5----|-0---0---0---0---0---0---0---0---|
E|---------------------------------|------------------------------|---------------------------------|


G|------------------------------|------------------------------|------------------------------|
D|------------------------------|------------------------------|------------------------------|
A|-0---0---0---0---0---0---8----|-0---0---0---0---0---0---7----|-0---0---0---0---0---0---0----|
E|------------------------------|------------------------------|------------------------------|


G|---------------------------------|------------------------------|---------------------------------|
D|---------------------------------|------------------------------|---------------------------------|
A|-0---0---0---0---0---0---0---0---|-0---0---0---0---0---0---3----|-0---0---0---0---0---0---0---0---|
E|---------------------------------|------------------------------|---------------------------------|


G|------------------------------|---------------------------------|------------------------------|
D|------------------------------|---------------------------------|-------------------------3----|
A|-0---0---0---0---0---0---5----|-0---0---0---0---0---0---0---0---|-0---0---0---0---0---0--------|
E|------------------------------|---------------------------------|------------------------------|


G|-----2---2---5-------------|-----1---1---5-------------|---------------------------------|
D|-----------------3----2----|-----------------2---------|---------------------------------|
A|---------------------------|----------------------0----|-0---0---0---0---0---0---0---0---|
E|---------------------------|---------------------------|---------------------------------|


G|------------------------------|---------------------------------|------------------------------|
D|------------------------------|---------------------------------|------------------------------|
A|-0---0---0---0---0---0---3----|-3---3---3---3---3---3---3---3---|-3---3---3---3---3---3---5----|
E|------------------------------|---------------------------------|------------------------------|


G|---------------------------------|------------------------------|------------------------------|
D|---------------------------------|------------------------------|------------------------------|
A|-5---5---5---5---5---5---5---5---|-5---5---5---5---5---5---8----|-8---8---8---8---8---8---7----|
E|---------------------------------|------------------------------|------------------------------|


G|------------------------------|---------------------------------|------------------------------|
D|------------------------------|---------------------------------|------------------------------|
A|-7---7---7---7---7---7---0----|-0---0---0---0---0---0---0---0---|-0---0---0---0---0---0---3----|
E|------------------------------|---------------------------------|------------------------------|


G|---------------------------------|------------------------------|---------------------------------|
D|---------------------------------|------------------------------|---------------------------------|
A|-3---3---3---3---3---3---3---3---|-3---3---3---3---3---3---5----|-5---5---5---5---5---5---5---5---|
E|---------------------------------|------------------------------|---------------------------------|


G|------------------------------|------------------------------|------------------------------|
D|------------------------------|------------------------------|------------------------------|
A|-5---5---5---5---5---5---8----|-8---8---8---8---8---8---7----|-7---7---7---7---7---7---0----|
E|------------------------------|------------------------------|------------------------------|


G|------------------------------|------------------------|------------------------------|
D|------------------------------|------------------------|------------------------------|
A|-0---0---0---0---0---0---0----|-----1---1----2----3----|-3---3---3---3---3---3---3----|
E|------------------------------|------------------------|------------------------------|


G|------------------------|------------------------------|------------------------|
D|------------------------|------------------------------|------------------------|
A|-----5---5----7----5----|-5---5---5---5---5---5---5----|-----6---6----7----8----|
E|------------------------|------------------------------|------------------------|


G|------------------------------|------------------------------|-------------|------------------------|
D|------------------------------|------------------------------|-------------|------------------------|
A|-8---8---8---8---8---8---7----|-7---7---7---7---7---7---0----|--------0----|-----1---1----2----3----|
E|------------------------------|------------------------------|-------------|------------------------|


G|-------------|------------------------|-------------|------------------------|-------------|
D|-------------|------------------------|-------------|------------------------|-------------|
A|--------3----|-----5---5----7----5----|--------5----|-----6---6----7----7----|--------8----|
E|-------------|------------------------|-------------|------------------------|-------------|


G|-------------|-----------------|
D|-------------|-----------------|
A|--------0----|-----------------|
E|-------------|-----------------|