Menu:

 

Search:

 

megadeth - poison was the cure:

 



Title: Poison Was The Cure
Artist: 
Album: Rust In Peace
Author: Dave Mustaine


Track 1: Dave Mustaine

E|--------|--------|--------|--------|--------|--------|--------|--------|--------|
B|--------|--------|--------|--------|--------|--------|--------|--------|--------|
G|--------|--------|--------|--------|--------|--------|--------|--------|--------|
D|--------|--------|--------|--------|--------|--------|--------|--------|--------|
A|--------|--------|--------|--------|--------|--------|--------|--------|--------|
E|--------|--------|--------|--------|--------|--------|--------|--------|--------|


E|--------|--------|--------|--------|--------|--------|--------|---------------------------------|
B|--------|--------|--------|--------|--------|--------|--------|---------------------------------|
G|--------|--------|--------|--------|--------|--------|--------|---------------------------------|
D|--------|--------|--------|--------|--------|--------|--------|-2---2---2---2---2---2---2---2---|
A|--------|--------|--------|--------|--------|--------|--------|-0---0---0---0---0---0---0---0---|
E|--------|--------|--------|--------|--------|--------|--------|---------------------------------|


E|---------------------------------|-----------------------|--------|---------------------------------|
B|---------------------------------|-----------------------|--------|---------------------------------|
G|---------------------------------|-----------------------|--------|---------------------------------|
D|-2---2---2---2---2---2---2---2---|-5---6-------2---------|--------|-2---2---2---2---2---2---2---2---|
A|-0---0---0---0---0---0---0---0---|-3---4---0---0---------|--------|-0---0---0---0---0---0---0---0---|
E|---------------------------------|-----------------------|--------|---------------------------------|


E|---------------------------------|-----------------------|--------|---------------------------------|
B|---------------------------------|-----------------------|--------|---------------------------------|
G|---------------------------------|-----------------------|--------|---------------------------------|
D|-2---2---2---2---2---2---2---2---|-5---6-------2---------|--------|-2---2---2---2---2---2---2---2---|
A|-0---0---0---0---0---0---0---0---|-3---4---0---0---------|--------|-0---0---0---0---0---0---0---0---|
E|---------------------------------|-----------------------|--------|---------------------------------|


E|---------------------------------|-----------------------|--------|---------------------------------|
B|---------------------------------|-----------------------|--------|---------------------------------|
G|---------------------------------|-----------------------|--------|---------------------------------|
D|-2---2---2---2---2---2---2---2---|-5---6-------2---------|--------|-2---2---2---2---2---2---2---2---|
A|-0---0---0---0---0---0---0---0---|-3---4---0---0---------|--------|-0---0---0---0---0---0---0---0---|
E|---------------------------------|-----------------------|--------|---------------------------------|


E|---------------------------------|-----------------------|--------|--------|--------|
B|---------------------------------|-----------------------|--------|--------|--------|
G|---------------------------------|-----------------------|--------|--------|--------|
D|-2---2---2---2---2---2---2---2---|-5---6---14--14--14----|-14-----|-14-----|-14-----|
A|-0---0---0---0---0---0---0---0---|-3---4---12--12--12----|-12-----|-12-----|-12-----|
E|---------------------------------|-----------------------|--------|--------|--------|


E|--------|------------------------------|---------------------------------|------------------------------|
B|--------|------------------------------|---------------------------------|------------------------------|
G|--------|------------------------------|---------------------------------|------------------------------|
D|-14-----|------7---5-------5-----------|-5---7---5-------5---------------|------7---5-------5-----------|
A|-12-----|-0------------7-------6---7---|-------------7-------7---6---5---|-0------------7-------6---0---|
E|--------|------------------------------|---------------------------------|------------------------------|


E|------------------------------|------------------------------|---------------------------------|
B|------------------------------|------------------------------|---------------------------------|
G|-7---5---0---5---4---0---4----|------------------------------|---------------------------------|
D|------------------------------|------7---5-------5-----------|-5---7---5-------5---------------|
A|------------------------------|-0------------7-------6---7---|-------------7-------7---6---5---|
E|------------------------------|------------------------------|---------------------------------|


E|------------------------------|------------------------------|------------------------------|
B|------------------------------|------------------------------|------------------------------|
G|------------------------------|------------------------------|------------------------------|
D|------7---5-------5-----------|------------------------------|------7---5-------5-----------|
A|-0------------7-------6---0---|-5---3---0---6---4---0---7----|-0------------7-------6---7---|
E|------------------------------|------------------------------|------------------------------|


E|---------------------------------|------------------------------|------------------------------|
B|---------------------------------|------------------------------|------------------------------|
G|---------------------------------|------------------------------|-7---5---0---5---4---0---4----|
D|-5---7---5-------5---------------|------7---5-------5-----------|------------------------------|
A|-------------7-------7---6---5---|-0------------7-------6---0---|------------------------------|
E|---------------------------------|------------------------------|------------------------------|


E|------------------------------|---------------------------------|------------------------------|
B|------------------------------|---------------------------------|------------------------------|
G|------------------------------|---------------------------------|------------------------------|
D|------7---5-------5-----------|-5---7---5-------5---------------|------7---5-------5-----------|
A|-0------------7-------6---7---|-------------7-------7---6---5---|-0------------7-------6---0---|
E|------------------------------|---------------------------------|------------------------------|


E|------------------------------|------------------------------|---------------------------------|
B|------------------------------|------------------------------|---------------------------------|
G|------------------------------|------------------------------|---------------------------------|
D|------------------------------|------7---5-------5-----------|-5---7---5-------5---------------|
A|-5---3---0---6---4---0---7----|-0------------7-------6---7---|-------------7-------7---6---5---|
E|------------------------------|------------------------------|---------------------------------|


E|------------------------------|------------------------------|------------------------------|
B|------------------------------|------------------------------|------------------------------|
G|------------------------------|-7---5---0---5---4---0---4----|------------------------------|
D|------7---5-------5-----------|------------------------------|------7---5-------5-----------|
A|-0------------7-------6---0---|------------------------------|-0------------7-------6---7---|
E|------------------------------|------------------------------|------------------------------|


E|---------------------------------|------------------------------|------------------------------|
B|---------------------------------|------------------------------|------------------------------|
G|---------------------------------|------------------------------|------------------------------|
D|-5---7---5-------5---------------|------7---5-------5-----------|------------------------------|
A|-------------7-------7---6---5---|-0------------7-------6---0---|-5---3---0---6---4---0---7----|
E|---------------------------------|------------------------------|------------------------------|


E|------------------------------|---------------------------------|------------------------------|
B|------------------------------|---------------------------------|------------------------------|
G|------------------------------|---------------------------------|------------------------------|
D|------7---5-------5-----------|-5---7---5-------5---------------|------7---5-------5-----------|
A|-0------------7-------6---7---|-------------7-------7---6---5---|-0------------7-------6---0---|
E|------------------------------|---------------------------------|------------------------------|


E|------------------------------|------------------------------|---------------------------------|
B|------------------------------|------------------------------|---------------------------------|
G|-7---5---0---5---4---0---4----|------------------------------|---------------------------------|
D|------------------------------|------7---5-------5-----------|-5---7---5-------5---------------|
A|------------------------------|-0------------7-------6---7---|-------------7-------7---6---5---|
E|------------------------------|------------------------------|---------------------------------|


E|------------------------------|------------------------------|------------------------------|
B|------------------------------|------------------------------|------------------------------|
G|------------------------------|------------------------------|------------------------------|
D|------7---5-------5-----------|------------------------------|------7---5-------5-----------|
A|-0------------7-------6---0---|-5---3---0---6---4---0---7----|-0------------7-------6---7---|
E|------------------------------|------------------------------|------------------------------|


E|---------------------------------|------------------------------|------------------------------|
B|---------------------------------|------------------------------|------------------------------|
G|---------------------------------|------------------------------|-7---5---0---5---4---0---4----|
D|-5---7---5-------5---------------|------7---5-------5-----------|------------------------------|
A|-------------7-------7---6---5---|-0------------7-------6---0---|------------------------------|
E|---------------------------------|------------------------------|------------------------------|


E|------------------------------|---------------------------------|------------------------------|
B|------------------------------|---------------------------------|------------------------------|
G|------------------------------|---------------------------------|------------------------------|
D|------7---5-------5-----------|-5---7---5-------5---------------|------7---5-------5-----------|
A|-0------------7-------6---7---|-------------7-------7---6---5---|-0------------7-------6---0---|
E|------------------------------|---------------------------------|------------------------------|


E|------------------------------|------------------------------|---------------------------------|
B|------------------------------|------------------------------|---------------------------------|
G|------------------------------|------------------------------|---------------------------------|
D|------------------------------|------7---5-------5-----------|-5---7---5-------5---------------|
A|-5---3---0---6---4---0---7----|-0------------7-------6---7---|-------------7-------7---6---5---|
E|------------------------------|------------------------------|---------------------------------|


E|------------------------------|------------------------------|------------------------------|
B|------------------------------|------------------------------|------------------------------|
G|------------------------------|-7---5---0---5---4---0---4----|------------------------------|
D|------7---5-------5-----------|------------------------------|------7---5-------5-----------|
A|-0------------7-------6---0---|------------------------------|-0------------7-------6---7---|
E|------------------------------|------------------------------|------------------------------|


E|---------------------------------|------------------------------|------------------------------|
B|---------------------------------|------------------------------|------------------------------|
G|---------------------------------|------------------------------|------------------------------|
D|-5---7---5-------5---------------|------7---5-------5-----------|------------------------------|
A|-------------7-------7---6---5---|-0------------7-------6---0---|-5---3---0---6---4---0---7----|
E|---------------------------------|------------------------------|------------------------------|


E|---------------------|---------------------|--------|--------|---------------------|
B|---------------------|---------------------|--------|--------|---------------------|
G|---------------------|---------------------|--------|--------|---------------------|
D|---------------------|---------------------|-2------|-2------|---------------------|
A|-3-----4---4----5----|-5---6-----5----4----|-0------|-0------|-3-----4---4----5----|
E|-1-----2---2----3----|-3---4-----3----2----|--------|--------|-1-----2---2----3----|


E|---------------------|--------|--------|---------------------|---------------------|
B|---------------------|--------|--------|---------------------|---------------------|
G|---------------------|--------|--------|---------------------|---------------------|
D|----------------5----|-4------|-4------|---------------------|---------------------|
A|-5---6-----5----3----|-2------|-2------|-3-----4---4----5----|-5---6-----5----2----|
E|-3---4-----3---------|--------|--------|-1-----2---2----3----|-3---4-----3----0----|


E|---------------------|---------------------|---------------------|---------------------|
B|---------------------|---------------------|---------------------|---------------------|
G|---------------------|---------------------|---------------------|---------------------|
D|---------------------|---------------------|---------------------|---------------------|
A|-4-----5---5----6----|-6---7-----6----2----|-5-----6---6----7----|-8-----7---7----2----|
E|-2-----3---3----4----|-4---5-----4----0----|-3-----4---4----5----|-6-----5---5----0----|


E|---------------------|---------------------|------------------------------|---------------------------------|
B|---------------------|---------------------|------------------------------|---------------------------------|
G|---------------------|---------------------|-12---------------------------|-------------------------12--11--|
D|---------------------|---------------------|-10---------------------------|-------------------------10--9---|
A|-7-----8---8----9----|-7-----8---8----9----|------0---0---0---0---0---0---|-0---0---0---0---0---0-----------|
E|-5-----6---6----7----|-5-----6---6----7----|------------------------------|---------------------------------|


E|------------------------------|---------------------------------|------------------------------|
B|------------------------------|---------------------------------|------------------------------|
G|-11---------------------------|-------------------------10--9---|-9----------------------------|
D|-9----------------------------|-------------------------8---7---|-7----------------------------|
A|------0---0---0---0---0---0---|-0---0---0---0---0---0-----------|------0---0---0---0---0---0---|
E|------------------------------|---------------------------------|------------------------------|


E|---------------------------------|------------------------------|---------------------------------|
B|---------------------------------|------------------------------|---------------------------------|
G|-------------------------9---8---|-8----------------------------|-------------------------8---7---|
D|-------------------------7---6---|-6----------------------------|-------------------------6---5---|
A|-0---0---0---0---0---0-----------|------0---0---0---0---0---0---|-0---0---0---0---0---0-----------|
E|---------------------------------|------------------------------|---------------------------------|


E|------------------------------|---------------------------------|------------------------------|
B|------------------------------|---------------------------------|------------------------------|
G|-7----------------------------|-------------------------7---6---|-6----------------------------|
D|-5----------------------------|-------------------------5---4---|-4----------------------------|
A|------0---0---0---0---0---0---|-0---0---0---0---0---0-----------|------0---0---0---0---0---0---|
E|------------------------------|---------------------------------|------------------------------|


E|---------------------------------|--------------------|------------------------|
B|---------------------------------|--------------------|------------------------|
G|-------------------------6---5---|-5------------------|------------------------|
D|-------------------------4---3---|-3------------------|-----5---5--------------|
A|-0---0---0---0---0---0-----------|---------------3----|-----3---3----5----3----|
E|---------------------------------|---------------1----|-----3---3----3----1----|


E|---------------------------|---------------------|-------------|-------------|---------------------------|
B|---------------------------|---------------------|-------------|-------------|---------------------------|
G|---------------------------|---------------------|-------------|-------------|---------------------------|
D|---------------------------|----------------2----|--------2----|-------------|---------------------------|
A|-----4---4----5----5---6---|------5----4----0----|--------0----|--------3----|-----4---4----5----5---6---|
E|-----2---2----3----3---4---|------3----2---------|-------------|--------1----|-----2---2----3----3---4---|


E|---------------------|-------------|-------------|---------------------------------|
B|---------------------|-------------|-------------|---------------------------------|
G|---------------------|-------------|-------------|-2---0-------5---2---0---2---0---|
D|-----------5----4----|--------5----|-------------|---------------------------------|
A|------5----3----2----|--------5----|--------0----|---------0-----------------------|
E|------3--------------|--------3----|-------------|---------------------------------|


E|------------------------------|---------------------------------|------------------------------|
B|------------------------------|---------------------------------|------------------------------|
G|------------------------------|-2---0-------5---2---0---2---0---|------------------------------|
D|-2---0---0---1---2---0--------|---------------------------------|-2---0---0---1---2---0---0----|
A|-------------------------3----|---------3-----------------------|------------------------------|
E|------------------------------|---------------------------------|------------------------------|


E|---------------------------|---------------------------|---------------------------|
B|---------------------------|---------------------------|---------------------------|
G|-2---0-------5-----2---0---|-----5---5---2---0---------|-----2---2---5-------------|
D|---------0-----------------|-0--------------------3----|-0---------------3----2----|
A|---------------------------|---------------------------|---------------------------|
E|---------------------------|---------------------------|---------------------------|


E|---------------------------|---------------------------------|------------------------------|
B|---------------------------|---------------------------------|------------------------------|
G|-----1---1---4-------------|-2---0-------5---2---0---2---0---|------------------------------|
D|-0---------------2---------|---------------------------------|-2---0---0---1---2---0--------|
A|----------------------0----|---------0-----------------------|-------------------------3----|
E|---------------------------|---------------------------------|------------------------------|


E|---------------------------------|------------------------------|---------------------------|
B|---------------------------------|------------------------------|---------------------------|
G|-2---0-------5---2---0---2---0---|------------------------------|-2---0-------5-----2---0---|
D|---------------------------------|-2---0---0---1---2---0---0----|---------0-----------------|
A|---------3-----------------------|------------------------------|---------------------------|
E|---------------------------------|------------------------------|---------------------------|


E|---------------------------|---------------------------|---------------------------|
B|---------------------------|---------------------------|---------------------------|
G|-----5---5---2---0---------|-----2---2---5-------------|-----1---1---4-------------|
D|-0--------------------3----|-0---------------3----2----|-0---------------2---------|
A|---------------------------|---------------------------|----------------------0----|
E|---------------------------|---------------------------|---------------------------|


E|---------------------------------|------------------------------|---------------------------------|
B|---------------------------------|------------------------------|---------------------------------|
G|-2---0-------5---2---0---2---0---|------------------------------|-2---0-------5---2---0---2---0---|
D|---------------------------------|-2---0---0---1---2---0--------|---------------------------------|
A|---------0-----------------------|-------------------------3----|---------3-----------------------|
E|---------------------------------|------------------------------|---------------------------------|


E|------------------------------|---------------------------|---------------------------|
B|------------------------------|---------------------------|---------------------------|
G|------------------------------|-2---0-------5-----2---0---|-----5---5---2---0---------|
D|-2---0---0---1---2---0---0----|---------0-----------------|-0--------------------3----|
A|------------------------------|---------------------------|---------------------------|
E|------------------------------|---------------------------|---------------------------|


E|---------------------------|---------------------------|---------------------------|
B|---------------------------|---------------------------|---------------------------|
G|-----2---2---5-------------|-----1---1---4-------------|-----2---2---5-------------|
D|-0---------------3----2----|-0---------------2----3----|-0---------------3----2----|
A|---------------------------|---------------------------|---------------------------|
E|---------------------------|---------------------------|---------------------------|


E|---------------------------|---------------------------------|------------------------------|
B|---------------------------|---------------------------------|------------------------------|
G|-----1---1---4-------------|---------------------------------|------------------------------|
D|-0---------------2----2----|---------------------------------|-------------------------5----|
A|----------------------0----|-0---0---0---0---0---0---0---0---|-0---0---0---0---0---0---3----|
E|---------------------------|---------------------------------|------------------------------|


E|---------------------------------|------------------------------|---------------------------------|
B|---------------------------------|------------------------------|---------------------------------|
G|---------------------------------|------------------------------|---------------------------------|
D|---------------------------------|-------------------------7----|---------------------------------|
A|-3---3---3---3---3---3---3---3---|-3---3---3---3---3---3---5----|-5---5---5---5---5---5---5---5---|
E|---------------------------------|------------------------------|---------------------------------|


E|------------------------------|------------------------------|------------------------------|
B|------------------------------|------------------------------|------------------------------|
G|------------------------------|------------------------------|------------------------------|
D|-------------------------10---|-------------------------9----|-------------------------2----|
A|-5---5---5---5---5---5---8----|-8---8---8---8---8---8---7----|-7---7---7---7---7---7---0----|
E|------------------------------|------------------------------|------------------------------|


E|---------------------------------|------------------------------|---------------------------------|
B|---------------------------------|------------------------------|---------------------------------|
G|---------------------------------|------------------------------|---------------------------------|
D|---------------------------------|-------------------------5----|---------------------------------|
A|-0---0---0---0---0---0---0---0---|-0---0---0---0---0---0---3----|-3---3---3---3---3---3---3---3---|
E|---------------------------------|------------------------------|---------------------------------|


E|------------------------------|---------------------------------|------------------------------|
B|------------------------------|---------------------------------|------------------------------|
G|------------------------------|---------------------------------|------------------------------|
D|-------------------------7----|---------------------------------|-------------------------10---|
A|-3---3---3---3---3---3---5----|-5---5---5---5---5---5---5---5---|-5---5---5---5---5---5---8----|
E|------------------------------|---------------------------------|------------------------------|


E|------------------------------|------------------------------|------------------------------|
B|------------------------------|------------------------------|------------------------------|
G|------------------------------|------------------------------|------------------------------|
D|-------------------------9----|-------------------------2----|-------------------------2----|
A|-8---8---8---8---8---8---7----|-7---7---7---7---7---7---0----|-0---0---0---0---0---0---0----|
E|------------------------------|------------------------------|------------------------------|


E|------------------------|------------------------------|------------------------|
B|------------------------|------------------------------|------------------------|
G|------------------------|------------------------------|------------------------|
D|-----3---3----4----5----|-------------------------5----|-----6---6----9----7----|
A|-----1---1----2----3----|-3---3---3---3---3---3---3----|-----4---4----7----5----|
E|------------------------|------------------------------|------------------------|


E|------------------------------|------------------------|------------------------------|
B|------------------------------|------------------------|------------------------------|
G|------------------------------|------------------------|------------------------------|
D|-------------------------7----|-----8---8----9----10---|-------------------------9----|
A|-5---5---5---5---5---5---5----|-----6---6----7----8----|-8---8---8---8---8---8---7----|
E|------------------------------|------------------------|------------------------------|


E|------------------------------|-------------|------------------------|-------------|
B|------------------------------|-------------|------------------------|-------------|
G|------------------------------|-------------|------------------------|-------------|
D|-------------------------2----|--------2----|-----3---3----4----5----|--------5----|
A|-7---7---7---7---7---7---0----|--------0----|-----1---1----2----3----|--------3----|
E|------------------------------|-------------|------------------------|-------------|


E|------------------------|-------------|------------------------|-------------|-------------|
B|------------------------|-------------|------------------------|-------------|-------------|
G|------------------------|-------------|------------------------|-------------|-------------|
D|-----6---6----9----7----|--------7----|-----8---8----9----10---|--------9----|--------2----|
A|-----4---4----7----5----|--------5----|-----6---6----7----8----|--------7----|--------0----|
E|------------------------|-------------|------------------------|-------------|-------------|


E|-----------------|
B|-----------------|
G|-----------------|
D|-----------------|
A|-----------------|
E|-----------------|





Track 2: Marty Friedman

E|--------|--------|--------|--------|--------|--------|--------|--------|--------|
B|--------|--------|--------|--------|--------|--------|--------|--------|--------|
G|--------|--------|--------|--------|--------|--------|--------|--------|--------|
D|--------|--------|--------|--------|--------|--------|--------|--------|--------|
A|--------|--------|--------|--------|--------|--------|--------|--------|--------|
E|--------|--------|--------|--------|--------|--------|--------|--------|--------|


E|--------|--------|--------|--------|--------|--------|--------|--------|--------|
B|--------|--------|--------|--------|--------|--------|--------|--------|--------|
G|--------|--------|--------|--------|--------|--------|--------|--------|--------|
D|--------|--------|--------|--------|--------|--------|--------|--------|--------|
A|--------|--------|--------|--------|--------|--------|--------|--------|--------|
E|--------|--------|--------|--------|--------|--------|--------|--------|--------|


E|--------|--------|--------|--------|--------|--------|--------|--------|--------|
B|--------|--------|--------|--------|--------|--------|--------|--------|--------|
G|--------|--------|--------|--------|--------|--------|--------|--------|--------|
D|--------|--------|--------|--------|--------|--------|--------|--------|--------|
A|--------|--------|--------|--------|--------|--------|--------|--------|--------|
E|--------|--------|--------|--------|--------|--------|--------|--------|--------|


E|--------|--------|--------|--------|--------|--------|--------|--------|------------------------|
B|--------|--------|--------|--------|--------|--------|--------|--------|------------------------|
G|--------|--------|--------|--------|--------|--------|--------|--------|------2--------0--------|
D|--------|--------|--------|--------|--------|-14-----|-6------|-0------|------2--------0--------|
A|--------|--------|--------|--------|--------|-12-----|-4------|-0------|-0---------0--------0---|
E|--------|--------|--------|--------|--------|--------|--------|--------|------------------------|


E|------------------------|------------------------|---------------------|------------------------|
B|------------------------|------------------------|---------------------|------------------------|
G|-2-----------------0----|------2--------0--------|---------------------|------2--------0--------|
D|-2--------2--------0----|------2--------0--------|-7-----5---5----4----|------2--------0--------|
A|------0---2----0--------|-0---------0--------0---|-5-----3---3----2----|-0---------0--------0---|
E|------------------------|------------------------|---------------------|------------------------|


E|------------------------|------------------------|---------------------|------------------------|
B|------------------------|------------------------|---------------------|------------------------|
G|-2-----------------0----|------2--------0--------|---------------------|------2--------0--------|
D|-2--------2--------0----|------2--------0--------|-7-----8---8----9----|------2--------0--------|
A|------0---2----0--------|-0---------0--------0---|-5-----6---6----7----|-0---------0--------0---|
E|------------------------|------------------------|---------------------|------------------------|


E|------------------------|------------------------|---------------------|------------------------|
B|------------------------|------------------------|---------------------|------------------------|
G|-2-----------------0----|------2--------0--------|---------------------|------2--------0--------|
D|-2--------2--------0----|------2--------0--------|-7-----5---5----4----|------2--------0--------|
A|------0---2----0--------|-0---------0--------0---|-5-----3---3----2----|-0---------0--------0---|
E|------------------------|------------------------|---------------------|------------------------|


E|------------------------|------------------------|---------------------|------------------------|
B|------------------------|------------------------|---------------------|------------------------|
G|-2-----------------0----|------2--------0--------|---------------------|------2--------0--------|
D|-2--------2--------0----|------2--------0--------|-7-----8---8----9----|------2--------0--------|
A|------0---2----0--------|-0---------0--------0---|-5-----6---6----7----|-0---------0--------0---|
E|------------------------|------------------------|---------------------|------------------------|


E|------------------------|------------------------|---------------------|------------------------|
B|------------------------|------------------------|---------------------|------------------------|
G|-2-----------------0----|------2--------0--------|---------------------|------2--------0--------|
D|-2--------2--------0----|------2--------0--------|-7-----5---5----4----|------2--------0--------|
A|------0---2----0--------|-0---------0--------0---|-5-----3---3----2----|-0---------0--------0---|
E|------------------------|------------------------|---------------------|------------------------|


E|------------------------|------------------------|---------------------|------------------------|
B|------------------------|------------------------|---------------------|------------------------|
G|-2-----------------0----|------2--------0--------|---------------------|------2--------0--------|
D|-2--------2--------0----|------2--------0--------|-7-----8---8----9----|------2--------0--------|
A|------0---2----0--------|-0---------0--------0---|-5-----6---6----7----|-0---------0--------0---|
E|------------------------|------------------------|---------------------|------------------------|


E|------------------------|------------------------|---------------------|------------------------|
B|------------------------|------------------------|---------------------|------------------------|
G|-2-----------------0----|------2--------0--------|---------------------|------2--------0--------|
D|-2--------2--------0----|------2--------0--------|-7-----5---5----4----|------2--------0--------|
A|------0---2----0--------|-0---------0--------0---|-5-----3---3----2----|-0---------0--------0---|
E|------------------------|------------------------|---------------------|------------------------|


E|------------------------|------------------------|---------------------|------------------------|
B|------------------------|------------------------|---------------------|------------------------|
G|-2-----------------0----|------2--------0--------|---------------------|------2--------0--------|
D|-2--------2--------0----|------2--------0--------|-7-----8---8----9----|------2--------0--------|
A|------0---2----0--------|-0---------0--------0---|-5-----6---6----7----|-0---------0--------0---|
E|------------------------|------------------------|---------------------|------------------------|


E|------------------------|------------------------|---------------------|------------------------|
B|------------------------|------------------------|---------------------|------------------------|
G|-2-----------------0----|------2--------0--------|---------------------|------2--------0--------|
D|-2--------2--------0----|------2--------0--------|-7-----5---5----4----|------2--------0--------|
A|------0---2----0--------|-0---------0--------0---|-5-----3---3----2----|-0---------0--------0---|
E|------------------------|------------------------|---------------------|------------------------|


E|------------------------|------------------------|---------------------|------------------------|
B|------------------------|------------------------|---------------------|------------------------|
G|-2-----------------0----|------2--------0--------|---------------------|------2--------0--------|
D|-2--------2--------0----|------2--------0--------|-7-----8---8----9----|------2--------0--------|
A|------0---2----0--------|-0---------0--------0---|-5-----6---6----7----|-0---------0--------0---|
E|------------------------|------------------------|---------------------|------------------------|


E|------------------------|------------------------|---------------------|------------------------|
B|------------------------|------------------------|---------------------|------------------------|
G|-2-----------------0----|------2--------0--------|---------------------|------2--------0--------|
D|-2--------2--------0----|------2--------0--------|-7-----5---5----4----|------2--------0--------|
A|------0---2----0--------|-0---------0--------0---|-5-----3---3----2----|-0---------0--------0---|
E|------------------------|------------------------|---------------------|------------------------|


E|------------------------|------------------------|---------------------|--------|
B|------------------------|------------------------|---------------------|--------|
G|-2-----------------0----|------2--------0--------|---------------------|--------|
D|-2--------2--------0----|------2--------0--------|-7-----8---8----9----|--------|
A|------0---2----0--------|-0---------0--------0---|-5-----6---6----7----|--------|
E|------------------------|------------------------|---------------------|--------|


E|--------|--------|--------|--------|--------|--------|--------|--------|--------|
B|--------|--------|--------|--------|--------|--------|--------|--------|--------|
G|--------|--------|--------|--------|--------|--------|--------|--------|--------|
D|--------|--------|--------|--------|--------|--------|--------|--------|--------|
A|--------|--------|--------|--------|--------|--------|--------|--------|--------|
E|--------|--------|--------|--------|--------|--------|--------|--------|--------|


E|--------|--------|--------|--------|--------|--------|--------|--------|--------|
B|--------|--------|--------|--------|--------|--------|--------|--------|--------|
G|--------|--------|--------|--------|--------|--------|--------|--------|--------|
D|--------|--------|--------|--------|--------|--------|--------|--------|--------|
A|--------|--------|--------|--------|--------|--------|--------|--------|--------|
E|--------|--------|--------|--------|--------|--------|--------|--------|--------|


E|--------|--------|--------|--------|--------|--------|--------|--------|--------|
B|--------|--------|--------|--------|--------|--------|--------|--------|--------|
G|--------|--------|--------|--------|--------|--------|--------|--------|--------|
D|--------|--------|--------|--------|--------|--------|--------|--------|--------|
A|--------|--------|--------|--------|--------|--------|--------|--------|--------|
E|--------|--------|--------|--------|--------|--------|--------|--------|--------|


E|--------|--------|--------|--------|--------|--------|--------|--------|--------|
B|--------|--------|--------|--------|--------|--------|--------|--------|--------|
G|--------|--------|--------|--------|--------|--------|--------|--------|--------|
D|--------|--------|--------|--------|--------|--------|--------|--------|--------|
A|--------|--------|--------|--------|--------|--------|--------|--------|--------|
E|--------|--------|--------|--------|--------|--------|--------|--------|--------|


E|-------------|---------------------------------|------------------------------|---------------------------------|
B|-------------|---------------------------------|------------------------------|---------------------------------|
G|-------------|---------------------------------|------------------------------|---------------------------------|
D|--------2----|---------------------------------|-------------------------5----|---------------------------------|
A|--------0----|-0---0---0---0---0---0---0---0---|-0---0---0---0---0---0---3----|-0---0---0---0---0---0---0---0---|
E|-------------|---------------------------------|------------------------------|---------------------------------|


E|------------------------------|---------------------------------|------------------------------|
B|------------------------------|---------------------------------|------------------------------|
G|------------------------------|---------------------------------|------------------------------|
D|-------------------------7----|---------------------------------|-------------------------10---|
A|-0---0---0---0---0---0---5----|-0---0---0---0---0---0---0---0---|-0---0---0---0---0---0---8----|
E|------------------------------|---------------------------------|------------------------------|


E|------------------------------|------------------------------|---------------------------------|
B|------------------------------|------------------------------|---------------------------------|
G|------------------------------|------------------------------|---------------------------------|
D|-------------------------9----|-------------------------2----|---------------------------------|
A|-0---0---0---0---0---0---7----|-0---0---0---0---0---0---0----|-0---0---0---0---0---0---0---0---|
E|------------------------------|------------------------------|---------------------------------|


E|------------------------------|---------------------------------|------------------------------|
B|------------------------------|---------------------------------|------------------------------|
G|------------------------------|---------------------------------|------------------------------|
D|-------------------------5----|---------------------------------|-------------------------7----|
A|-0---0---0---0---0---0---3----|-0---0---0---0---0---0---0---0---|-0---0---0---0---0---0---5----|
E|------------------------------|---------------------------------|------------------------------|


E|---------------------------------|------------------------------|------------------------------|
B|---------------------------------|------------------------------|------------------------------|
G|---------------------------------|------------------------------|------------------------------|
D|---------------------------------|-------------------------10---|-------------------------9----|
A|-0---0---0---0---0---0---0---0---|-0---0---0---0---0---0---8----|-0---0---0---0---0---0---7----|
E|---------------------------------|------------------------------|------------------------------|


E|------------------------------|---------------------------------|------------------------------|
B|------------------------------|---------------------------------|------------------------------|
G|------------------------------|---------------------------------|------------------------------|
D|-------------------------2----|---------------------------------|-------------------------5----|
A|-0---0---0---0---0---0---0----|-0---0---0---0---0---0---0---0---|-0---0---0---0---0---0---3----|
E|------------------------------|---------------------------------|------------------------------|


E|---------------------------------|------------------------------|---------------------------------|
B|---------------------------------|------------------------------|---------------------------------|
G|---------------------------------|------------------------------|---------------------------------|
D|---------------------------------|-------------------------7----|---------------------------------|
A|-0---0---0---0---0---0---0---0---|-0---0---0---0---0---0---5----|-0---0---0---0---0---0---0---0---|
E|---------------------------------|------------------------------|---------------------------------|


E|------------------------------|------------------------------|------------------------------|
B|------------------------------|------------------------------|------------------------------|
G|------------------------------|------------------------------|------------------------------|
D|-------------------------10---|-------------------------9----|------------------------------|
A|-0---0---0---0---0---0---8----|-0---0---0---0---0---0---7----|-0---0---0---0---0---0--------|
E|------------------------------|------------------------------|------------------------------|


E|--------|--------|--------|--------|--------|--------|--------|--------|--------|
B|--------|--------|--------|--------|--------|--------|--------|--------|--------|
G|--------|--------|--------|--------|--------|--------|--------|--------|--------|
D|--------|--------|--------|--------|--------|--------|--------|--------|--------|
A|--------|--------|--------|--------|--------|--------|--------|--------|--------|
E|--------|--------|--------|--------|--------|--------|--------|--------|--------|


E|--------|--------|--------|--------|--------|--------|--------|--------|--------|
B|--------|--------|--------|--------|--------|--------|--------|--------|--------|
G|--------|--------|--------|--------|--------|--------|--------|--------|--------|
D|--------|--------|--------|--------|--------|--------|--------|--------|--------|
A|--------|--------|--------|--------|--------|--------|--------|--------|--------|
E|--------|--------|--------|--------|--------|--------|--------|--------|--------|


E|--------|--------|--------|--------|--------|--------|--------|--------|--------|
B|--------|--------|--------|--------|--------|--------|--------|--------|--------|
G|--------|--------|--------|--------|--------|--------|--------|--------|--------|
D|--------|--------|--------|--------|--------|--------|--------|--------|--------|
A|--------|--------|--------|--------|--------|--------|--------|--------|--------|
E|--------|--------|--------|--------|--------|--------|--------|--------|--------|


E|--------|--------|--------|--------|--------|--------|--------|--------|
B|--------|--------|--------|--------|--------|--------|--------|--------|
G|--------|--------|--------|--------|--------|--------|--------|--------|
D|--------|--------|--------|--------|--------|--------|--------|--------|
A|--------|--------|--------|--------|--------|--------|--------|--------|
E|--------|--------|--------|--------|--------|--------|--------|--------|





Track 3: Dave Mustaine

E|--------|--------|--------|--------|--------|--------|--------|--------|--------|
B|--------|--------|--------|--------|--------|--------|--------|--------|--------|
G|--------|--------|--------|--------|--------|--------|--------|--------|--------|
D|--------|--------|--------|--------|--------|--------|--------|--------|--------|
A|--------|--------|--------|--------|--------|--------|--------|--------|--------|
E|--------|--------|--------|--------|--------|--------|--------|--------|--------|


E|--------|--------|--------|--------|--------|--------|--------|--------|--------|
B|--------|--------|--------|--------|--------|--------|--------|--------|--------|
G|--------|--------|--------|--------|--------|--------|--------|--------|--------|
D|--------|--------|--------|--------|--------|--------|--------|--------|--------|
A|--------|--------|--------|--------|--------|--------|--------|--------|--------|
E|--------|--------|--------|--------|--------|--------|--------|--------|--------|


E|--------|--------|--------|--------|--------|--------|--------|--------|--------|
B|--------|--------|--------|--------|--------|--------|--------|--------|--------|
G|--------|--------|--------|--------|--------|--------|--------|--------|--------|
D|--------|--------|--------|--------|--------|--------|--------|--------|--------|
A|--------|--------|--------|--------|--------|--------|--------|--------|--------|
E|--------|--------|--------|--------|--------|--------|--------|--------|--------|


E|--------|--------|--------|--------|--------|--------|--------|--------|--------|
B|--------|--------|--------|--------|--------|--------|--------|--------|--------|
G|--------|--------|--------|--------|--------|--------|--------|--------|--------|
D|--------|--------|--------|--------|--------|--------|--------|--------|--------|
A|--------|--------|--------|--------|--------|--------|--------|--------|--------|
E|--------|--------|--------|--------|--------|--------|--------|--------|--------|


E|--------|--------|--------|--------|--------|--------|--------|--------|--------|
B|--------|--------|--------|--------|--------|--------|--------|--------|--------|
G|--------|--------|--------|--------|--------|--------|--------|--------|--------|
D|--------|--------|--------|--------|--------|--------|--------|--------|--------|
A|--------|--------|--------|--------|--------|--------|--------|--------|--------|
E|--------|--------|--------|--------|--------|--------|--------|--------|--------|


E|--------|--------|--------|--------|--------|--------|--------|--------|--------|
B|--------|--------|--------|--------|--------|--------|--------|--------|--------|
G|--------|--------|--------|--------|--------|--------|--------|--------|--------|
D|--------|--------|--------|--------|--------|--------|--------|--------|--------|
A|--------|--------|--------|--------|--------|--------|--------|--------|--------|
E|--------|--------|--------|--------|--------|--------|--------|--------|--------|


E|--------|--------|--------|--------|--------|--------|--------|--------|--------|
B|--------|--------|--------|--------|--------|--------|--------|--------|--------|
G|--------|--------|--------|--------|--------|--------|--------|--------|--------|
D|--------|--------|--------|--------|--------|--------|--------|--------|--------|
A|--------|--------|--------|--------|--------|--------|--------|--------|--------|
E|--------|--------|--------|--------|--------|--------|--------|--------|--------|


E|--------|--------|--------|--------|--------|--------|--------|--------|--------|
B|--------|--------|--------|--------|--------|--------|--------|--------|--------|
G|--------|--------|--------|--------|--------|--------|--------|--------|--------|
D|--------|--------|--------|--------|--------|--------|--------|--------|--------|
A|--------|--------|--------|--------|--------|--------|--------|--------|--------|
E|--------|--------|--------|--------|--------|--------|--------|--------|--------|


E|--------|--------|--------|--------|--------|--------|--------|--------|--------|
B|--------|--------|--------|--------|--------|--------|--------|--------|--------|
G|--------|--------|--------|--------|--------|--------|--------|--------|--------|
D|--------|--------|--------|--------|--------|--------|--------|--------|--------|
A|--------|--------|--------|--------|--------|--------|--------|--------|--------|
E|--------|--------|--------|--------|--------|--------|--------|--------|--------|


E|--------|--------|--------|--------|--------|--------|--------|--------|--------|
B|--------|--------|--------|--------|--------|--------|--------|--------|--------|
G|--------|--------|--------|--------|--------|--------|--------|--------|--------|
D|--------|--------|--------|--------|--------|--------|--------|--------|--------|
A|--------|--------|--------|--------|--------|--------|--------|--------|--------|
E|--------|--------|--------|--------|--------|--------|--------|--------|--------|


E|--------|--------|--------|--------|--------|--------|--------|--------|--------|
B|--------|--------|--------|--------|--------|--------|--------|--------|--------|
G|--------|--------|--------|--------|--------|--------|--------|--------|--------|
D|--------|--------|--------|--------|--------|--------|--------|--------|--------|
A|--------|--------|--------|--------|--------|--------|--------|--------|--------|
E|--------|--------|--------|--------|--------|--------|--------|--------|--------|


E|--------|--------|--------|--------|--------|--------|--------|--------|--------|
B|--------|--------|--------|--------|--------|--------|--------|--------|--------|
G|--------|--------|--------|--------|--------|--------|--------|--------|--------|
D|--------|--------|--------|--------|--------|--------|--------|--------|--------|
A|--------|--------|--------|--------|--------|--------|--------|--------|--------|
E|--------|--------|--------|--------|--------|--------|--------|--------|--------|


E|--------|--------|--------|--------|--------|--------|--------|--------|--------|
B|--------|--------|--------|--------|--------|--------|--------|--------|--------|
G|--------|--------|--------|--------|--------|--------|--------|--------|--------|
D|--------|--------|--------|--------|--------|--------|--------|--------|--------|
A|--------|--------|--------|--------|--------|--------|--------|--------|--------|
E|--------|--------|--------|--------|--------|--------|--------|--------|--------|


E|--------|--------|--------|--------|--------|--------|--------|--------|--------|
B|--------|--------|--------|--------|--------|--------|--------|--------|--------|
G|--------|--------|--------|--------|--------|--------|--------|--------|--------|
D|--------|--------|--------|--------|--------|--------|--------|--------|--------|
A|--------|--------|--------|--------|--------|--------|--------|--------|--------|
E|--------|--------|--------|--------|--------|--------|--------|--------|--------|


E|--------|--------|--------|--------|--------|--------|--------|--------|--------|
B|--------|--------|--------|--------|--------|--------|--------|--------|--------|
G|--------|--------|--------|--------|--------|--------|--------|--------|--------|
D|--------|--------|--------|--------|--------|--------|--------|--------|--------|
A|--------|--------|--------|--------|--------|--------|--------|--------|--------|
E|--------|--------|--------|--------|--------|--------|--------|--------|--------|


E|--------|--------|--------|--------|--------|--------|--------|--------|--------|
B|--------|--------|--------|--------|--------|--------|--------|--------|--------|
G|--------|--------|--------|--------|--------|--------|--------|--------|--------|
D|--------|--------|--------|--------|--------|--------|--------|--------|--------|
A|--------|--------|--------|--------|--------|--------|--------|--------|--------|
E|--------|--------|--------|--------|--------|--------|--------|--------|--------|


E|-------------|-------------|--------|--------|--------|--------|--------|--------|
B|-------------|-------------|--------|--------|--------|--------|--------|--------|
G|-------------|-------------|--------|--------|--------|--------|--------|--------|
D|-------------|-------------|--------|--------|--------|--------|--------|--------|
A|-------------|-------------|--------|--------|--------|--------|--------|--------|
E|-------------|-------------|--------|--------|--------|--------|--------|--------|


E|--------|--------|--------|--------|--------|--------|--------|--------|--------|
B|--------|--------|--------|--------|--------|--------|--------|--------|--------|
G|--------|--------|--------|--------|--------|--------|--------|--------|--------|
D|--------|--------|--------|--------|--------|--------|--------|--------|--------|
A|--------|--------|--------|--------|--------|--------|--------|--------|--------|
E|--------|--------|--------|--------|--------|--------|--------|--------|--------|


E|--------|--------|--------|--------|--------|--------|--------|--------|--------|
B|--------|--------|--------|--------|--------|--------|--------|--------|--------|
G|--------|--------|--------|--------|--------|--------|--------|--------|--------|
D|--------|--------|--------|--------|--------|--------|--------|--------|--------|
A|--------|--------|--------|--------|--------|--------|--------|--------|--------|
E|--------|--------|--------|--------|--------|--------|--------|--------|--------|


E|--------|--------|--------|--------|--------|--------|--------|--------|--------|
B|--------|--------|--------|--------|--------|--------|--------|--------|--------|
G|--------|--------|--------|--------|--------|--------|--------|--------|--------|
D|--------|--------|--------|--------|--------|--------|--------|--------|--------|
A|--------|--------|--------|--------|--------|--------|--------|--------|--------|
E|--------|--------|--------|--------|--------|--------|--------|--------|--------|


E|--------|
B|--------|
G|--------|
D|--------|
A|--------|
E|--------|





Track 4: Marty Friedman (solo)

E|--------|--------|--------|--------|--------|--------|--------|--------|--------|
B|--------|--------|--------|--------|--------|--------|--------|--------|--------|
G|--------|--------|--------|--------|--------|--------|--------|--------|--------|
D|--------|--------|--------|--------|--------|--------|--------|--------|--------|
A|--------|--------|--------|--------|--------|--------|--------|--------|--------|
E|--------|--------|--------|--------|--------|--------|--------|--------|--------|


E|--------|--------|--------|--------|--------|--------|--------|--------|--------|
B|--------|--------|--------|--------|--------|--------|--------|--------|--------|
G|--------|--------|--------|--------|--------|--------|--------|--------|--------|
D|--------|--------|--------|--------|--------|--------|--------|--------|--------|
A|--------|--------|--------|--------|--------|--------|--------|--------|--------|
E|--------|--------|--------|--------|--------|--------|--------|--------|--------|


E|--------|--------|--------|--------|--------|--------|--------|--------|--------|
B|--------|--------|--------|--------|--------|--------|--------|--------|--------|
G|--------|--------|--------|--------|--------|--------|--------|--------|--------|
D|--------|--------|--------|--------|--------|--------|--------|--------|--------|
A|--------|--------|--------|--------|--------|--------|--------|--------|--------|
E|--------|--------|--------|--------|--------|--------|--------|--------|--------|


E|--------|--------|--------|--------|--------|--------|--------|--------|--------|
B|--------|--------|--------|--------|--------|--------|--------|--------|--------|
G|--------|--------|--------|--------|--------|--------|--------|--------|--------|
D|--------|--------|--------|--------|--------|--------|--------|--------|--------|
A|--------|--------|--------|--------|--------|--------|--------|--------|--------|
E|--------|--------|--------|--------|--------|--------|--------|--------|--------|


E|--------|--------|--------|--------|--------|--------|--------|--------|--------|
B|--------|--------|--------|--------|--------|--------|--------|--------|--------|
G|--------|--------|--------|--------|--------|--------|--------|--------|--------|
D|--------|--------|--------|--------|--------|--------|--------|--------|--------|
A|--------|--------|--------|--------|--------|--------|--------|--------|--------|
E|--------|--------|--------|--------|--------|--------|--------|--------|--------|


E|--------|--------|--------|--------|--------|--------|--------|--------|--------|
B|--------|--------|--------|--------|--------|--------|--------|--------|--------|
G|--------|--------|--------|--------|--------|--------|--------|--------|--------|
D|--------|--------|--------|--------|--------|--------|--------|--------|--------|
A|--------|--------|--------|--------|--------|--------|--------|--------|--------|
E|--------|--------|--------|--------|--------|--------|--------|--------|--------|


E|--------|--------|--------|--------|--------|--------|--------|--------|--------|
B|--------|--------|--------|--------|--------|--------|--------|--------|--------|
G|--------|--------|--------|--------|--------|--------|--------|--------|--------|
D|--------|--------|--------|--------|--------|--------|--------|--------|--------|
A|--------|--------|--------|--------|--------|--------|--------|--------|--------|
E|--------|--------|--------|--------|--------|--------|--------|--------|--------|


E|--------|--------|--------|--------|--------|--------|--------|--------|--------|
B|--------|--------|--------|--------|--------|--------|--------|--------|--------|
G|--------|--------|--------|--------|--------|--------|--------|--------|--------|
D|--------|--------|--------|--------|--------|--------|--------|--------|--------|
A|--------|--------|--------|--------|--------|--------|--------|--------|--------|
E|--------|--------|--------|--------|--------|--------|--------|--------|--------|


E|--------|--------|--------|--------|--------|--------|--------|--------|--------|
B|--------|--------|--------|--------|--------|--------|--------|--------|--------|
G|--------|--------|--------|--------|--------|--------|--------|--------|--------|
D|--------|--------|--------|--------|--------|--------|--------|--------|--------|
A|--------|--------|--------|--------|--------|--------|--------|--------|--------|
E|--------|--------|--------|--------|--------|--------|--------|--------|--------|


E|--------|--------|--------|--------|--------|--------|--------|--------|--------|
B|--------|--------|--------|--------|--------|--------|--------|--------|--------|
G|--------|--------|--------|--------|--------|--------|--------|--------|--------|
D|--------|--------|--------|--------|--------|--------|--------|--------|--------|
A|--------|--------|--------|--------|--------|--------|--------|--------|--------|
E|--------|--------|--------|--------|--------|--------|--------|--------|--------|


E|--------|--------|--------|--------|--------|--------|--------|--------|--------|
B|--------|--------|--------|--------|--------|--------|--------|--------|--------|
G|--------|--------|--------|--------|--------|--------|--------|--------|--------|
D|--------|--------|--------|--------|--------|--------|--------|--------|--------|
A|--------|--------|--------|--------|--------|--------|--------|--------|--------|
E|--------|--------|--------|--------|--------|--------|--------|--------|--------|


E|--------|--------|--------|--------|--------|--------|--------|--------|--------|
B|--------|--------|--------|--------|--------|--------|--------|--------|--------|
G|--------|--------|--------|--------|--------|--------|--------|--------|--------|
D|--------|--------|--------|--------|--------|--------|--------|--------|--------|
A|--------|--------|--------|--------|--------|--------|--------|--------|--------|
E|--------|--------|--------|--------|--------|--------|--------|--------|--------|


E|--------|--------|--------|--------|--------|--------|--------|--------|--------|
B|--------|--------|--------|--------|--------|--------|--------|--------|--------|
G|--------|--------|--------|--------|--------|--------|--------|--------|--------|
D|--------|--------|--------|--------|--------|--------|--------|--------|--------|
A|--------|--------|--------|--------|--------|--------|--------|--------|--------|
E|--------|--------|--------|--------|--------|--------|--------|--------|--------|


E|--------|--------|--------|--------|--------|--------|--------|--------|--------|
B|--------|--------|--------|--------|--------|--------|--------|--------|--------|
G|--------|--------|--------|--------|--------|--------|--------|--------|--------|
D|--------|--------|--------|--------|--------|--------|--------|--------|--------|
A|--------|--------|--------|--------|--------|--------|--------|--------|--------|
E|--------|--------|--------|--------|--------|--------|--------|--------|--------|


E|--------|--------|--------|--------|--------|--------|--------|--------|--------|
B|--------|--------|--------|--------|--------|--------|--------|--------|--------|
G|--------|--------|--------|--------|--------|--------|--------|--------|--------|
D|--------|--------|--------|--------|--------|--------|--------|--------|--------|
A|--------|--------|--------|--------|--------|--------|--------|--------|--------|
E|--------|--------|--------|--------|--------|--------|--------|--------|--------|


E|--------|--------|--------|--------|--------|--------|--------|--------|--------|
B|--------|--------|--------|--------|--------|--------|--------|--------|--------|
G|--------|--------|--------|--------|--------|--------|--------|--------|--------|
D|--------|--------|--------|--------|--------|--------|--------|--------|--------|
A|--------|--------|--------|--------|--------|--------|--------|--------|--------|
E|--------|--------|--------|--------|--------|--------|--------|--------|--------|


E|--------|--------|----------------|-----------------|------------------------|---------------------|
B|--------|--------|----------------|-----------------|-------------------7----|-7----7----7----5----|
G|--------|--------|--------7---7---|-7-----7----7----|-7----7----5------------|---------------------|
D|--------|--------|----------------|-----------------|---------------7--------|---------------------|
A|--------|--------|----------------|-----------------|------------------------|---------------------|
E|--------|--------|----------------|-----------------|------------------------|---------------------|


E|-5----------------------------|--------------------|---------------------------|
B|-----8---5--------------------|--------------------|-----5---------------------|
G|-------------8---7---5---6----|-------6----7---5---|-7-------7---5-------------|
D|-------------------------0----|--------------------|-----------------7----7----|
A|------------------------------|--------------------|---------------------------|
E|------------------------------|--------------------|---------------------------|


E|-----------------|----------------|---------------------------------|-12--15--15--12----------15--12--|
B|-----------------|----------------|-------------------------12--13--|-----------------13--12----------|
G|-------5----4----|----------------|-----------------9---12----------|---------------------------------|
D|-----------------|----------------|---------9---10------------------|---------------------------------|
A|-----------------|----------------|-7---10--------------------------|---------------------------------|
E|-----------------|--------7---8---|---------------------------------|---------------------------------|


E|---------12--13----------15---|-12------------13--17--13--|-------------------------10--13--|
B|-13--15----------15--12-------|-----------15--------------|-15------------------10----------|
G|------------------------------|-------14------------------|-----14--10------10--------------|
D|------------------------------|---------------------------|-------------12------------------|
A|------------------------------|---------------------------|---------------------------------|
E|------------------------------|---------------------------|---------------------------------|


E|-10-----------22---17------|------------------------------|------------20--17--|
B|-----10----------------18--|------------------------------|--------------------|
G|---------10----------------|-19---------------------------|--------------------|
D|---------------------------|-----19----------19--17--17---|-------17-----------|
A|---------------------------|---------20--17---------------|--------------------|
E|---------------------------|------------------------------|--------------------|


E|-----------------20--17----------|---------20--17----------20--17--|-----------------20--17----------|
B|-20--17------------------20--17--|-----------------20--17----------|-20--17------------------20--17--|
G|---------19--17------------------|-19--17--------------------------|---------19--17------------------|
D|---------------------------------|---------------------------------|---------------------------------|
A|---------------------------------|---------------------------------|---------------------------------|
E|---------------------------------|---------------------------------|---------------------------------|


E|-20---20---20--------|--------------------------|------------------------|---------------------------------|
B|---------------------|--------------------------|-10---9-----------------|---------------------------------|
G|---------------------|---------------------9----|-----------12---11--10--|-9-------10---9------------------|
D|----------------1----|------7----9----10--------|------------------------|-----12------------12---11---10--|
A|---------------------|--------------------------|------------------------|---------------------------------|
E|---------------------|--------------------------|------------------------|---------------------------------|


E|-------------------------------|--------|--------|--------|--------|--------|--------|
B|-------------------------------|--------|--------|--------|--------|--------|--------|
G|-------------------------------|--------|--------|--------|--------|--------|--------|
D|-----9--------9---10--9--------|--------|--------|--------|--------|--------|--------|
A|----------12-------------------|--------|--------|--------|--------|--------|--------|
E|-------------------------------|--------|--------|--------|--------|--------|--------|


E|--------|--------|--------|
B|--------|--------|--------|
G|--------|--------|--------|
D|--------|--------|--------|
A|--------|--------|--------|
E|--------|--------|--------|





Track 5: Overdub (solo)

E|--------|--------|--------|--------|--------|--------|--------|--------|--------|
B|--------|--------|--------|--------|--------|--------|--------|--------|--------|
G|--------|--------|--------|--------|--------|--------|--------|--------|--------|
D|--------|--------|--------|--------|--------|--------|--------|--------|--------|
A|--------|--------|--------|--------|--------|--------|--------|--------|--------|
E|--------|--------|--------|--------|--------|--------|--------|--------|--------|


E|--------|--------|--------|--------|--------|--------|--------|--------|--------|
B|--------|--------|--------|--------|--------|--------|--------|--------|--------|
G|--------|--------|--------|--------|--------|--------|--------|--------|--------|
D|--------|--------|--------|--------|--------|--------|--------|--------|--------|
A|--------|--------|--------|--------|--------|--------|--------|--------|--------|
E|--------|--------|--------|--------|--------|--------|--------|--------|--------|


E|--------|--------|--------|--------|--------|--------|--------|--------|--------|
B|--------|--------|--------|--------|--------|--------|--------|--------|--------|
G|--------|--------|--------|--------|--------|--------|--------|--------|--------|
D|--------|--------|--------|--------|--------|--------|--------|--------|--------|
A|--------|--------|--------|--------|--------|--------|--------|--------|--------|
E|--------|--------|--------|--------|--------|--------|--------|--------|--------|


E|--------|--------|--------|--------|--------|--------|--------|--------|--------|
B|--------|--------|--------|--------|--------|--------|--------|--------|--------|
G|--------|--------|--------|--------|--------|--------|--------|--------|--------|
D|--------|--------|--------|--------|--------|--------|--------|--------|--------|
A|--------|--------|--------|--------|--------|--------|--------|--------|--------|
E|--------|--------|--------|--------|--------|--------|--------|--------|--------|


E|--------|--------|--------|--------|--------|--------|--------|--------|--------|
B|--------|--------|--------|--------|--------|--------|--------|--------|--------|
G|--------|--------|--------|--------|--------|--------|--------|--------|--------|
D|--------|--------|--------|--------|--------|--------|--------|--------|--------|
A|--------|--------|--------|--------|--------|--------|--------|--------|--------|
E|--------|--------|--------|--------|--------|--------|--------|--------|--------|


E|--------|--------|--------|--------|--------|--------|--------|--------|--------|
B|--------|--------|--------|--------|--------|--------|--------|--------|--------|
G|--------|--------|--------|--------|--------|--------|--------|--------|--------|
D|--------|--------|--------|--------|--------|--------|--------|--------|--------|
A|--------|--------|--------|--------|--------|--------|--------|--------|--------|
E|--------|--------|--------|--------|--------|--------|--------|--------|--------|


E|--------|--------|--------|--------|--------|--------|--------|--------|--------|
B|--------|--------|--------|--------|--------|--------|--------|--------|--------|
G|--------|--------|--------|--------|--------|--------|--------|--------|--------|
D|--------|--------|--------|--------|--------|--------|--------|--------|--------|
A|--------|--------|--------|--------|--------|--------|--------|--------|--------|
E|--------|--------|--------|--------|--------|--------|--------|--------|--------|


E|--------|--------|--------|--------|--------|--------|--------|--------|--------|
B|--------|--------|--------|--------|--------|--------|--------|--------|--------|
G|--------|--------|--------|--------|--------|--------|--------|--------|--------|
D|--------|--------|--------|--------|--------|--------|--------|--------|--------|
A|--------|--------|--------|--------|--------|--------|--------|--------|--------|
E|--------|--------|--------|--------|--------|--------|--------|--------|--------|


E|--------|--------|--------|--------|--------|--------|--------|--------|--------|
B|--------|--------|--------|--------|--------|--------|--------|--------|--------|
G|--------|--------|--------|--------|--------|--------|--------|--------|--------|
D|--------|--------|--------|--------|--------|--------|--------|--------|--------|
A|--------|--------|--------|--------|--------|--------|--------|--------|--------|
E|--------|--------|--------|--------|--------|--------|--------|--------|--------|


E|--------|--------|--------|--------|--------|--------|--------|--------|--------|
B|--------|--------|--------|--------|--------|--------|--------|--------|--------|
G|--------|--------|--------|--------|--------|--------|--------|--------|--------|
D|--------|--------|--------|--------|--------|--------|--------|--------|--------|
A|--------|--------|--------|--------|--------|--------|--------|--------|--------|
E|--------|--------|--------|--------|--------|--------|--------|--------|--------|


E|--------|--------|--------|--------|--------|--------|--------|--------|--------|
B|--------|--------|--------|--------|--------|--------|--------|--------|--------|
G|--------|--------|--------|--------|--------|--------|--------|--------|--------|
D|--------|--------|--------|--------|--------|--------|--------|--------|--------|
A|--------|--------|--------|--------|--------|--------|--------|--------|--------|
E|--------|--------|--------|--------|--------|--------|--------|--------|--------|


E|--------|--------|--------|--------|--------|--------|--------|--------|--------|
B|--------|--------|--------|--------|--------|--------|--------|--------|--------|
G|--------|--------|--------|--------|--------|--------|--------|--------|--------|
D|--------|--------|--------|--------|--------|--------|--------|--------|--------|
A|--------|--------|--------|--------|--------|--------|--------|--------|--------|
E|--------|--------|--------|--------|--------|--------|--------|--------|--------|


E|--------|--------|--------|--------|--------|--------|--------|--------|--------|
B|--------|--------|--------|--------|--------|--------|--------|--------|--------|
G|--------|--------|--------|--------|--------|--------|--------|--------|--------|
D|--------|--------|--------|--------|--------|--------|--------|--------|--------|
A|--------|--------|--------|--------|--------|--------|--------|--------|--------|
E|--------|--------|--------|--------|--------|--------|--------|--------|--------|


E|--------|--------|--------|--------|--------|--------|--------|--------|--------|
B|--------|--------|--------|--------|--------|--------|--------|--------|--------|
G|--------|--------|--------|--------|--------|--------|--------|--------|--------|
D|--------|--------|--------|--------|--------|--------|--------|--------|--------|
A|--------|--------|--------|--------|--------|--------|--------|--------|--------|
E|--------|--------|--------|--------|--------|--------|--------|--------|--------|


E|--------|--------|--------|--------|--------|--------|--------|--------|--------|
B|--------|--------|--------|--------|--------|--------|--------|--------|--------|
G|--------|--------|--------|--------|--------|--------|--------|--------|--------|
D|--------|--------|--------|--------|--------|--------|--------|--------|--------|
A|--------|--------|--------|--------|--------|--------|--------|--------|--------|
E|--------|--------|--------|--------|--------|--------|--------|--------|--------|


E|--------|--------|--------|--------|--------|--------|--------|--------|--------|
B|--------|--------|--------|--------|--------|--------|--------|--------|--------|
G|--------|--------|--------|--------|--------|--------|--------|--------|--------|
D|--------|--------|--------|--------|--------|--------|--------|--------|--------|
A|--------|--------|--------|--------|--------|--------|--------|--------|--------|
E|--------|--------|--------|--------|--------|--------|--------|--------|--------|


E|--------|--------|--------|--------|--------|--------|--------|--------|--------|
B|--------|--------|--------|--------|--------|--------|--------|--------|--------|
G|--------|--------|--------|--------|--------|--------|--------|--------|--------|
D|--------|--------|--------|--------|--------|--------|--------|--------|--------|
A|--------|--------|--------|--------|--------|--------|--------|--------|--------|
E|--------|--------|--------|--------|--------|--------|--------|--------|--------|


E|--------|--------|--------|--------|--------|--------|--------|--------|--------|
B|--------|--------|--------|--------|--------|--------|--------|--------|--------|
G|--------|--------|--------|--------|--------|--------|--------|--------|--------|
D|--------|--------|--------|--------|--------|--------|--------|--------|--------|
A|--------|--------|--------|--------|--------|--------|--------|--------|--------|
E|--------|--------|--------|--------|--------|--------|--------|--------|--------|


E|--------|--------|--------|--------|--------|--------|--------|--------|-------------|
B|--------|--------|--------|--------|--------|--------|--------|--------|-------------|
G|--------|--------|--------|--------|--------|--------|--------|--------|-------------|
D|--------|--------|--------|--------|--------|--------|--------|--------|-------------|
A|--------|--------|--------|--------|--------|--------|--------|--------|-------------|
E|--------|--------|--------|--------|--------|--------|--------|--------|-------------|


E|-5----------------------------|-------------|-5----------------------------|-------------|
B|-----8---5--------------------|-------------|-----8---5--------------------|-------------|
G|-------------8---7---5--------|-------------|-------------8---7---5--------|-------------|
D|-------------------------7----|--------7----|-------------------------7----|--------7----|
A|------------------------------|-------------|------------------------------|-------------|
E|------------------------------|-------------|------------------------------|-------------|


E|-5----------------------------|-------------10--15--10----------|-------------------------22---|
B|-----8---5---------------10---|-----10--13--------------13--10--|-----10------17--20--17-------|
G|-------------8---7---5--------|-12------------------------------|-12------19-------------------|
D|------------------------------|---------------------------------|------------------------------|
A|------------------------------|---------------------------------|------------------------------|
E|------------------------------|---------------------------------|------------------------------|


E|------22---20--17-------|-----------------|
B|-------------------20---|-20--------------|
G|------------------------|-----------------|
D|------------------------|-----------------|
A|------------------------|-----------------|
E|------------------------|-----------------|





Track 6: Overdub (solo)

E|--------|--------|--------|--------|--------|--------|--------|--------|--------|
B|--------|--------|--------|--------|--------|--------|--------|--------|--------|
G|--------|--------|--------|--------|--------|--------|--------|--------|--------|
D|--------|--------|--------|--------|--------|--------|--------|--------|--------|
A|--------|--------|--------|--------|--------|--------|--------|--------|--------|
E|--------|--------|--------|--------|--------|--------|--------|--------|--------|


E|--------|--------|--------|--------|--------|--------|--------|--------|--------|
B|--------|--------|--------|--------|--------|--------|--------|--------|--------|
G|--------|--------|--------|--------|--------|--------|--------|--------|--------|
D|--------|--------|--------|--------|--------|--------|--------|--------|--------|
A|--------|--------|--------|--------|--------|--------|--------|--------|--------|
E|--------|--------|--------|--------|--------|--------|--------|--------|--------|


E|--------|--------|--------|--------|--------|--------|--------|--------|--------|
B|--------|--------|--------|--------|--------|--------|--------|--------|--------|
G|--------|--------|--------|--------|--------|--------|--------|--------|--------|
D|--------|--------|--------|--------|--------|--------|--------|--------|--------|
A|--------|--------|--------|--------|--------|--------|--------|--------|--------|
E|--------|--------|--------|--------|--------|--------|--------|--------|--------|


E|--------|--------|--------|--------|--------|--------|--------|--------|--------|
B|--------|--------|--------|--------|--------|--------|--------|--------|--------|
G|--------|--------|--------|--------|--------|--------|--------|--------|--------|
D|--------|--------|--------|--------|--------|--------|--------|--------|--------|
A|--------|--------|--------|--------|--------|--------|--------|--------|--------|
E|--------|--------|--------|--------|--------|--------|--------|--------|--------|


E|--------|--------|--------|--------|--------|--------|--------|--------|--------|
B|--------|--------|--------|--------|--------|--------|--------|--------|--------|
G|--------|--------|--------|--------|--------|--------|--------|--------|--------|
D|--------|--------|--------|--------|--------|--------|--------|--------|--------|
A|--------|--------|--------|--------|--------|--------|--------|--------|--------|
E|--------|--------|--------|--------|--------|--------|--------|--------|--------|


E|--------|--------|--------|--------|--------|--------|--------|--------|--------|
B|--------|--------|--------|--------|--------|--------|--------|--------|--------|
G|--------|--------|--------|--------|--------|--------|--------|--------|--------|
D|--------|--------|--------|--------|--------|--------|--------|--------|--------|
A|--------|--------|--------|--------|--------|--------|--------|--------|--------|
E|--------|--------|--------|--------|--------|--------|--------|--------|--------|


E|--------|--------|--------|--------|--------|--------|--------|--------|--------|
B|--------|--------|--------|--------|--------|--------|--------|--------|--------|
G|--------|--------|--------|--------|--------|--------|--------|--------|--------|
D|--------|--------|--------|--------|--------|--------|--------|--------|--------|
A|--------|--------|--------|--------|--------|--------|--------|--------|--------|
E|--------|--------|--------|--------|--------|--------|--------|--------|--------|


E|--------|--------|--------|--------|--------|--------|--------|--------|--------|
B|--------|--------|--------|--------|--------|--------|--------|--------|--------|
G|--------|--------|--------|--------|--------|--------|--------|--------|--------|
D|--------|--------|--------|--------|--------|--------|--------|--------|--------|
A|--------|--------|--------|--------|--------|--------|--------|--------|--------|
E|--------|--------|--------|--------|--------|--------|--------|--------|--------|


E|--------|--------|--------|--------|--------|--------|--------|--------|--------|
B|--------|--------|--------|--------|--------|--------|--------|--------|--------|
G|--------|--------|--------|--------|--------|--------|--------|--------|--------|
D|--------|--------|--------|--------|--------|--------|--------|--------|--------|
A|--------|--------|--------|--------|--------|--------|--------|--------|--------|
E|--------|--------|--------|--------|--------|--------|--------|--------|--------|


E|--------|--------|--------|--------|--------|--------|--------|--------|--------|
B|--------|--------|--------|--------|--------|--------|--------|--------|--------|
G|--------|--------|--------|--------|--------|--------|--------|--------|--------|
D|--------|--------|--------|--------|--------|--------|--------|--------|--------|
A|--------|--------|--------|--------|--------|--------|--------|--------|--------|
E|--------|--------|--------|--------|--------|--------|--------|--------|--------|


E|--------|--------|--------|--------|--------|--------|--------|--------|--------|
B|--------|--------|--------|--------|--------|--------|--------|--------|--------|
G|--------|--------|--------|--------|--------|--------|--------|--------|--------|
D|--------|--------|--------|--------|--------|--------|--------|--------|--------|
A|--------|--------|--------|--------|--------|--------|--------|--------|--------|
E|--------|--------|--------|--------|--------|--------|--------|--------|--------|


E|--------|--------|--------|--------|--------|--------|--------|--------|--------|
B|--------|--------|--------|--------|--------|--------|--------|--------|--------|
G|--------|--------|--------|--------|--------|--------|--------|--------|--------|
D|--------|--------|--------|--------|--------|--------|--------|--------|--------|
A|--------|--------|--------|--------|--------|--------|--------|--------|--------|
E|--------|--------|--------|--------|--------|--------|--------|--------|--------|


E|--------|--------|--------|--------|--------|--------|--------|--------|--------|
B|--------|--------|--------|--------|--------|--------|--------|--------|--------|
G|--------|--------|--------|--------|--------|--------|--------|--------|--------|
D|--------|--------|--------|--------|--------|--------|--------|--------|--------|
A|--------|--------|--------|--------|--------|--------|--------|--------|--------|
E|--------|--------|--------|--------|--------|--------|--------|--------|--------|


E|--------|--------|--------|--------|--------|--------|--------|--------|--------|
B|--------|--------|--------|--------|--------|--------|--------|--------|--------|
G|--------|--------|--------|--------|--------|--------|--------|--------|--------|
D|--------|--------|--------|--------|--------|--------|--------|--------|--------|
A|--------|--------|--------|--------|--------|--------|--------|--------|--------|
E|--------|--------|--------|--------|--------|--------|--------|--------|--------|


E|--------|--------|--------|--------|--------|--------|--------|--------|--------|
B|--------|--------|--------|--------|--------|--------|--------|--------|--------|
G|--------|--------|--------|--------|--------|--------|--------|--------|--------|
D|--------|--------|--------|--------|--------|--------|--------|--------|--------|
A|--------|--------|--------|--------|--------|--------|--------|--------|--------|
E|--------|--------|--------|--------|--------|--------|--------|--------|--------|


E|--------|--------|--------|--------|--------|--------|--------|--------|--------|
B|--------|--------|--------|--------|--------|--------|--------|--------|--------|
G|--------|--------|--------|--------|--------|--------|--------|--------|--------|
D|--------|--------|--------|--------|--------|--------|--------|--------|--------|
A|--------|--------|--------|--------|--------|--------|--------|--------|--------|
E|--------|--------|--------|--------|--------|--------|--------|--------|--------|


E|--------|--------|--------|--------|--------|--------|--------|--------|--------|
B|--------|--------|--------|--------|--------|--------|--------|--------|--------|
G|--------|--------|--------|--------|--------|--------|--------|--------|--------|
D|--------|--------|--------|--------|--------|--------|--------|--------|--------|
A|--------|--------|--------|--------|--------|--------|--------|--------|--------|
E|--------|--------|--------|--------|--------|--------|--------|--------|--------|


E|--------|--------|--------|--------|--------|--------|--------|--------|--------|
B|--------|--------|--------|--------|--------|--------|--------|--------|--------|
G|--------|--------|--------|--------|--------|--------|--------|--------|--------|
D|--------|--------|--------|--------|--------|--------|--------|--------|--------|
A|--------|--------|--------|--------|--------|--------|--------|--------|--------|
E|--------|--------|--------|--------|--------|--------|--------|--------|--------|


E|--------|--------|--------|--------|--------|--------|--------|--------|-------------|
B|--------|--------|--------|--------|--------|--------|--------|--------|-------------|
G|--------|--------|--------|--------|--------|--------|--------|--------|-------------|
D|--------|--------|--------|--------|--------|--------|--------|--------|-------------|
A|--------|--------|--------|--------|--------|--------|--------|--------|--------12---|
E|--------|--------|--------|--------|--------|--------|--------|--------|-------------|


E|-------------|-------------|-------------|--------|--------|--------|--------|--------|
B|-------------|-------------|-------------|--------|--------|--------|--------|--------|
G|-------------|-------------|-------------|--------|--------|--------|--------|--------|
D|-------------|-------------|-------------|--------|--------|--------|--------|--------|
A|-------------|-------------|-------------|--------|--------|--------|--------|--------|
E|-------------|-------------|-------------|--------|--------|--------|--------|--------|


E|--------|
B|--------|
G|--------|
D|--------|
A|--------|
E|--------|





Track 7: Dave Ellefson

G|-9---8---------------------------|-9---8-----------9---8-----------|---------------------------------|
D|-10--9---------------------------|-10--9-----------10--9-----------|---------------------------------|
A|---------0---0---0---0---0---0---|---------0---0-----------0---0---|-3---4---0---0---0---0---0---0---|
E|---------------------------------|---------------------------------|---------------------------------|


G|---------------------------------|-9---8---------------------------|-9---8-----------9---8-----------|
D|---------------------------------|-10--9---------------------------|-10--9-----------10--9-----------|
A|-0---0---0---0---0---0---0---0---|---------0---0---0---0---0---0---|---------0---0-----------0---0---|
E|---------------------------------|---------------------------------|---------------------------------|


G|---------------------------------|---------------------------------|-9---8---------------------------|
D|---------------------------------|---------------------------------|-10--9---------------------------|
A|-3---4---0---0---0---0---0---0---|-0---0---0---0---0---0---0---0---|---------0---0---0---0---0---0---|
E|---------------------------------|---------------------------------|---------------------------------|


G|-9---8-----------9---8-----------|---------------------------------|---------------------------------|
D|-10--9-----------10--9-----------|---------------------------------|---------------------------------|
A|---------0---0-----------0---0---|-3---4---0---0---0---0---0---0---|-0---0---0---0---0---0---0---0---|
E|---------------------------------|---------------------------------|---------------------------------|


G|-9---8---------------------------|-9---8-----------9---8-----------|---------------------------------|
D|-10--9---------------------------|-10--9-----------10--9-----------|---------------------------------|
A|---------0---0---0---0---0---0---|---------0---0-----------0---0---|-3---4---0---0---0---0---0---0---|
E|---------------------------------|---------------------------------|---------------------------------|


G|---------------------------------|-9---8---------------------------|-9---8-----------9---8-----------|
D|---------------------------------|-10--9---------------------------|-10--9-----------10--9-----------|
A|-0---0---0---0---0---0---0---0---|---------0---0---0---0---0---0---|---------0---0-----------0---0---|
E|---------------------------------|---------------------------------|---------------------------------|


G|---------------------------------|---------------------------------|-9---8---------------------------|
D|---------------------------------|---------------------------------|-10--9---------------------------|
A|-3---4---0---0---0---0---0---0---|-0---0---0---0---0---0---0---0---|---------0---0---0---0---0---0---|
E|---------------------------------|---------------------------------|---------------------------------|


G|-9---8-----------9---8-----------|---------------------------------|---------------------------------|
D|-10--9-----------10--9-----------|---------------------------------|---------------------------------|
A|---------0---0-----------0---0---|-3---4---0---0---0---0---0---0---|-0---0---0---0---0---0---0---0---|
E|---------------------------------|---------------------------------|---------------------------------|


G|-9---8---------------------------|-9---8-----------9---8-----------|---------------------------------|
D|-10--9---------------------------|-10--9-----------10--9-----------|---------------------------------|
A|---------0---0---0---0---0---0---|---------0---0-----------0---0---|-3---4---0---0---0---0---0---0---|
E|---------------------------------|---------------------------------|---------------------------------|


G|---------------------------------|-9---8---------------------------|-9---8-----------9---8-----------|
D|---------------------------------|-10--9---------------------------|-10--9-----------10--9-----------|
A|-0---0---0---0---0---0---0---0---|---------0---0---0---0---0---0---|---------0---0-----------0---0---|
E|---------------------------------|---------------------------------|---------------------------------|


G|--------------------|--------|--------|--------|--------|------------------------------|
D|--------------------|--------|--------|--------|--------|------------------------------|
A|-3---4---12---12----|-12-----|-12-----|-12-----|-12-----|-0----0---0---0---0---0---0---|
E|--------------------|--------|--------|--------|--------|------------------------------|


G|------------------------|------------------------------|---------------------|------------------------------|
D|-7-----------------5----|------------------------------|---------------------|------------------------------|
A|------0---7----0--------|-0----0---0---0---0---0---0---|-5-----3---3----2----|-0----0---0---0---0---0---0---|
E|------------------------|------------------------------|---------------------|------------------------------|


G|------------------------|------------------------------|---------------------|------------------------------|
D|-7-----------------5----|------------------------------|---------------------|------------------------------|
A|------0---7----0--------|-0----0---0---0---0---0---0---|-5-----6---6----7----|-0----0---0---0---0---0---0---|
E|------------------------|------------------------------|---------------------|------------------------------|


G|------------------------|------------------------------|---------------------|------------------------------|
D|-7-----------------5----|------------------------------|---------------------|------------------------------|
A|------0---7----0--------|-0----0---0---0---0---0---0---|-5-----3---3----2----|-0----0---0---0---0---0---0---|
E|------------------------|------------------------------|---------------------|------------------------------|


G|------------------------|------------------------------|---------------------|------------------------------|
D|-7-----------------5----|------------------------------|---------------------|------------------------------|
A|------0---7----0--------|-0----0---0---0---0---0---0---|-5-----6---6----7----|-0----0---0---0---0---0---0---|
E|------------------------|------------------------------|---------------------|------------------------------|


G|------------------------|------------------------------|---------------------|------------------------------|
D|-7-----------------5----|------------------------------|---------------------|------------------------------|
A|------0---7----0--------|-0----0---0---0---0---0---0---|-5-----3---3----2----|-0----0---0---0---0---0---0---|
E|------------------------|------------------------------|---------------------|------------------------------|


G|------------------------|------------------------------|---------------------|------------------------------|
D|-7-----------------5----|------------------------------|---------------------|------------------------------|
A|------0---7----0--------|-0----0---0---0---0---0---0---|-5-----6---6----7----|-0----0---0---0---0---0---0---|
E|------------------------|------------------------------|---------------------|------------------------------|


G|------------------------|------------------------------|---------------------|------------------------------|
D|-7-----------------5----|------------------------------|---------------------|------------------------------|
A|------0---7----0--------|-0----0---0---0---0---0---0---|-5-----3---3----2----|-0----0---0---0---0---0---0---|
E|------------------------|------------------------------|---------------------|------------------------------|


G|------------------------|------------------------------|---------------------|------------------------------|
D|-7-----------------5----|------------------------------|---------------------|------------------------------|
A|------0---7----0--------|-0----0---0---0---0---0---0---|-5-----6---6----7----|-0----0---0---0---0---0---0---|
E|------------------------|------------------------------|---------------------|------------------------------|


G|------------------------|------------------------------|---------------------|------------------------------|
D|-7-----------------5----|------------------------------|---------------------|------------------------------|
A|------0---7----0--------|-0----0---0---0---0---0---0---|-5-----3---3----2----|-0----0---0---0---0---0---0---|
E|------------------------|------------------------------|---------------------|------------------------------|


G|------------------------|------------------------------|---------------------|------------------------------|
D|-7-----------------5----|------------------------------|---------------------|------------------------------|
A|------0---7----0--------|-0----0---0---0---0---0---0---|-5-----6---6----7----|-0----0---0---0---0---0---0---|
E|------------------------|------------------------------|---------------------|------------------------------|


G|------------------------|------------------------------|---------------------|------------------------------|
D|-7-----------------5----|------------------------------|---------------------|------------------------------|
A|------0---7----0--------|-0----0---0---0---0---0---0---|-5-----3---3----2----|-0----0---0---0---0---0---0---|
E|------------------------|------------------------------|---------------------|------------------------------|


G|------------------------|------------------------------|---------------------|---------------------|
D|-7-----------------5----|------------------------------|---------------------|---------------------|
A|------0---7----0--------|-0----0---0---0---0---0---0---|-5-----6---6----7----|---------------------|
E|------------------------|------------------------------|---------------------|-1-----2---2----3----|


G|---------------------|--------|--------|---------------------|---------------------|
D|---------------------|--------|--------|---------------------|---------------------|
A|---------------------|-0------|-0------|---------------------|----------------3----|
E|-3---4-----3----2----|--------|--------|-1-----2---2----3----|-3---4-----3---------|


G|--------|--------|---------------------|---------------------|---------------------|
D|--------|--------|---------------------|---------------------|---------------------|
A|-2------|-2------|---------------------|---------------------|---------------------|
E|--------|--------|-1-----2---2----3----|-3---4-----3----2----|-2-----3---3----4----|


G|---------------------|---------------------|---------------------|---------------------|
D|---------------------|---------------------|---------------------|---------------------|
A|---------------------|---------------------|---------------------|---------------------|
E|-4---5-----4----3----|-3-----4---4----5----|-5---6-----5----4----|-5-----6---6----7----|


G|---------------------|------------------------------|---------------------------------|
D|---------------------|------------------------------|---------------------------------|
A|---------------------|------0---0---0---0---0---0---|-0---0---0---0---0---0-----------|
E|-7---5-----6----7----|-8----------------------------|-------------------------8---7---|


G|------------------------------|---------------------------------|------------------------------|
D|------------------------------|---------------------------------|------------------------------|
A|------0---0---0---0---0---0---|-0---0---0---0---0---0-----------|------0---0---0---0---0---0---|
E|-7----------------------------|-------------------------6---5---|-5----------------------------|


G|---------------------------------|------------------------------|---------------------------------|
D|---------------------------------|------------------------------|---------------------------------|
A|-0---0---0---0---0---0-----------|------0---0---0---0---0---0---|-0---0---0---0---0---0-----------|
E|-------------------------5---4---|-4----------------------------|-------------------------4---3---|


G|------------------------------|---------------------------------|------------------------------|
D|------------------------------|---------------------------------|------------------------------|
A|------0---0---0---0---0---0---|-0---0---0---0---0---0-----------|------0---0---0---0---0---0---|
E|-3----------------------------|-------------------------3---2---|-2----------------------------|


G|---------------------------------|--------------------|------------------------|
D|---------------------------------|--------------------|------------------------|
A|-0---0---0---0---0---0-----------|--------------------|-----3---3--------------|
E|-------------------------2---1---|-1-------------1----|--------------3----1----|


G|---------------------------|---------------------|-------------|-------------|---------------------------|
D|---------------------------|---------------------|-------------|-------------|---------------------------|
A|---------------------------|----------------0----|--------0----|-------------|---------------------------|
E|-----2---2----3----3---4---|------3----2---------|-------------|--------1----|-----2---2----3----3---4---|


G|---------------------|-------------|-------------|---------------------------------|
D|---------------------|-------------|-------------|---------------------------------|
A|-----------3----2----|-------------|--------0----|-0---0---0---0---0---0---0---0---|
E|------3--------------|--------3----|-------------|---------------------------------|


G|------------------------------|---------------------------------|------------------------------|
D|------------------------------|---------------------------------|------------------------------|
A|-0---0---0---0---0---0---3----|-0---0---0---0---0---0---0---0---|-0---0---0---0---0---0---5----|
E|------------------------------|---------------------------------|------------------------------|


G|---------------------------------|------------------------------|------------------------------|
D|---------------------------------|------------------------------|------------------------------|
A|-0---0---0---0---0---0---0---0---|-0---0---0---0---0---0---8----|-0---0---0---0---0---0---7----|
E|---------------------------------|------------------------------|------------------------------|


G|------------------------------|---------------------------------|------------------------------|
D|------------------------------|---------------------------------|------------------------------|
A|-0---0---0---0---0---0---0----|-0---0---0---0---0---0---0---0---|-0---0---0---0---0---0---3----|
E|------------------------------|---------------------------------|------------------------------|


G|---------------------------------|------------------------------|---------------------------------|
D|---------------------------------|------------------------------|---------------------------------|
A|-0---0---0---0---0---0---0---0---|-0---0---0---0---0---0---5----|-0---0---0---0---0---0---0---0---|
E|---------------------------------|------------------------------|---------------------------------|


G|------------------------------|------------------------------|------------------------------|
D|------------------------------|------------------------------|------------------------------|
A|-0---0---0---0---0---0---8----|-0---0---0---0---0---0---7----|-0---0---0---0---0---0---0----|
E|------------------------------|------------------------------|------------------------------|


G|---------------------------------|------------------------------|---------------------------------|
D|---------------------------------|------------------------------|---------------------------------|
A|-0---0---0---0---0---0---0---0---|-0---0---0---0---0---0---3----|-0---0---0---0---0---0---0---0---|
E|---------------------------------|------------------------------|---------------------------------|


G|------------------------------|---------------------------------|------------------------------|
D|------------------------------|---------------------------------|------------------------------|
A|-0---0---0---0---0---0---5----|-0---0---0---0---0---0---0---0---|-0---0---0---0---0---0---8----|
E|------------------------------|---------------------------------|------------------------------|


G|------------------------------|------------------------------|-----2---2---5-------------|
D|------------------------------|-------------------------3----|-----------------3----2----|
A|-0---0---0---0---0---0---7----|-0---0---0---0---0---0--------|---------------------------|
E|------------------------------|------------------------------|---------------------------|


G|-----1---1---4-------------|---------------------------------|------------------------------|
D|-----------------2---------|---------------------------------|------------------------------|
A|----------------------0----|-0---0---0---0---0---0---0---0---|-0---0---0---0---0---0---3----|
E|---------------------------|---------------------------------|------------------------------|


G|---------------------------------|------------------------------|---------------------------------|
D|---------------------------------|------------------------------|---------------------------------|
A|-3---3---3---3---3---3---3---3---|-3---3---3---3---3---3---5----|-5---5---5---5---5---5---5---5---|
E|---------------------------------|------------------------------|---------------------------------|


G|------------------------------|------------------------------|------------------------------|
D|------------------------------|------------------------------|------------------------------|
A|-5---5---5---5---5---5---8----|-8---8---8---8---8---8---7----|-7---7---7---7---7---7---0----|
E|------------------------------|------------------------------|------------------------------|


G|---------------------------------|------------------------------|---------------------------------|
D|---------------------------------|------------------------------|---------------------------------|
A|-0---0---0---0---0---0---0---0---|-0---0---0---0---0---0---3----|-3---3---3---3---3---3---3---3---|
E|---------------------------------|------------------------------|---------------------------------|


G|------------------------------|---------------------------------|------------------------------|
D|------------------------------|---------------------------------|------------------------------|
A|-3---3---3---3---3---3---5----|-5---5---5---5---5---5---5---5---|-5---5---5---5---5---5---8----|
E|------------------------------|---------------------------------|------------------------------|


G|------------------------------|------------------------------|------------------------------|
D|------------------------------|------------------------------|------------------------------|
A|-8---8---8---8---8---8---7----|-7---7---7---7---7---7---0----|-0---0---0---0---0---0---0----|
E|------------------------------|------------------------------|------------------------------|


G|------------------------|------------------------------|------------------------|
D|------------------------|------------------------------|------------------------|
A|-----1---1----2----3----|-3---3---3---3---3---3---3----|-----4---4----7----5----|
E|------------------------|------------------------------|------------------------|


G|------------------------------|------------------------|------------------------------|
D|------------------------------|------------------------|------------------------------|
A|-5---5---5---5---5---5---5----|-----6---6----7----8----|-8---8---8---8---8---8---7----|
E|------------------------------|------------------------|------------------------------|


G|------------------------------|-------------|------------------------|-------------|
D|------------------------------|-------------|------------------------|-------------|
A|-7---7---7---7---7---7---0----|--------0----|-----1---1----2----3----|--------3----|
E|------------------------------|-------------|------------------------|-------------|


G|------------------------|-------------|------------------------|-------------|-------------|
D|------------------------|-------------|------------------------|-------------|-------------|
A|-----4---4----7----5----|--------5----|-----6---6----7----8----|--------7----|--------0----|
E|------------------------|-------------|------------------------|-------------|-------------|


G|-----------------|
D|-----------------|
A|-----------------|
E|-----------------|