Menu:

 

Search:

 

megadeth - of mice and men:

 



Title: Of Mice And Men
Artist: 
Album: The System Has Failed
Author: Dave Mustaine


Track 1: Distortion Guitar

E|--------|----------------------|-------------------------|-------------------------|
B|--------|----------------------|-------------------------|-------------------------|
G|--------|----------------------|-------------------------|-------------------------|
D|--------|----------------------|-------------------------|-------7-----7-----------|
A|--------|----------------------|-------4-----4-----------|-5--5--5-----5-----5--5--|
E|--------|----------------0--0--|-2--2--2-----2-----0--0--|-------------------------|


E|-----------------------------------|-------------------------|-------------------------|
B|-----------------------------------|-------------------------|-------------------------|
G|-----------------------------------|-------------------------|-------------------------|
D|-------4-----4---------------------|-------------------------|-------------------------|
A|-2--2--2-----2---2--0--2--3--2--0--|-------4-----4-----------|-------4-----4-----------|
E|-----------------------------------|-2--2--2-----2-----0--0--|-2--2--2-----2-----0--0--|


E|-------------------------|-----------------------------------|-------------------------|
B|-------------------------|-----------------------------------|-------------------------|
G|-------------------------|-----------------------------------|-------------------------|
D|-------7-----7-----------|-------4-----4---------------------|-------------------------|
A|-5--5--5-----5-----5--5--|-2--2--2-----2---2--0--2--3--2--0--|-------4-----4-----------|
E|-------------------------|-----------------------------------|-2--2--2-----2-----0--0--|


E|-------------------------|-------------------------|-----------------------------------|
B|-------------------------|-------------------------|-----------------------------------|
G|-------------------------|-------------------------|-----------------------------------|
D|-------------------------|-------7-----7-----------|-------4-----4---------------------|
A|-------4-----4-----------|-5--5--5-----5-----5--5--|-2--2--2-----2---2--0--2--3--2--0--|
E|-2--2--2-----2-----0--0--|-------------------------|-----------------------------------|


E|-------------------------|-------------------------|-------------------------|-----------------------------------|
B|-------------------------|-------------------------|-------------------------|-----------------------------------|
G|-------------------------|-------------------------|-------------------------|-----------------------------------|
D|-------------------------|-------------------------|-------7-----7-----------|-------4-----4---------------------|
A|-------4-----4-----------|-------4-----4-----------|-5--5--5-----5-----5--5--|-2--2--2-----2---2--0--2--3--2--0--|
E|-2--2--2-----2-----0--0--|-2--2--2-----2-----0--0--|-------------------------|-----------------------------------|


E|-------------------------|-------------------------|-------------------------|-----------------------------------|
B|-------------------------|-------------------------|-------------------------|-----------------------------------|
G|-------------------------|-------------------------|-------------------------|-----------------------------------|
D|-------------------------|-------------------------|-------7-----7-----------|-------4-----4---------------------|
A|-------4-----4-----------|-------4-----4-----------|-5--5--5-----5-----5--5--|-2--2--2-----2---2--0--2--3--2--0--|
E|-2--2--2-----2-----0--0--|-2--2--2-----2-----0--0--|-------------------------|-----------------------------------|


E|-------------------------|-------------------------|-------------------------|-----------------------------------|
B|-------------------------|-------------------------|-------------------------|-----------------------------------|
G|-------------------------|-------------------------|-------------------------|-----------------------------------|
D|-------------------------|-------------------------|-------7-----7-----------|-------4-----4---------------------|
A|-------4-----4-----------|-------4-----4-----------|-5--5--5-----5-----5--5--|-2--2--2-----2---2--0--2--3--2--0--|
E|-2--2--2-----2-----0--0--|-2--2--2-----2-----0--0--|-------------------------|-----------------------------------|


E|--------------------------|-------------------------------------------------|-------------------------------------------------|
B|--------------------------|-------------------------------------------------|-------------------------------------------------|
G|--------------------------|-------------------------------------------------|-------------------------------------------------|
D|--------------------------|-4-----4--3--2-----4-----4--3--2-----4--3--2-----|-4-----4--3--2-----4-----4--3--2-----4--3--2-----|
A|-------4-----4----4----4--|----4-----------4-----4-----------4-----------4--|----4-----------4-----4-----------4-----------4--|
E|-2--2--2-----2----2-------|-------------------------------------------------|-------------------------------------------------|


E|-------------------------------------------------|--------------------------------------------------|
B|-------------------------------------------------|--------------------------------------------------|
G|-------------------------------------------------|--------------------------------------------------|
D|-4-----4--3--2-----4-----4--3--2-----4--3--2-----|--------------------------2-----4--2--------------|
A|----4-----------4-----4-----------4-----------4--|-------2--3-2----2--3--4-----4--------4--3--2-----|
E|-------------------------------------------------|-2--5---------5--------------------------------5--|


E|--------------------------------------------------|--------------------------------------------------|
B|--------------------------------------------------|--------------------------------------------------|
G|--------------------------------------------------|--------------------------------------------------|
D|--------------------------2-----4--2--------------|--------------------------2-----4--2--------------|
A|-------2--3-2----2--3--4-----4--------4--3--2-----|-------2--3-2----2--3--4-----4--------4--3--2-----|
E|-2--5---------5--------------------------------5--|-2--5---------5--------------------------------5--|


E|--------------------------------------------------|--------------------------------------------------|
B|--------------------------------------------------|--------------------------------------------------|
G|--------------------------------------2-----4--2--|--------------------------------------------------|
D|--------------------------2-----4--2-----4--------|--------------------------2-----4--2--------------|
A|-------2--3-2----2--3--4-----4--------------------|-------2--3-2----2--3--4-----4--------4--3--2-----|
E|-2--5---------5-----------------------------------|-2--5---------5--------------------------------5--|


E|--------------------------------------------------|--------------------------------------------------|
B|--------------------------------------------------|--------------------------------------------------|
G|--------------------------------------------------|--------------------------------------------------|
D|--------------------------2-----4--2--------------|--------------------------2-----4--2--------------|
A|-------2--3-2----2--3--4-----4--------4--3--2-----|-------2--3-2----2--3--4-----4--------4--3--2-----|
E|-2--5---------5--------------------------------5--|-2--5---------5--------------------------------5--|


E|--------------------------------------------------|-------------------------|-------------------------|
B|--------------------------------------------------|-------------------------|-------------------------|
G|--------------------------------------2-----4--2--|-------------------------|-------------------------|
D|--------------------------2-----4--2-----4--------|-------------------------|-------7-----7-----------|
A|-------2--3-2----2--3--4-----4--------------------|-------4-----4-----------|-5--5--5-----5-----5--5--|
E|-2--5---------5-----------------------------------|-2--2--2-----2-----0--0--|-------------------------|


E|-----------------------------------|-------------------------|-------------------------|
B|-----------------------------------|-------------------------|-------------------------|
G|-----------------------------------|-------------------------|-------------------------|
D|-------4-----4---------------------|-------------------------|-------------------------|
A|-2--2--2-----2---2--0--2--3--2--0--|-------4-----4-----------|-------4-----4-----------|
E|-----------------------------------|-2--2--2-----2-----0--0--|-2--2--2-----2-----0--0--|


E|-------------------------|-----------------------------------|-------------------------|
B|-------------------------|-----------------------------------|-------------------------|
G|-------------------------|-----------------------------------|-------------------------|
D|-------7-----7-----------|-------4-----4---------------------|-------------------------|
A|-5--5--5-----5-----5--5--|-2--2--2-----2---2--0--2--3--2--0--|-------4-----4-----------|
E|-------------------------|-----------------------------------|-2--2--2-----2-----0--0--|


E|-------------------------|-------------------------|-----------------------------------|
B|-------------------------|-------------------------|-----------------------------------|
G|-------------------------|-------------------------|-----------------------------------|
D|-------------------------|-------7-----7-----------|-------4-----4---------------------|
A|-------4-----4-----------|-5--5--5-----5-----5--5--|-2--2--2-----2---2--0--2--3--2--0--|
E|-2--2--2-----2-----0--0--|-------------------------|-----------------------------------|


E|-------------------------|-------------------------|-------------------------|-----------------------------------|
B|-------------------------|-------------------------|-------------------------|-----------------------------------|
G|-------------------------|-------------------------|-------------------------|-----------------------------------|
D|-------------------------|-------------------------|-------7-----7-----------|-------4-----4---------------------|
A|-------4-----4-----------|-------4-----4-----------|-5--5--5-----5-----5--5--|-2--2--2-----2---2--0--2--3--2--0--|
E|-2--2--2-----2-----0--0--|-2--2--2-----2-----0--0--|-------------------------|-----------------------------------|


E|--------------------------|-------------------------------------------------|-------------------------------------------------|
B|--------------------------|-------------------------------------------------|-------------------------------------------------|
G|--------------------------|-------------------------------------------------|-------------------------------------------------|
D|--------------------------|-4-----4--3--2-----4-----4--3--2-----4--3--2-----|-4-----4--3--2-----4-----4--3--2-----4--3--2-----|
A|-------4-----4----4----4--|----4-----------4-----4-----------4-----------4--|----4-----------4-----4-----------4-----------4--|
E|-2--2--2-----2----2-------|-------------------------------------------------|-------------------------------------------------|


E|-------------------------------------------------|--------------------------------------------------|
B|-------------------------------------------------|--------------------------------------------------|
G|-------------------------------------------------|--------------------------------------------------|
D|-4-----4--3--2-----4-----4--3--2-----4--3--2-----|--------------------------2-----4--2--------------|
A|----4-----------4-----4-----------4-----------4--|-------2--3-2----2--3--4-----4--------4--3--2-----|
E|-------------------------------------------------|-2--5---------5--------------------------------5--|


E|--------------------------------------------------|--------------------------------------------------|
B|--------------------------------------------------|--------------------------------------------------|
G|--------------------------------------------------|--------------------------------------------------|
D|--------------------------2-----4--2--------------|--------------------------2-----4--2--------------|
A|-------2--3-2----2--3--4-----4--------4--3--2-----|-------2--3-2----2--3--4-----4--------4--3--2-----|
E|-2--5---------5--------------------------------5--|-2--5---------5--------------------------------5--|


E|--------------------------------------------------|--------------------------------------------------|
B|--------------------------------------------------|--------------------------------------------------|
G|--------------------------------------2-----4--2--|--------------------------------------------------|
D|--------------------------2-----4--2-----4--------|--------------------------2-----4--2--------------|
A|-------2--3-2----2--3--4-----4--------------------|-------2--3-2----2--3--4-----4--------4--3--2-----|
E|-2--5---------5-----------------------------------|-2--5---------5--------------------------------5--|


E|--------------------------------------------------|--------------------------------------------------|
B|--------------------------------------------------|--------------------------------------------------|
G|--------------------------------------------------|--------------------------------------------------|
D|--------------------------2-----4--2--------------|--------------------------2-----4--2--------------|
A|-------2--3-2----2--3--4-----4--------4--3--2-----|-------2--3-2----2--3--4-----4--------4--3--2-----|
E|-2--5---------5--------------------------------5--|-2--5---------5--------------------------------5--|


E|--------------------------------------------------|-------------------------------------------------|
B|--------------------------------------------------|-------------------------------------------------|
G|--------------------------------------2-----4-----|-------------------------------------------------|
D|--------------------------2-----4--2-----4--------|-------4--3--2-----2-----------------------------|
A|-------2--3-2----2--3--4-----4--------------------|----------------4-----4--3--2-----2--------------|
E|-2--5---------5--------------------------------2--|----2--------------------------5-----5--4--3--2--|


E|-------------------------------------------------|-------------------------------------------------|
B|-------------------------------------------------|-------------------------------------------------|
G|-------------------------------------------------|-------------------------------------------------|
D|-------4--3--2-----2-----------------------------|-------4--3--2-----2-----------------------------|
A|----------------4-----4--3--2-----2--------------|----------------4-----4--3--2-----2--------------|
E|----2--------------------------5-----5--4--3--2--|----2--------------------------5-----5--4--3--2--|


E|-----------------------------------------------|--------------------------------------------------|
B|-----------------------------------------------|--------------------------------------------------|
G|-------------------------------7-----5-----3---|--------------------------------------------------|
D|-------4--3--2-----2-----2--7-----5-----3------|--------------------------2-----4--2--------------|
A|----------------4-----4------------------------|-------2--3-2----2--3--4-----4--------4--3--2-----|
E|----2------------------------------------------|-2--5---------5--------------------------------5--|


E|--------------------------------------------------|--------------------------------------------------|
B|--------------------------------------------------|--------------------------------------------------|
G|--------------------------------------------------|--------------------------------------------------|
D|--------------------------2-----4--2--------------|--------------------------2-----4--2--------------|
A|-------2--3-2----2--3--4-----4--------4--3--2-----|-------2--3-2----2--3--4-----4--------4--3--2-----|
E|-2--5---------5--------------------------------5--|-2--5---------5--------------------------------5--|


E|--------------------------------------------------|--------------------------------------------------|
B|--------------------------------------------------|--------------------------------------------------|
G|--------------------------------------2-----4--2--|--------------------------------------------------|
D|--------------------------2-----4--2-----4--------|--------------------------2-----4--2--------------|
A|-------2--3-2----2--3--4-----4--------------------|-------2--3-2----2--3--4-----4--------4--3--2-----|
E|-2--5---------5-----------------------------------|-2--5---------5--------------------------------5--|


E|--------------------------------------------------|--------------------------------------------------|
B|--------------------------------------------------|--------------------------------------------------|
G|--------------------------------------------------|--------------------------------------------------|
D|--------------------------2-----4--2--------------|--------------------------2-----4--2--------------|
A|-------2--3-2----2--3--4-----4--------4--3--2-----|-------2--3-2----2--3--4-----4--------4--3--2-----|
E|-2--5---------5--------------------------------5--|-2--5---------5--------------------------------5--|


E|--------------------------------------------------|--------------------------------------------------|
B|--------------------------------------------------|--------------------------------------------------|
G|--------------------------------------2-----4--2--|--------------------------------------------------|
D|--------------------------2-----4--2-----4--------|--------------------------2-----4--2--------------|
A|-------2--3-2----2--3--4-----4--------------------|-------2--3-2----2--3--4-----4--------4--3--2-----|
E|-2--5---------5-----------------------------------|-2--5---------5--------------------------------5--|


E|--------------------------------------------------|--------------------------------------------------|
B|--------------------------------------------------|--------------------------------------------------|
G|--------------------------------------------------|--------------------------------------------------|
D|--------------------------2-----4--2--------------|--------------------------2-----4--2--------------|
A|-------2--3-2----2--3--4-----4--------4--3--2-----|-------2--3-2----2--3--4-----4--------4--3--2-----|
E|-2--5---------5--------------------------------5--|-2--5---------5--------------------------------5--|


E|--------------------------------------------------|--------------------------------------------------|
B|--------------------------------------------------|--------------------------------------------------|
G|--------------------------------------2-----4--2--|--------------------------------------------------|
D|--------------------------2-----4--2-----4--------|--------------------------2-----4--2--------------|
A|-------2--3-2----2--3--4-----4--------------------|-------2--3-2----2--3--4-----4--------4--3--2-----|
E|-2--5---------5-----------------------------------|-2--5---------5--------------------------------5--|


E|--------------------------------------------------|--------------------------------------------------|
B|--------------------------------------------------|--------------------------------------------------|
G|--------------------------------------------------|--------------------------------------------------|
D|--------------------------2-----4--2--------------|--------------------------2-----4--2--------------|
A|-------2--3-2----2--3--4-----4--------4--3--2-----|-------2--3-2----2--3--4-----4--------4--3--2-----|
E|-2--5---------5--------------------------------5--|-2--5---------5--------------------------------5--|


E|---------------------------------------|------------------------|
B|---------------------------------------|------------------------|
G|---------------------------------------|------------------------|
D|---------------------------------------|------------------------|
A|-------2--3-2----2--3--4--4----2--2----|-2-----4---4------------|
E|-2--5---------5-----------2----0--0----|-0-----2---2------------|





Track 2: Lead Guitar

E|--------|--------|--------|--------|--------|--------|--------|--------|--------|
B|--------|--------|--------|--------|--------|--------|--------|--------|--------|
G|--------|--------|--------|--------|--------|--------|--------|--------|--------|
D|--------|--------|--------|--------|--------|--------|--------|--------|--------|
A|--------|--------|--------|--------|--------|--------|--------|--------|--------|
E|--------|--------|--------|--------|--------|--------|--------|--------|--------|


E|--------|--------|--------|--------|--------|--------|--------|--------|--------|
B|--------|--------|--------|--------|--------|--------|--------|--------|--------|
G|--------|--------|--------|--------|--------|--------|--------|--------|--------|
D|--------|--------|--------|--------|--------|--------|--------|--------|--------|
A|--------|--------|--------|--------|--------|--------|--------|--------|--------|
E|--------|--------|--------|--------|--------|--------|--------|--------|--------|


E|--------|--------|--------|--------|--------|--------|--------|--------|---------------------------|
B|--------|--------|--------|--------|--------|--------|--------|--------|---------------------------|
G|--------|--------|--------|--------|--------|--------|--------|--------|-----------11-11-11-9---11-|
D|--------|--------|--------|--------|--------|--------|--------|--------|---------------------------|
A|--------|--------|--------|--------|--------|--------|--------|--------|---------------------------|
E|--------|--------|--------|--------|--------|--------|--------|--------|---------------------------|


E|---------------------------|---------------------------|--------|--------|--------|
B|--------------------12-----|------------------------10-|--------|--------|--------|
G|-11----11--11-11-11-----11-|-11--------11-11-11-9------|--------|--------|--------|
D|---------------------------|---------------------------|-11-----|-12-----|-13-----|
A|---------------------------|---------------------------|--------|--------|--------|
E|---------------------------|---------------------------|--------|--------|--------|


E|--------|--------|--------|--------|--------|-----------------|--------|--------|
B|--------|--------|--------|--------|--------|-----------------|--------|--------|
G|--------|--------|--------|--------|--------|-----------------|--------|--------|
D|-11-----|-11-----|-12-----|-13-----|-11-----|-----------------|--------|--------|
A|--------|--------|--------|--------|--------|-------9---9-----|-9------|--------|
E|--------|--------|--------|--------|--------|-12--------------|--------|--------|


E|--------|--------|--------|--------|--------|--------|--------|--------|--------|
B|--------|--------|--------|--------|--------|--------|--------|--------|--------|
G|--------|--------|--------|--------|--------|--------|--------|--------|--------|
D|--------|--------|--------|--------|--------|--------|--------|--------|--------|
A|--------|--------|--------|--------|--------|--------|--------|--------|--------|
E|--------|--------|--------|--------|--------|--------|--------|--------|--------|


E|--------|--------|--------|--------|---------------------------|---------------------------|
B|--------|--------|--------|--------|---------------------------|--------------------12-----|
G|--------|--------|--------|--------|-----------11-11-11-9---11-|-11----11--11-11-11-----11-|
D|--------|--------|--------|--------|---------------------------|---------------------------|
A|--------|--------|--------|--------|---------------------------|---------------------------|
E|--------|--------|--------|--------|---------------------------|---------------------------|


E|---------------------------|--------|--------|--------|--------|-----------------------------|
B|------------------------10-|--------|--------|--------|--------|-14----14-14----14--13-14-15-|
G|-11--------11-11-11-9------|--------|--------|--------|--------|-----------------------------|
D|---------------------------|-11-----|-12-----|-13-----|-11-----|-----------------------------|
A|---------------------------|--------|--------|--------|--------|-----------------------------|
E|---------------------------|--------|--------|--------|--------|-----------------------------|


E|-------------------------------|--------|--------|-----------------------------------------------|
B|-15----15-15----15----15----15-|-16-----|--------|-----------------------------------------------|
G|-------------------------------|--------|--------|-16---16---17-16-14----14-16-17-16-14----14-16-|
D|-------------------------------|--------|--------|--------------------16----------------16-------|
A|-------------------------------|--------|--------|-----------------------------------------------|
E|-------------------------------|--------|--------|-----------------------------------------------|


E|--------------------------------------|-22--2121-19-21--1919-17-21--1919-17-19-17-21-19-17-|
B|------------------1010-9--9-----9--15-|----------------------------------------------------|
G|-----1414-9--9-11---------------------|----------------------------------------------------|
D|-12-----------------------------------|----------------------------------------------------|
A|--------------------------------------|----------------------------------------------------|
E|--------------------------------------|----------------------------------------------------|


E|-19-17-16-17-16----16-------------------------16-17-19----------17-19-21-|--------|
B|----------------19----19-17-19-17-15-15-17-19----------17-19-21----------|--------|
G|-------------------------------------------------------------------------|--------|
D|-------------------------------------------------------------------------|-11-----|
A|-------------------------------------------------------------------------|--------|
E|-------------------------------------------------------------------------|--------|


E|--------|--------|--------|-----------------------------|-------------------------------|
B|--------|--------|--------|-14----14-14----14--13-14-15-|-15----15-15----15----15----15-|
G|--------|--------|--------|-----------------------------|-------------------------------|
D|-12-----|-13-----|-11-----|-----------------------------|-------------------------------|
A|--------|--------|--------|-----------------------------|-------------------------------|
E|--------|--------|--------|-----------------------------|-------------------------------|


E|--------------------19--|-19---17---17---17--17--17--|-----------------------------|
B|-16----16---------------|----------------------------|-14----14-14----14--13-14-15-|
G|------------------------|----------------------------|-----------------------------|
D|------------------------|----------------------------|-----------------------------|
A|------------------------|----------------------------|-----------------------------|
E|------------------------|----------------------------|-----------------------------|


E|-------------------------------|--------------------19--|-19---17---17---17--17--17--|
B|-15----15-15----15----15----15-|-16----16---------------|----------------------------|
G|-------------------------------|------------------------|----------------------------|
D|-------------------------------|------------------------|----------------------------|
A|-------------------------------|------------------------|----------------------------|
E|-------------------------------|------------------------|----------------------------|


E|-17----17--------------------------|-----------------------------------|---------------------------|
B|--------------14----14----14-14-15-|-15----15-----15----15----15----15-|-16----16-17--17-17--17----|
G|-----------------------------------|-----------------------------------|------------------------16-|
D|-----------------------------------|-----------------------------------|---------------------------|
A|-----------------------------------|-----------------------------------|---------------------------|
E|-----------------------------------|-----------------------------------|---------------------------|


E|--------------14---------------------|-----------------|
B|-----------------17-14---------------|-----------------|
G|-16---14---------------16-16-14------|-----------------|
D|-----------14-------------------14---|-14----14--------|
A|-------------------------------------|-----------------|
E|-------------------------------------|-----------------|





Track 3: Lead Guitar

E|--------|--------|--------|--------|--------|--------|--------|--------|--------|
B|--------|--------|--------|--------|--------|--------|--------|--------|--------|
G|--------|--------|--------|--------|--------|--------|--------|--------|--------|
D|--------|--------|--------|--------|--------|--------|--------|--------|--------|
A|--------|--------|--------|--------|--------|--------|--------|--------|--------|
E|--------|--------|--------|--------|--------|--------|--------|--------|--------|


E|--------|--------|--------|--------|--------|--------|--------|--------|--------|
B|--------|--------|--------|--------|--------|--------|--------|--------|--------|
G|--------|--------|--------|--------|--------|--------|--------|--------|--------|
D|--------|--------|--------|--------|--------|--------|--------|--------|--------|
A|--------|--------|--------|--------|--------|--------|--------|--------|--------|
E|--------|--------|--------|--------|--------|--------|--------|--------|--------|


E|--------|--------|--------|--------|--------|--------|--------|--------|--------|
B|--------|--------|--------|--------|--------|--------|--------|--------|--------|
G|--------|--------|--------|--------|--------|--------|--------|--------|--------|
D|--------|--------|--------|--------|--------|--------|--------|--------|--------|
A|--------|--------|--------|--------|--------|--------|--------|--------|--------|
E|--------|--------|--------|--------|--------|--------|--------|--------|--------|


E|--------|--------|----------------|--------|--------|--------|--------|--------|
B|--------|--------|-10--10--10-----|-10-----|--------|--------|--------|--------|
G|--------|--------|----------------|--------|--------|--------|--------|--------|
D|--------|--------|----------------|--------|--------|--------|--------|--------|
A|--------|--------|----------------|--------|--------|--------|--------|--------|
E|--------|--------|----------------|--------|--------|--------|--------|--------|


E|--------|--------|--------|--------|--------|--------|--------|--------|--------|
B|--------|--------|--------|--------|--------|--------|--------|--------|--------|
G|--------|--------|--------|--------|--------|--------|--------|--------|--------|
D|--------|--------|--------|--------|--------|--------|--------|--------|--------|
A|--------|--------|--------|--------|--------|--------|--------|--------|--------|
E|--------|--------|--------|--------|--------|--------|--------|--------|--------|


E|--------|--------|--------|--------|--------|--------|--------|--------|--------|
B|--------|--------|--------|--------|--------|--------|--------|--------|--------|
G|--------|--------|--------|--------|--------|--------|--------|--------|--------|
D|--------|--------|--------|--------|--------|--------|--------|--------|--------|
A|--------|--------|--------|--------|--------|--------|--------|--------|--------|
E|--------|--------|--------|--------|--------|--------|--------|--------|--------|


E|--------|--------|--------|----------------|--------|--------|--------|--------|
B|--------|--------|--------|-10--10--10-----|-10-----|--------|--------|--------|
G|--------|--------|--------|----------------|--------|--------|--------|--------|
D|--------|--------|--------|----------------|--------|--------|--------|-11-----|
A|--------|--------|--------|----------------|--------|--------|--------|--------|
E|--------|--------|--------|----------------|--------|--------|--------|--------|


E|--------|--------|--------|--------|--------|--------|--------|--------|-------------|
B|--------|--------|--------|--------|--------|--------|--------|-19-----|-19----19----|
G|--------|--------|--------|--------|--------|--------|--------|--------|-------------|
D|-12-----|-13-----|-11-----|--------|--------|--------|--------|--------|-------------|
A|--------|--------|--------|--------|--------|--------|--------|--------|-------------|
E|--------|--------|--------|--------|--------|--------|--------|--------|-------------|


E|--------|--------|--------|--------|--------|--------|--------|--------|--------|
B|--------|--------|--------|--------|--------|--------|--------|--------|--------|
G|--------|--------|--------|--------|--------|--------|--------|--------|--------|
D|--------|--------|-11-----|-12-----|-13-----|-11-----|-11-----|-12-----|-13-----|
A|--------|--------|--------|--------|--------|--------|--------|--------|--------|
E|--------|--------|--------|--------|--------|--------|--------|--------|--------|


E|--------|--------|--------|--------|-------------|--------|
B|--------|--------|--------|--------|-------------|--------|
G|--------|--------|--------|--------|-------------|--------|
D|-11-----|-11-----|-12-----|-13-----|-11----------|--------|
A|--------|--------|--------|--------|-------------|--------|
E|--------|--------|--------|--------|-------------|--------|





Track 4: Untitled

G|--------|--------|--------|--------|--------|--------|--------|--------|--------|
D|--------|--------|--------|--------|--------|--------|--------|--------|--------|
A|--------|--------|--------|--------|--------|--------|--------|--------|--------|
E|--------|--------|--------|--------|--------|--------|--------|--------|--------|


G|--------|--------|--------|--------|--------|--------|--------|--------|--------|
D|--------|--------|--------|--------|--------|--------|--------|--------|--------|
A|--------|--------|--------|--------|--------|--------|--------|--------|--------|
E|--------|--------|--------|--------|--------|--------|--------|--------|--------|


G|--------|--------|--------|--------|--------|--------|--------|--------|--------|
D|--------|--------|--------|--------|--------|--------|--------|--------|--------|
A|--------|--------|--------|--------|--------|--------|--------|--------|--------|
E|--------|--------|--------|--------|--------|--------|--------|--------|--------|


G|--------|--------|--------|--------|--------|--------|--------|--------|--------|
D|--------|--------|--------|--------|--------|--------|--------|--------|--------|
A|--------|--------|--------|--------|--------|--------|--------|--------|--------|
E|--------|--------|--------|--------|--------|--------|--------|--------|--------|


G|--------|--------|--------|--------|--------|--------|--------|--------|--------|
D|--------|--------|--------|--------|--------|--------|--------|--------|--------|
A|--------|--------|--------|--------|--------|--------|--------|--------|--------|
E|--------|--------|--------|--------|--------|--------|--------|--------|--------|


G|--------|--------|--------|--------|--------|--------|--------|--------|--------|
D|--------|--------|--------|--------|--------|--------|--------|--------|--------|
A|--------|--------|--------|--------|--------|--------|--------|--------|--------|
E|--------|--------|--------|--------|--------|--------|--------|--------|--------|


G|--------|--------|--------|--------|--------|--------|--------|--------|--------|
D|--------|--------|--------|--------|--------|--------|--------|--------|--------|
A|--------|--------|--------|--------|--------|--------|--------|--------|--------|
E|--------|--------|--------|--------|--------|--------|--------|--------|--------|


G|--------|--------|--------|--------|--------|--------|--------|--------|--------|
D|--------|--------|--------|--------|--------|--------|--------|--------|--------|
A|--------|--------|--------|--------|--------|--------|--------|--------|--------|
E|--------|--------|--------|--------|--------|--------|--------|--------|--------|


G|--------|--------|--------|--------|--------|--------|--------|--------|--------|
D|--------|--------|--------|--------|--------|--------|--------|--------|--------|
A|--------|--------|--------|--------|--------|--------|--------|--------|--------|
E|--------|--------|--------|--------|--------|--------|--------|--------|--------|


G|--------|--------|--------|--------|
D|--------|--------|--------|--------|
A|--------|--------|--------|--------|
E|--------|--------|--------|--------|