Menu:

 

Search:

 

megadeth - my last words:

 



Title: My Last Words
Artist: 
Album: Peace Sells...But Who's Buying?
Author: Dave Mustaine


Track 1: Rhythm Guitar (Mustaine)

E|-5--0--------8--0--------5--0--------8--0--------|-4--0--------7--0--------4--0--------7--0--------|
B|-------6-----------6-----------6-----------6-----|-------6-----------6-----------6-----------6-----|
G|----------7-----------7-----------7-----------7--|----------7-----------7-----------7-----------7--|
D|-------------------------------------------------|-------------------------------------------------|
A|-------------------------------------------------|-------------------------------------------------|
E|-------------------------------------------------|-------------------------------------------------|


E|-3--0--------5--0--------3--0--------5--0--------|-1--0--------1--0--------1--0--------1--0--------|
B|-------6-----------6-----------6-----------6-----|-------3-----------3-----------3-----------3-----|
G|----------5-----------5-----------5-----------5--|----------2-----------1-----------0-----------0--|
D|-------------------------------------------------|-------------------------------------------------|
A|-------------------------------------------------|-------------------------------------------------|
E|-------------------------------------------------|-------------------------------------------------|


E|-5--0--------8--0--------5--0--------8--0--------|-4--0--------7--0--------4--0--------7--0--------|
B|-------6-----------6-----------6-----------6-----|-------6-----------6-----------6-----------6-----|
G|----------7-----------7-----------7-----------7--|----------7-----------7-----------7-----------7--|
D|-------------------------------------------------|-------------------------------------------------|
A|-------------------------------------------------|-------------------------------------------------|
E|-------------------------------------------------|-------------------------------------------------|


E|-3--0--------5--0--------3--0--------5--0--------|-1--0--------1--0--------1--0--------1--0--------|
B|-------6-----------6-----------6-----------6-----|-------3-----------3-----------3-----------3-----|
G|----------5-----------5-----------5-----------5--|----------2-----------1-----------0-----------0--|
D|-------------------------------------------------|-------------------------------------------------|
A|-------------------------------------------------|-------------------------------------------------|
E|-------------------------------------------------|-------------------------------------------------|


E|-5--0--------8--0--------5--0--------8--0--------|-4--0--------7--0--------4--0--------7--0--------|
B|-------6-----------6-----------6-----------6-----|-------6-----------6-----------6-----------6-----|
G|----------7-----------7-----------7-----------7--|----------7-----------7-----------7-----------7--|
D|-------------------------------------------------|-------------------------------------------------|
A|-------------------------------------------------|-------------------------------------------------|
E|-------------------------------------------------|-------------------------------------------------|


E|-3--0--------5--0--------3--0--------5--0--------|-1--0--------1--0--------1--0--------1--0--------|
B|-------6-----------6-----------6-----------6-----|-------3-----------3-----------3-----------3-----|
G|----------5-----------5-----------5-----------5--|----------2-----------1-----------0-----------0--|
D|-------------------------------------------------|-------------------------------------------------|
A|-------------------------------------------------|-------------------------------------------------|
E|-------------------------------------------------|-------------------------------------------------|


E|-5--0--------8--0--------5--0--------8--0--------|-4--0--------7--0--------4--0--------7--0--------|
B|-------6-----------6-----------6-----------6-----|-------6-----------6-----------6-----------6-----|
G|----------7-----------7-----------7-----------7--|----------7-----------7-----------7-----------7--|
D|-------------------------------------------------|-------------------------------------------------|
A|-------------------------------------------------|-------------------------------------------------|
E|-------------------------------------------------|-------------------------------------------------|


E|-3--0--------5--0--------3--0--------5--0--------|-1--0--------1--0--------1--0--------1--0--------|
B|-------6-----------6-----------6-----------6-----|-------3-----------3-----------3-----------3-----|
G|----------5-----------5-----------5-----------5--|----------2-----------1-----------0-----------0--|
D|-------------------------------------------------|-------------------------------------------------|
A|-------------------------------------------------|-------------------------------------------------|
E|-------------------------------------------------|-------------------------------------------------|


E|-5--0--------4--0--------3--0--------1--0--------|-5--0--------4--0--------3--0--------1--0--------|
B|-------6-----------6-----------6-----------3-----|-------6-----------6-----------6-----------3-----|
G|----------7-----------7-----------5-----------5--|----------7-----------7-----------5-----------5--|
D|-------------------------------------------------|-------------------------------------------------|
A|-------------------------------------------------|-------------------------------------------------|
E|-------------------------------------------------|-------------------------------------------------|


E|-5--0--------4--0--------3--0--------1--0--------|-5--0--------4--0--------3--0--------5--1--3--0--|
B|-------6-----------6-----------6-----------3-----|-------6-----------6-----------6-----------------|
G|----------7-----------7-----------5-----------5--|----------7-----------7-----------5--------------|
D|-------------------------------------------------|-------------------------------------------------|
A|-------------------------------------------------|-------------------------------------------------|
E|-------------------------------------------------|-------------------------------------------------|


E|-1-----0----------------------------------|---------------------|--------|--------|
B|----3-----1--3-----1-----------------3----|------3--------------|--------|--------|
G|----------------3--------0-----------2----|------2--------------|--------|--------|
D|----------------------3-----3--2-----0----|------0--------------|--------|--------|
A|----------------------------------3-------|---------------------|--------|--------|
E|------------------------------------------|---------------------|--------|--------|


E|--------|--------|--------|--------|--------|--------|--------|--------|--------|
B|--------|--------|--------|--------|--------|--------|--------|--------|--------|
G|--------|--------|--------|--------|--------|--------|--------|--------|--------|
D|--------|--------|--------|--------|--------|--------|--------|--------|--------|
A|--------|--------|--------|--------|--------|--------|--------|--------|--------|
E|--------|--------|--------|--------|--------|--------|--------|--------|--------|


E|--------|--------|--------|--------|--------|--------|--------|--------|--------|
B|--------|--------|--------|--------|--------|--------|--------|--------|--------|
G|--------|--------|--------|--------|--------|--------|--------|--------|--------|
D|--------|--------|--------|--------|--------|--------|--------|--------|--------|
A|--------|--------|--------|--------|--------|--------|--------|--------|--------|
E|--------|--------|--------|--------|--------|--------|--------|--------|--------|


E|--------|--------|--------|--------|--------|--------|--------|--------|--------|
B|--------|--------|--------|--------|--------|--------|--------|--------|--------|
G|--------|--------|--------|--------|--------|--------|--------|--------|--------|
D|--------|--------|--------|--------|--------|--------|--------|--------|--------|
A|--------|--------|--------|--------|--------|--------|--------|--------|--------|
E|--------|--------|--------|--------|--------|--------|--------|--------|--------|


E|--------|--------|--------|--------|--------|--------|--------|--------|--------|
B|--------|--------|--------|--------|--------|--------|--------|--------|--------|
G|--------|--------|--------|--------|--------|--------|--------|--------|--------|
D|--------|--------|--------|--------|--------|--------|--------|--------|--------|
A|--------|--------|--------|--------|--------|--------|--------|--------|--------|
E|--------|--------|--------|--------|--------|--------|--------|--------|--------|


E|--------|--------|--------|--------|--------|--------|--------|--------|--------|
B|--------|--------|--------|--------|--------|--------|--------|--------|--------|
G|--------|--------|--------|--------|--------|--------|--------|--------|--------|
D|--------|--------|--------|--------|--------|--------|--------|--------|--------|
A|--------|--------|--------|--------|--------|--------|--------|--------|--------|
E|--------|--------|--------|--------|--------|--------|--------|--------|--------|


E|--------|--------|--------|--------|--------|--------|--------|--------|--------|
B|--------|--------|--------|--------|--------|--------|--------|--------|--------|
G|--------|--------|--------|--------|--------|--------|--------|--------|--------|
D|--------|--------|--------|--------|--------|--------|--------|--------|--------|
A|--------|--------|--------|--------|--------|--------|--------|--------|--------|
E|--------|--------|--------|--------|--------|--------|--------|--------|--------|


E|--------|--------|--------|--------|--------|--------|--------|--------|--------|
B|--------|--------|--------|--------|--------|--------|--------|--------|--------|
G|--------|--------|--------|--------|--------|--------|--------|--------|--------|
D|--------|--------|--------|--------|--------|--------|--------|--------|--------|
A|--------|--------|--------|--------|--------|--------|--------|--------|--------|
E|--------|--------|--------|--------|--------|--------|--------|--------|--------|


E|--------|--------|--------|--------|--------|--------|--------|--------|--------|
B|--------|--------|--------|--------|--------|--------|--------|--------|--------|
G|--------|--------|--------|--------|--------|--------|--------|--------|--------|
D|--------|--------|--------|--------|--------|--------|--------|--------|--------|
A|--------|--------|--------|--------|--------|--------|--------|--------|--------|
E|--------|--------|--------|--------|--------|--------|--------|--------|--------|


E|--------|--------|--------|--------|--------|--------|--------|--------|--------|
B|--------|--------|--------|--------|--------|--------|--------|--------|--------|
G|--------|--------|--------|--------|--------|--------|--------|--------|--------|
D|--------|--------|--------|--------|--------|--------|--------|--------|--------|
A|--------|--------|--------|--------|--------|--------|--------|--------|--------|
E|--------|--------|--------|--------|--------|--------|--------|--------|--------|


E|--------|--------|--------|--------|--------|--------|--------|--------|--------|
B|--------|--------|--------|--------|--------|--------|--------|--------|--------|
G|--------|--------|--------|--------|--------|--------|--------|--------|--------|
D|--------|--------|--------|--------|--------|--------|--------|--------|--------|
A|--------|--------|--------|--------|--------|--------|--------|--------|--------|
E|--------|--------|--------|--------|--------|--------|--------|--------|--------|


E|--------|--------|--------|--------|--------|--------|--------|--------|--------|
B|--------|--------|--------|--------|--------|--------|--------|--------|--------|
G|--------|--------|--------|--------|--------|--------|--------|--------|--------|
D|--------|--------|--------|--------|--------|--------|--------|--------|--------|
A|--------|--------|--------|--------|--------|--------|--------|--------|--------|
E|--------|--------|--------|--------|--------|--------|--------|--------|--------|


E|--------|--------|--------|--------|--------|--------|--------|--------|--------|
B|--------|--------|--------|--------|--------|--------|--------|--------|--------|
G|--------|--------|--------|--------|--------|--------|--------|--------|--------|
D|--------|--------|--------|--------|--------|--------|--------|--------|--------|
A|--------|--------|--------|--------|--------|--------|--------|--------|--------|
E|--------|--------|--------|--------|--------|--------|--------|--------|--------|


E|--------|--------|--------|--------|--------|--------|--------|--------|--------|
B|--------|--------|--------|--------|--------|--------|--------|--------|--------|
G|--------|--------|--------|--------|--------|--------|--------|--------|--------|
D|--------|--------|--------|--------|--------|--------|--------|--------|--------|
A|--------|--------|--------|--------|--------|--------|--------|--------|--------|
E|--------|--------|--------|--------|--------|--------|--------|--------|--------|


E|--------|--------|--------|--------|--------|
B|--------|--------|--------|--------|--------|
G|--------|--------|--------|--------|--------|
D|--------|--------|--------|--------|--------|
A|--------|--------|--------|--------|--------|
E|--------|--------|--------|--------|--------|





Track 2: Rhythm Guitar (Poland)

E|--------|--------|--------|--------|-----------------|-----------------|-----------------|
B|--------|--------|--------|--------|-----------------|-----------------|-----------------|
G|--------|--------|--------|--------|-----------------|-----------------|-----------------|
D|--------|--------|--------|--------|-----------------|-----------------|-5-----5---------|
A|--------|--------|--------|--------|-5-----5---------|-----------------|-5-----5---------|
E|--------|--------|--------|--------|-----------------|-4-----4---------|-----------------|


E|-----------------------------------|--------------------------------|-----------------|
B|-----------------------------------|--------------------------------|-----------------|
G|-5---------------------------------|--------------------------------|-----------------|
D|-3----3----------------------------|-----------------2--3--2--------|-----------------|
A|------1-------------------------3--|-5---------3--5-----------5--3--|-----------------|
E|-----------5--3--1--0--1--3--5-----|--------------------------------|-4-----4---------|


E|-----------------|-----------------------------------|--------------------------------|
B|-----------------|-----------------------------------|--------------------------------|
G|-----------------|-5---------------------------------|--------------------------------|
D|-5-----5---------|-3----3----------------------------|-----------------2--3--2--------|
A|-5-----5---------|------1-------------------------3--|-5---------3--5-----------5--3--|
E|-----------------|-----------5--3--1--0--1--3--5-----|--------------------------------|


E|-----------------|-----------------|-----------------------------------|----------------------------|
B|-----------------|-----------------|-----------------------------------|----------------------------|
G|-----------------|-----------------|-5---------------------------------|----------------10-7--9-----|
D|-----------------|-5-----5---------|-3----3----------------------------|------6----5-------------10-|
A|-----------------|-5-----5---------|------1-------------------------3--|-5--------------------------|
E|-4-----4---------|-----------------|-----------5--3--1--0--1--3--5-----|----------------------------|


E|----------------------------|----------------------------|----------------------------|
B|----------------------------|----------------------------|----------------10-6--8--5--|
G|-7--------------10-7--9-----|-7--------------10-7--9-----|-7--------------------------|
D|------6----5-------------10-|------6----5-------------10-|------6----5----------------|
A|----------------------------|----------------------------|----------------------------|
E|----------------------------|----------------------------|----------------------------|


E|------------------------------------------|---------------------|-------------|---------------------------|
B|------------------------------------------|---------------------|-------------|---------------------------|
G|-10-7--9--5--7-----5----------------------|---------------------|-------------|---------------------------|
D|----------------8--------5----------------|---------------------|-------------|------10---5----7--7-------|
A|----------------------8-----8--7-----5----|------5--------------|-------------|------8----3----5--5-------|
E|----------------------------------8-------|---------------------|-------------|---------------------------|


E|-----------------|------------------------|-------------|---------------------------|
B|-----------------|------------------------|-------------|---------------------------|
G|-----------------|------------------------|-------------|---------------------------|
D|-----------------|------10---5----7--7----|--------7----|------10---5----7--7-------|
A|-----------------|------8----3----5--5----|--------5----|------8----3----5--5-------|
E|-----------------|------------------------|-------------|---------------------------|


E|-----------------|------------------------|--------|--------|--------|--------|--------|
B|-----------------|------------------------|--------|--------|--------|--------|--------|
G|-----------------|------------------------|--------|--------|--------|--------|--------|
D|-----------------|------10---5----7-------|--------|--------|--------|--------|--------|
A|-----------------|------8----3----5-------|--------|--------|--------|--------|--------|
E|-----------------|------------------------|--------|--------|--------|--------|--------|


E|--------|--------|--------|--------|--------|--------|--------|--------|--------|
B|--------|--------|--------|--------|--------|--------|--------|--------|--------|
G|--------|--------|--------|--------|--------|--------|--------|--------|--------|
D|--------|--------|--------|--------|--------|--------|--------|--------|--------|
A|--------|--------|--------|--------|--------|--------|--------|--------|--------|
E|--------|--------|--------|--------|--------|--------|--------|--------|--------|


E|--------|--------|--------|--------|--------|--------|--------|--------|--------|
B|--------|--------|--------|--------|--------|--------|--------|--------|--------|
G|--------|--------|--------|--------|--------|--------|--------|--------|--------|
D|--------|--------|--------|--------|--------|--------|--------|--------|--------|
A|--------|--------|--------|--------|--------|--------|--------|--------|--------|
E|--------|--------|--------|--------|--------|--------|--------|--------|--------|


E|--------|--------|--------|--------|--------|--------|--------|--------|--------|
B|--------|--------|--------|--------|--------|--------|--------|--------|--------|
G|--------|--------|--------|--------|--------|--------|--------|--------|--------|
D|--------|--------|--------|--------|--------|--------|--------|--------|--------|
A|--------|--------|--------|--------|--------|--------|--------|--------|--------|
E|--------|--------|--------|--------|--------|--------|--------|--------|--------|


E|--------|--------|--------|--------|--------|--------|--------|--------|--------|
B|--------|--------|--------|--------|--------|--------|--------|--------|--------|
G|--------|--------|--------|--------|--------|--------|--------|--------|--------|
D|--------|--------|--------|--------|--------|--------|--------|--------|--------|
A|--------|--------|--------|--------|--------|--------|--------|--------|--------|
E|--------|--------|--------|--------|--------|--------|--------|--------|--------|


E|--------|--------|--------|--------|--------|--------|--------|--------|--------|
B|--------|--------|--------|--------|--------|--------|--------|--------|--------|
G|--------|--------|--------|--------|--------|--------|--------|--------|--------|
D|--------|--------|--------|--------|--------|--------|--------|--------|--------|
A|--------|--------|--------|--------|--------|--------|--------|--------|--------|
E|--------|--------|--------|--------|--------|--------|--------|--------|--------|


E|--------|--------|--------|--------|--------|--------|--------|--------|--------|
B|--------|--------|--------|--------|--------|--------|--------|--------|--------|
G|--------|--------|--------|--------|--------|--------|--------|--------|--------|
D|--------|--------|--------|--------|--------|--------|--------|--------|--------|
A|--------|--------|--------|--------|--------|--------|--------|--------|--------|
E|--------|--------|--------|--------|--------|--------|--------|--------|--------|


E|--------|--------|--------|--------|--------|--------|--------|--------|--------|
B|--------|--------|--------|--------|--------|--------|--------|--------|--------|
G|--------|--------|--------|--------|--------|--------|--------|--------|--------|
D|--------|--------|--------|--------|--------|--------|--------|--------|--------|
A|--------|--------|--------|--------|--------|--------|--------|--------|--------|
E|--------|--------|--------|--------|--------|--------|--------|--------|--------|


E|--------|--------|--------|--------|--------|--------|--------|--------|--------|
B|--------|--------|--------|--------|--------|--------|--------|--------|--------|
G|--------|--------|--------|--------|--------|--------|--------|--------|--------|
D|--------|--------|--------|--------|--------|--------|--------|--------|--------|
A|--------|--------|--------|--------|--------|--------|--------|--------|--------|
E|--------|--------|--------|--------|--------|--------|--------|--------|--------|


E|--------|--------|--------|--------|--------|--------|--------|--------|--------|
B|--------|--------|--------|--------|--------|--------|--------|--------|--------|
G|--------|--------|--------|--------|--------|--------|--------|--------|--------|
D|--------|--------|--------|--------|--------|--------|--------|--------|--------|
A|--------|--------|--------|--------|--------|--------|--------|--------|--------|
E|--------|--------|--------|--------|--------|--------|--------|--------|--------|


E|--------|--------|--------|--------|--------|--------|--------|--------|--------|
B|--------|--------|--------|--------|--------|--------|--------|--------|--------|
G|--------|--------|--------|--------|--------|--------|--------|--------|--------|
D|--------|--------|--------|--------|--------|--------|--------|--------|--------|
A|--------|--------|--------|--------|--------|--------|--------|--------|--------|
E|--------|--------|--------|--------|--------|--------|--------|--------|--------|


E|--------|--------|--------|--------|--------|--------|--------|--------|--------|
B|--------|--------|--------|--------|--------|--------|--------|--------|--------|
G|--------|--------|--------|--------|--------|--------|--------|--------|--------|
D|--------|--------|--------|--------|--------|--------|--------|--------|--------|
A|--------|--------|--------|--------|--------|--------|--------|--------|--------|
E|--------|--------|--------|--------|--------|--------|--------|--------|--------|


E|--------|--------|--------|--------|--------|--------|--------|--------|--------|
B|--------|--------|--------|--------|--------|--------|--------|--------|--------|
G|--------|--------|--------|--------|--------|--------|--------|--------|--------|
D|--------|--------|--------|--------|--------|--------|--------|--------|--------|
A|--------|--------|--------|--------|--------|--------|--------|--------|--------|
E|--------|--------|--------|--------|--------|--------|--------|--------|--------|


E|--------|--------|--------|
B|--------|--------|--------|
G|--------|--------|--------|
D|--------|--------|--------|
A|--------|--------|--------|
E|--------|--------|--------|





Track 3: Harmony Guitar

E|--------|--------|--------|--------|--------|--------|--------|--------|--------|
B|--------|--------|--------|--------|--------|--------|--------|--------|--------|
G|--------|--------|--------|--------|--------|--------|--------|--------|--------|
D|--------|--------|--------|--------|--------|--------|--------|--------|--------|
A|--------|--------|--------|--------|--------|--------|--------|--------|--------|
E|--------|--------|--------|--------|--------|--------|--------|--------|--------|


E|--------|--------|--------|--------|--------|--------|--------|----------------------------|
B|--------|--------|--------|--------|--------|--------|--------|----------------------------|
G|--------|--------|--------|--------|--------|--------|--------|------5----4----10-7--9-----|
D|--------|--------|--------|--------|--------|--------|--------|-------------------------10-|
A|--------|--------|--------|--------|--------|--------|--------|-5--------------------------|
E|--------|--------|--------|--------|--------|--------|--------|----------------------------|


E|----------------------------|----------------------------|----------------------------|
B|----------------------------|----------------------------|----------------10-6--8--5--|
G|-7----5----4----10-7--9-----|-7----5----4----10-7--9-----|-7----5----4----------------|
D|-------------------------10-|-------------------------10-|----------------------------|
A|----------------------------|----------------------------|----------------------------|
E|----------------------------|----------------------------|----------------------------|


E|------------------------------------------|---------------------|--------|--------|
B|------------------------------------------|---------------------|--------|--------|
G|-10-7--9--5--7-----5----------------------|---------------------|--------|--------|
D|----------------8--------5----------------|---------------------|--------|--------|
A|----------------------8-----8--7-----5----|------5--------------|--------|--------|
E|----------------------------------8-------|---------------------|--------|--------|


E|--------|--------|--------|--------|--------|--------|--------|--------|--------|
B|--------|--------|--------|--------|--------|--------|--------|--------|--------|
G|--------|--------|--------|--------|--------|--------|--------|--------|--------|
D|--------|--------|--------|--------|--------|--------|--------|--------|--------|
A|--------|--------|--------|--------|--------|--------|--------|--------|--------|
E|--------|--------|--------|--------|--------|--------|--------|--------|--------|


E|--------|--------|--------|--------|--------|--------|--------|--------|--------|
B|--------|--------|--------|--------|--------|--------|--------|--------|--------|
G|--------|--------|--------|--------|--------|--------|--------|--------|--------|
D|--------|--------|--------|--------|--------|--------|--------|--------|--------|
A|--------|--------|--------|--------|--------|--------|--------|--------|--------|
E|--------|--------|--------|--------|--------|--------|--------|--------|--------|


E|--------|--------|--------|--------|--------|--------|--------|--------|--------|
B|--------|--------|--------|--------|--------|--------|--------|--------|--------|
G|--------|--------|--------|--------|--------|--------|--------|--------|--------|
D|--------|--------|--------|--------|--------|--------|--------|--------|--------|
A|--------|--------|--------|--------|--------|--------|--------|--------|--------|
E|--------|--------|--------|--------|--------|--------|--------|--------|--------|


E|--------|--------|--------|--------|--------|--------|--------|--------|--------|
B|--------|--------|--------|--------|--------|--------|--------|--------|--------|
G|--------|--------|--------|--------|--------|--------|--------|--------|--------|
D|--------|--------|--------|--------|--------|--------|--------|--------|--------|
A|--------|--------|--------|--------|--------|--------|--------|--------|--------|
E|--------|--------|--------|--------|--------|--------|--------|--------|--------|


E|--------|--------|--------|--------|--------|--------|--------|--------|--------|
B|--------|--------|--------|--------|--------|--------|--------|--------|--------|
G|--------|--------|--------|--------|--------|--------|--------|--------|--------|
D|--------|--------|--------|--------|--------|--------|--------|--------|--------|
A|--------|--------|--------|--------|--------|--------|--------|--------|--------|
E|--------|--------|--------|--------|--------|--------|--------|--------|--------|


E|--------|--------|--------|--------|--------|--------|--------|--------|--------|
B|--------|--------|--------|--------|--------|--------|--------|--------|--------|
G|--------|--------|--------|--------|--------|--------|--------|--------|--------|
D|--------|--------|--------|--------|--------|--------|--------|--------|--------|
A|--------|--------|--------|--------|--------|--------|--------|--------|--------|
E|--------|--------|--------|--------|--------|--------|--------|--------|--------|


E|--------|--------|--------|--------|--------|--------|--------|--------|--------|
B|--------|--------|--------|--------|--------|--------|--------|--------|--------|
G|--------|--------|--------|--------|--------|--------|--------|--------|--------|
D|--------|--------|--------|--------|--------|--------|--------|--------|--------|
A|--------|--------|--------|--------|--------|--------|--------|--------|--------|
E|--------|--------|--------|--------|--------|--------|--------|--------|--------|


E|--------|--------|--------|--------|--------|--------|--------|--------|--------|
B|--------|--------|--------|--------|--------|--------|--------|--------|--------|
G|--------|--------|--------|--------|--------|--------|--------|--------|--------|
D|--------|--------|--------|--------|--------|--------|--------|--------|--------|
A|--------|--------|--------|--------|--------|--------|--------|--------|--------|
E|--------|--------|--------|--------|--------|--------|--------|--------|--------|


E|--------|--------|--------|--------|--------|--------|--------|--------|--------|
B|--------|--------|--------|--------|--------|--------|--------|--------|--------|
G|--------|--------|--------|--------|--------|--------|--------|--------|--------|
D|--------|--------|--------|--------|--------|--------|--------|--------|--------|
A|--------|--------|--------|--------|--------|--------|--------|--------|--------|
E|--------|--------|--------|--------|--------|--------|--------|--------|--------|


E|--------|--------|--------|--------|--------|--------|--------|--------|--------|
B|--------|--------|--------|--------|--------|--------|--------|--------|--------|
G|--------|--------|--------|--------|--------|--------|--------|--------|--------|
D|--------|--------|--------|--------|--------|--------|--------|--------|--------|
A|--------|--------|--------|--------|--------|--------|--------|--------|--------|
E|--------|--------|--------|--------|--------|--------|--------|--------|--------|


E|--------|--------|--------|--------|--------|--------|--------|--------|--------|
B|--------|--------|--------|--------|--------|--------|--------|--------|--------|
G|--------|--------|--------|--------|--------|--------|--------|--------|--------|
D|--------|--------|--------|--------|--------|--------|--------|--------|--------|
A|--------|--------|--------|--------|--------|--------|--------|--------|--------|
E|--------|--------|--------|--------|--------|--------|--------|--------|--------|


E|--------|--------|--------|--------|--------|--------|--------|--------|--------|
B|--------|--------|--------|--------|--------|--------|--------|--------|--------|
G|--------|--------|--------|--------|--------|--------|--------|--------|--------|
D|--------|--------|--------|--------|--------|--------|--------|--------|--------|
A|--------|--------|--------|--------|--------|--------|--------|--------|--------|
E|--------|--------|--------|--------|--------|--------|--------|--------|--------|


E|--------|--------|--------|--------|--------|--------|--------|--------|--------|
B|--------|--------|--------|--------|--------|--------|--------|--------|--------|
G|--------|--------|--------|--------|--------|--------|--------|--------|--------|
D|--------|--------|--------|--------|--------|--------|--------|--------|--------|
A|--------|--------|--------|--------|--------|--------|--------|--------|--------|
E|--------|--------|--------|--------|--------|--------|--------|--------|--------|


E|--------|--------|--------|--------|--------|
B|--------|--------|--------|--------|--------|
G|--------|--------|--------|--------|--------|
D|--------|--------|--------|--------|--------|
A|--------|--------|--------|--------|--------|
E|--------|--------|--------|--------|--------|





Track 4: Rhythm Guitar (Mustaine)

E|--------|--------|--------|--------|--------|--------|--------|--------|--------|
B|--------|--------|--------|--------|--------|--------|--------|--------|--------|
G|--------|--------|--------|--------|--------|--------|--------|--------|--------|
D|--------|--------|--------|--------|--------|--------|--------|--------|--------|
A|--------|--------|--------|--------|--------|--------|--------|--------|--------|
E|--------|--------|--------|--------|--------|--------|--------|--------|--------|


E|--------|--------|--------|--------|--------|--------|--------|--------|--------|
B|--------|--------|--------|--------|--------|--------|--------|--------|--------|
G|--------|--------|--------|--------|--------|--------|--------|--------|--------|
D|--------|--------|--------|--------|--------|--------|--------|--------|--------|
A|--------|--------|--------|--------|--------|--------|--------|--------|--------|
E|--------|--------|--------|--------|--------|--------|--------|--------|--------|


E|--------|--------|--------|--------------------|-------------------------------------------------|
B|--------|--------|--------|--------------------|-------------------------------------------------|
G|--------|--------|--------|--------7--5-----5--|-0-----5--7--7--5-----5--0-----5--7--7--5-----5--|
D|--------|--------|--------|--------7--5--0--5--|-0-----5--7--7--5--0--5--0-----5--7--7--5--0--5--|
A|--------|--------|--------|--------------------|----0-----------------------0--------------------|
E|--------|--------|--------|--------------------|-------------------------------------------------|


E|------------------------------------|-------------------------------------------------|
B|------------------------------------|-------------------------------------------------|
G|-0-----5----------------7--5-----5--|-0-----5--7--7--5-----5--0-----5--7--7--5-----5--|
D|-0-----5---10---5----7--7--5--0--5--|-0-----5--7--7--5--0--5--0-----5--7--7--5--0--5--|
A|----0------8----3----5--------------|----0-----------------------0--------------------|
E|------------------------------------|-------------------------------------------------|


E|------------------------------------|-------------------------------------------------|
B|------------------------------------|-------------------------------------------------|
G|-0-----5----------------7--5-----5--|-0-----5--7--7--5-----5--0-----5--7--7--5-----5--|
D|-0-----5---10---5----7--7--5--0--5--|-0-----5--7--7--5--0--5--0-----5--7--7--5--0--5--|
A|----0------8----3----5--------------|----0-----------------------0--------------------|
E|------------------------------------|-------------------------------------------------|


E|------------------------------------|-------------------------------------------------|
B|------------------------------------|-------------------------------------------------|
G|-0-----5----------------7--5-----5--|-0-----5--7--7--5-----5--0-----5--7--7--5-----5--|
D|-0-----5---10---5----7--7--5--0--5--|-0-----5--7--7--5--0--5--0-----5--7--7--5--0--5--|
A|----0------8----3----5--------------|----0-----------------------0--------------------|
E|------------------------------------|-------------------------------------------------|


E|------------------------------------|-------------------------------------------------|
B|------------------------------------|-------------------------------------------------|
G|-0-----5----------------7--5-----5--|-0-----5--7--7--5-----5--0-----5--7--7--5-----5--|
D|-0-----5---10---5----7--7--5--0--5--|-0-----5--7--7--5--0--5--0-----5--7--7--5--0--5--|
A|----0------8----3----5--------------|----0-----------------------0--------------------|
E|------------------------------------|-------------------------------------------------|


E|------------------------------------|-------------------------------------------------|
B|------------------------------------|-------------------------------------------------|
G|-0-----5----------------7--5-----5--|-0-----5--7--7--5-----5--0-----5--7--7--5-----5--|
D|-0-----5---10---5----7--7--5--0--5--|-0-----5--7--7--5--0--5--0-----5--7--7--5--0--5--|
A|----0------8----3----5--------------|----0-----------------------0--------------------|
E|------------------------------------|-------------------------------------------------|


E|------------------------------------|-------------------------------------------------|
B|------------------------------------|-------------------------------------------------|
G|-0-----5----------------7--5-----5--|-0-----5--7--7--5-----5--0-----5--7--7--5-----5--|
D|-0-----5---10---5----7--7--5--0--5--|-0-----5--7--7--5--0--5--0-----5--7--7--5--0--5--|
A|----0------8----3----5--------------|----0-----------------------0--------------------|
E|------------------------------------|-------------------------------------------------|


E|------------------------------------|-------------------------------------------------|
B|------------------------------------|-------------------------------------------------|
G|-0-----5----------------7--5-----5--|-0-----5--7--7--5-----5--0-----5--7--7--5-----5--|
D|-0-----5---10---5----7--7--5--0--5--|-0-----5--7--7--5--0--5--0-----5--7--7--5--0--5--|
A|----0------8----3----5--------------|----0-----------------------0--------------------|
E|------------------------------------|-------------------------------------------------|


E|-----------------------------|-----------------------|-----------------------|-----------------------|
B|-----------------------------|-----------------------|-----------------------|-----------------------|
G|-0-----5---------------------|-----------------------|-----------------------|-----------------------|
D|-0-----5---10---5----7--7----|------7-----7----------|---------------5--5----|------5-----5--0--0----|
A|----0------8----3----5--5----|------5-----5--3--3----|------3-----3--3--3----|------3-----3--0--0----|
E|-----------------------------|---------------1--1----|------1-----1----------|-----------------------|


E|-----------------------|-----------------------|----------------------------|------------------------------------|
B|-----------------------|-----------------------|----------------------------|------------------------------------|
G|-----------------------|-----------------------|----------------------------|------------------------------------|
D|------0-----0--7--7----|------7-----7----------|---------------5--5---5--4--|-4---4--3--3---3------------7--7----|
A|------0-----0--5--5----|------5-----5--3--3----|------3-----3--3--3---3--2--|-2---2--1--1---1--3--3---3--5--5----|
E|-----------------------|---------------1--1----|------1-----1---------------|------------------1--1---1----------|


E|-----------------------|-----------------------|-----------------------|-----------------------|
B|-----------------------|-----------------------|-----------------------|-----------------------|
G|-----------------------|-----------------------|-----------------------|-----------------------|
D|------7-----7--7--7----|------7-----7----------|---------------5--5----|------5-----5--0--0----|
A|------5-----5--5--5----|------5-----5--3--3----|------3-----3--3--3----|------3-----3--0--0----|
E|-----------------------|---------------1--1----|------1-----1----------|-----------------------|


E|-----------------------|-----------------------|----------------------------|------------------------------------|
B|-----------------------|-----------------------|----------------------------|------------------------------------|
G|-----------------------|-----------------------|----------------------------|------------------------------------|
D|------0-----0--7--7----|------7-----7----------|---------------5--5---5--4--|-4---4--3--3---3------------7--7----|
A|------0-----0--5--5----|------5-----5--3--3----|------3-----3--3--3---3--2--|-2---2--1--1---1--3--3---3--5--5----|
E|-----------------------|---------------1--1----|------1-----1---------------|------------------1--1---1----------|


E|------------------------|-------------------------------------------------|------------------------------------|
B|------------------------|-------------------------------------------------|------------------------------------|
G|------------7--5-----5--|-0-----5--7--7--5-----5--0-----5--7--7--5-----5--|-0-----5----------------7--5-----5--|
D|------------7--5--0--5--|-0-----5--7--7--5--0--5--0-----5--7--7--5--0--5--|-0-----5---10---5----7--7--5--0--5--|
A|------------------------|----0-----------------------0--------------------|----0------8----3----5--------------|
E|------12----------------|-------------------------------------------------|------------------------------------|


E|-------------------------------------------------|------------------------------------|
B|-------------------------------------------------|------------------------------------|
G|-0-----5--7--7--5-----5--0-----5--7--7--5-----5--|-0-----5----------------7--5-----5--|
D|-0-----5--7--7--5--0--5--0-----5--7--7--5--0--5--|-0-----5---10---5----7--7--5--0--5--|
A|----0-----------------------0--------------------|----0------8----3----5--------------|
E|-------------------------------------------------|------------------------------------|


E|-------------------------------------------------|------------------------------------|
B|-------------------------------------------------|------------------------------------|
G|-0-----5--7--7--5-----5--0-----5--7--7--5-----5--|-0-----5----------------7--5-----5--|
D|-0-----5--7--7--5--0--5--0-----5--7--7--5--0--5--|-0-----5---10---5----7--7--5--0--5--|
A|----0-----------------------0--------------------|----0------8----3----5--------------|
E|-------------------------------------------------|------------------------------------|


E|-------------------------------------------------|-----------------------------|
B|-------------------------------------------------|-----------------------------|
G|-0-----5--7--7--5-----5--0-----5--7--7--5-----5--|-0-----5---------------------|
D|-0-----5--7--7--5--0--5--0-----5--7--7--5--0--5--|-0-----5---10---5----7--7----|
A|----0-----------------------0--------------------|----0------8----3----5--5----|
E|-------------------------------------------------|-----------------------------|


E|-----------------------|-----------------------|-----------------------|-----------------------|
B|-----------------------|-----------------------|-----------------------|-----------------------|
G|-----------------------|-----------------------|-----------------------|-----------------------|
D|------7-----7----------|---------------5--5----|------5-----5--0--0----|------0-----0--7--7----|
A|------5-----5--3--3----|------3-----3--3--3----|------3-----3--0--0----|------0-----0--5--5----|
E|---------------1--1----|------1-----1----------|-----------------------|-----------------------|


E|-----------------------|----------------------------|------------------------------------|
B|-----------------------|----------------------------|------------------------------------|
G|-----------------------|----------------------------|------------------------------------|
D|------7-----7----------|---------------5--5---5--4--|-4---4--3--3---3------------7--7----|
A|------5-----5--3--3----|------3-----3--3--3---3--2--|-2---2--1--1---1--3--3---3--5--5----|
E|---------------1--1----|------1-----1---------------|------------------1--1---1----------|


E|-----------------------|-----------------------|-----------------------|-----------------------|
B|-----------------------|-----------------------|-----------------------|-----------------------|
G|-----------------------|-----------------------|-----------------------|-----------------------|
D|------7-----7--7--7----|------7-----7----------|---------------5--5----|------5-----5--0--0----|
A|------5-----5--5--5----|------5-----5--3--3----|------3-----3--3--3----|------3-----3--0--0----|
E|-----------------------|---------------1--1----|------1-----1----------|-----------------------|


E|-----------------------|-----------------------|----------------------------|------------------------------------|
B|-----------------------|-----------------------|----------------------------|------------------------------------|
G|-----------------------|-----------------------|----------------------------|------------------------------------|
D|------0-----0--7--7----|------7-----7----------|---------------5--5---5--4--|-4---4--3--3---3------------7--7----|
A|------0-----0--5--5----|------5-----5--3--3----|------3-----3--3--3---3--2--|-2---2--1--1---1--3--3---3--5--5----|
E|-----------------------|---------------1--1----|------1-----1---------------|------------------1--1---1----------|


E|------------------------|-------------------------------------------------|------------------------------------|
B|------------------------|-------------------------------------------------|------------------------------------|
G|------------7--5-----5--|-0-----5--7--7--5-----5--0-----5--7--7--5-----5--|-0-----5----------------7--5-----5--|
D|------------7--5--0--5--|-0-----5--7--7--5--0--5--0-----5--7--7--5--0--5--|-0-----5---10---5----7--7--5--0--5--|
A|------------------------|----0-----------------------0--------------------|----0------8----3----5--------------|
E|------12----------------|-------------------------------------------------|------------------------------------|


E|-------------------------------------------------|------------------------------------|
B|-------------------------------------------------|------------------------------------|
G|-0-----5--7--7--5-----5--0-----5--7--7--5-----5--|-0-----5----------------7--5-----5--|
D|-0-----5--7--7--5--0--5--0-----5--7--7--5--0--5--|-0-----5---10---5----7--7--5--0--5--|
A|----0-----------------------0--------------------|----0------8----3----5--------------|
E|-------------------------------------------------|------------------------------------|


E|-------------------------------------------------|------------------------------------|
B|-------------------------------------------------|------------------------------------|
G|-0-----5--7--7--5-----5--0-----5--7--7--5-----5--|-0-----5----------------7--5-----5--|
D|-0-----5--7--7--5--0--5--0-----5--7--7--5--0--5--|-0-----5---10---5----7--7--5--0--5--|
A|----0-----------------------0--------------------|----0------8----3----5--------------|
E|-------------------------------------------------|------------------------------------|


E|-------------------------------------------------|-----------------------------|
B|-------------------------------------------------|-----------------------------|
G|-0-----5--7--7--5-----5--0-----5--7--7--5-----5--|-0-----5---------------------|
D|-0-----5--7--7--5--0--5--0-----5--7--7--5--0--5--|-0-----5---10---5----7--7----|
A|----0-----------------------0--------------------|----0------8----3----5--5----|
E|-------------------------------------------------|-----------------------------|


E|-----------------------|-----------------------|-----------------------|-----------------------|
B|-----------------------|-----------------------|-----------------------|-----------------------|
G|-----------------------|-----------------------|-----------------------|-----------------------|
D|------7-----7----------|---------------5--5----|------5-----5--0--0----|------0-----0--7--7----|
A|------5-----5--3--3----|------3-----3--3--3----|------3-----3--0--0----|------0-----0--5--5----|
E|---------------1--1----|------1-----1----------|-----------------------|-----------------------|


E|-----------------------|----------------------------|------------------------------------|
B|-----------------------|----------------------------|------------------------------------|
G|-----------------------|----------------------------|------------------------------------|
D|------7-----7----------|---------------5--5---5--4--|-4---4--3--3---3------------7--7----|
A|------5-----5--3--3----|------3-----3--3--3---3--2--|-2---2--1--1---1--3--3---3--5--5----|
E|---------------1--1----|------1-----1---------------|------------------1--1---1----------|


E|-----------------------|-----------------------|-----------------------|-----------------------|
B|-----------------------|-----------------------|-----------------------|-----------------------|
G|-----------------------|-----------------------|-----------------------|-----------------------|
D|------7-----7--7--7----|------7-----7----------|---------------5--5----|------5-----5--0--0----|
A|------5-----5--5--5----|------5-----5--3--3----|------3-----3--3--3----|------3-----3--0--0----|
E|-----------------------|---------------1--1----|------1-----1----------|-----------------------|


E|-----------------------|-----------------------|----------------------------|------------------------------------|
B|-----------------------|-----------------------|----------------------------|------------------------------------|
G|-----------------------|-----------------------|----------------------------|------------------------------------|
D|------0-----0--7--7----|------7-----7----------|---------------5--5---5--4--|-4---4--3--3---3--------------------|
A|------0-----0--5--5----|------5-----5--3--3----|------3-----3--3--3---3--2--|-2---2--1--1---1--3--3---3--5--5----|
E|-----------------------|---------------1--1----|------1-----1---------------|------------------1--1---1----------|


E|------------------------|------------------------|------------------------|---------------------|
B|------------------------|------------------------|------------------------|---------------------|
G|------------------------|------------------------|------------------------|---------------------|
D|------------------------|------------------------|------------------------|--------7------------|
A|------5----8---7--------|------------------------|-----------3---4---5----|--------5---5--5--5--|
E|-------------------6----|------6----6---5---3----|------3-----------------|---------------------|


E|----------------------------------------------------------|----------------------------------------------------------|
B|----------------------------------------------------------|----------------------------------------------------------|
G|----------------------------------------------------------|----------------------------------------------------------|
D|-------------------------------------10--9----------------|----------------------------------------------------------|
A|-5--5--5--5--5--5--5--5--5--5--5--5--8---7---8------------|-------------------------------------8---7---5------------|
E|---------------------------------------------6---6--6--6--|-6--6--6--6--6--6--6--6--6--6--6--6--6---5---3---3--3--3--|


E|----------------------------------------------------------|--------------------------------------------------------------------|
B|----------------------------------------------------------|--------------------------------------------------------------------|
G|----------------------------------------------------------|--------------------------------------------------------------------|
D|-------------------------------------5---6---7------------|-------------------------------------------------------7------------|
A|-------------------------------------3---4---5---5--5--5--|-5--5--5--5--5--5--5--5--5--5--5--5--5--5--5--5--5--5--5---5--5--5--|
E|-3--3--3--3--3--3--3--3--3--3--3--3-----------------------|--------------------------------------------------------------------|


E|----------------------------------------------------------|----------------------------------------------------------|
B|----------------------------------------------------------|----------------------------------------------------------|
G|----------------------------------------------------------|----------------------------------------------------------|
D|-------------------------------------10--9----------------|----------------------------------------------------------|
A|-5--5--5--5--5--5--5--5--5--5--5--5--8---7---8------------|-------------------------------------8---7---5------------|
E|---------------------------------------------6---6--6--6--|-6--6--6--6--6--6--6--6--6--6--6--6--6---5---3---3--3--3--|


E|----------------------------------------------------------|--------------------------------------------------------------------|
B|----------------------------------------------------------|--------------------------------------------------------------------|
G|----------------------------------------------------------|--------------------------------------------------------------------|
D|-------------------------------------5---6---7------------|-------------------------------------------------------7------------|
A|-------------------------------------3---4---5---5--5--5--|-5--5--5--5--5--5--5--5--5--5--5--5--5--5--5--5--5--5--5---5--5--5--|
E|-3--3--3--3--3--3--3--3--3--3--3--3-----------------------|--------------------------------------------------------------------|


E|----------------------------------------------------------|----------------------------------------------------------|
B|----------------------------------------------------------|----------------------------------------------------------|
G|----------------------------------------------------------|----------------------------------------------------------|
D|-------------------------------------10--9----------------|----------------------------------------------------------|
A|-5--5--5--5--5--5--5--5--5--5--5--5--8---7---8------------|-------------------------------------8---7---5------------|
E|---------------------------------------------6---6--6--6--|-6--6--6--6--6--6--6--6--6--6--6--6--6---5---3---3--3--3--|


E|----------------------------------------------------------|--------------------------------------------------------------------|
B|----------------------------------------------------------|--------------------------------------------------------------------|
G|----------------------------------------------------------|--------------------------------------------------------------------|
D|-------------------------------------5---6---7------------|-------------------------------------------------------7------------|
A|-------------------------------------3---4---5---5--5--5--|-5--5--5--5--5--5--5--5--5--5--5--5--5--5--5--5--5--5--5---5--5--5--|
E|-3--3--3--3--3--3--3--3--3--3--3--3-----------------------|--------------------------------------------------------------------|


E|----------------------------------------------------------|----------------------------------------------------------|
B|----------------------------------------------------------|----------------------------------------------------------|
G|----------------------------------------------------------|----------------------------------------------------------|
D|-------------------------------------10--9----------------|----------------------------------------------------------|
A|-5--5--5--5--5--5--5--5--5--5--5--5--8---7---8------------|-------------------------------------8---7---5------------|
E|---------------------------------------------6---6--6--6--|-6--6--6--6--6--6--6--6--6--6--6--6--6---5---3---3--3--3--|


E|----------------------------------------------------------|--------------------------------------------------------------------|
B|----------------------------------------------------------|--------------------------------------------------------------------|
G|----------------------------------------------------------|--------------------------------------------------------------------|
D|-------------------------------------5---6---7------------|-------------------------------------------------------7------------|
A|-------------------------------------3---4---5---5--5--5--|-5--5--5--5--5--5--5--5--5--5--5--5--5--5--5--5--5--5--5---5--5--5--|
E|-3--3--3--3--3--3--3--3--3--3--3--3-----------------------|--------------------------------------------------------------------|


E|----------------------------------------------------------|----------------------------------------------------------|
B|----------------------------------------------------------|----------------------------------------------------------|
G|----------------------------------------------------------|----------------------------------------------------------|
D|-------------------------------------10--9----------------|----------------------------------------------------------|
A|-5--5--5--5--5--5--5--5--5--5--5--5--8---7---8------------|-------------------------------------8---7---5------------|
E|---------------------------------------------6---6--6--6--|-6--6--6--6--6--6--6--6--6--6--6--6--6---5---3---3--3--3--|


E|----------------------------------------------------------|--------------------------------------------------------------------|
B|----------------------------------------------------------|--------------------------------------------------------------------|
G|----------------------------------------------------------|--------------------------------------------------------------------|
D|-------------------------------------5---6---7------------|-------------------------------------------------------7------------|
A|-------------------------------------3---4---5---5--5--5--|-5--5--5--5--5--5--5--5--5--5--5--5--5--5--5--5--5--5--5---5--5--5--|
E|-3--3--3--3--3--3--3--3--3--3--3--3-----------------------|--------------------------------------------------------------------|


E|----------------------------------------------------------|----------------------------------------------------------|
B|----------------------------------------------------------|----------------------------------------------------------|
G|----------------------------------------------------------|----------------------------------------------------------|
D|-------------------------------------10--9----------------|----------------------------------------------------------|
A|-5--5--5--5--5--5--5--5--5--5--5--5--8---7---8------------|-------------------------------------8---7---5------------|
E|---------------------------------------------6---6--6--6--|-6--6--6--6--6--6--6--6--6--6--6--6--6---5---3---3--3--3--|


E|----------------------------------------------------------|--------------------------------------------------------------------|
B|----------------------------------------------------------|--------------------------------------------------------------------|
G|----------------------------------------------------------|--------------------------------------------------------------------|
D|-------------------------------------5---6---7------------|-------------------------------------------------------7------------|
A|-------------------------------------3---4---5---5--5--5--|-5--5--5--5--5--5--5--5--5--5--5--5--5--5--5--5--5--5--5---5--5--5--|
E|-3--3--3--3--3--3--3--3--3--3--3--3-----------------------|--------------------------------------------------------------------|


E|----------------------------------------------------------|----------------------------------------------------------|
B|----------------------------------------------------------|----------------------------------------------------------|
G|----------------------------------------------------------|----------------------------------------------------------|
D|-------------------------------------10--9----------------|----------------------------------------------------------|
A|-5--5--5--5--5--5--5--5--5--5--5--5--8---7---8------------|-------------------------------------8---7---5------------|
E|---------------------------------------------6---6--6--6--|-6--6--6--6--6--6--6--6--6--6--6--6--6---5---3---3--3--3--|


E|----------------------------------------------------------|--------------------------------------------------------------------|
B|----------------------------------------------------------|--------------------------------------------------------------------|
G|----------------------------------------------------------|--------------------------------------------------------------------|
D|-------------------------------------5---6---7------------|-------------------------------------------------------7------------|
A|-------------------------------------3---4---5---5--5--5--|-5--5--5--5--5--5--5--5--5--5--5--5--5--5--5--5--5--5--5---5--5--5--|
E|-3--3--3--3--3--3--3--3--3--3--3--3-----------------------|--------------------------------------------------------------------|


E|----------------------------------------------------------|----------------------------------------------------------|
B|----------------------------------------------------------|----------------------------------------------------------|
G|----------------------------------------------------------|----------------------------------------------------------|
D|-------------------------------------10--9----------------|----------------------------------------------------------|
A|-5--5--5--5--5--5--5--5--5--5--5--5--8---7---8------------|-------------------------------------8---7---5------------|
E|---------------------------------------------6---6--6--6--|-6--6--6--6--6--6--6--6--6--6--6--6--6---5---3---3--3--3--|


E|----------------------------------------------------------|--------------------------------------------------------------------|
B|----------------------------------------------------------|--------------------------------------------------------------------|
G|----------------------------------------------------------|--------------------------------------------------------------------|
D|-------------------------------------5---6---7------------|-------------------------------------------------------7------------|
A|-------------------------------------3---4---5---5--5--5--|-5--5--5--5--5--5--5--5--5--5--5--5--5--5--5--5--5--5--5---5--5--5--|
E|-3--3--3--3--3--3--3--3--3--3--3--3-----------------------|--------------------------------------------------------------------|


E|----------------------------------------------------------|----------------------------------------------------------|
B|----------------------------------------------------------|----------------------------------------------------------|
G|----------------------------------------------------------|----------------------------------------------------------|
D|-------------------------------------10--9----------------|----------------------------------------------------------|
A|-5--5--5--5--5--5--5--5--5--5--5--5--8---7---8------------|-------------------------------------8---7---5------------|
E|---------------------------------------------6---6--6--6--|-6--6--6--6--6--6--6--6--6--6--6--6--6---5---3---3--3--3--|


E|---------------------------------------------------------------|-------------------------------------------------------------------------|
B|---------------------------------------------------------------|-------------------------------------------------------------------------|
G|---------------------------------------------------------------|-7--------------7--------------------7--------------7--------------------|
D|-------------------------------------5---6------------7--8--10-|----10-8--10-8--------------7--8--10----10-8--10-8--------------7--8--10-|
A|-------------------------------------3---4---7--8--10----------|-------------------7--8--10----------------------------7--8--10----------|
E|-3--3--3--3--3--3--3--3--3--3--3--3----------------------------|-------------------------------------------------------------------------|


E|------------------------------------------------------------|-------------|-------------|
B|------------------------------------------------------------|-------------|-------------|
G|-7--------------7--------------------7----------------------|-------------|-------------|
D|----10-8--10-8--------------7--8--10----10-8--10-8--7--7----|--------7----|--------7----|
A|-------------------7--8--10----------------------------8----|--------8----|--------8----|
E|------------------------------------------------------------|-------------|-------------|


E|-------------|---------------------|
B|-------------|---------------------|
G|-------------|-----------5---------|
D|--------7----|------7----5---------|
A|--------8----|------5----3---------|
E|-------------|---------------------|





Track 5: Lead Guitar

E|--------|--------|--------|--------|--------|--------|--------|--------|--------|
B|--------|--------|--------|--------|--------|--------|--------|--------|--------|
G|--------|--------|--------|--------|--------|--------|--------|--------|--------|
D|--------|--------|--------|--------|--------|--------|--------|--------|--------|
A|--------|--------|--------|--------|--------|--------|--------|--------|--------|
E|--------|--------|--------|--------|--------|--------|--------|--------|--------|


E|--------|--------|--------|--------|--------|--------|--------|--------|--------|
B|--------|--------|--------|--------|--------|--------|--------|--------|--------|
G|--------|--------|--------|--------|--------|--------|--------|--------|--------|
D|--------|--------|--------|--------|--------|--------|--------|--------|--------|
A|--------|--------|--------|--------|--------|--------|--------|--------|--------|
E|--------|--------|--------|--------|--------|--------|--------|--------|--------|


E|--------|--------|--------|--------|--------|--------|--------|--------|--------|
B|--------|--------|--------|--------|--------|--------|--------|--------|--------|
G|--------|--------|--------|--------|--------|--------|--------|--------|--------|
D|--------|--------|--------|--------|--------|--------|--------|--------|--------|
A|--------|--------|--------|--------|--------|--------|--------|--------|--------|
E|--------|--------|--------|--------|--------|--------|--------|--------|--------|


E|--------|--------|--------|--------|--------|--------|--------|--------|--------|
B|--------|--------|--------|--------|--------|--------|--------|--------|--------|
G|--------|--------|--------|--------|--------|--------|--------|--------|--------|
D|--------|--------|--------|--------|--------|--------|--------|--------|--------|
A|--------|--------|--------|--------|--------|--------|--------|--------|--------|
E|--------|--------|--------|--------|--------|--------|--------|--------|--------|


E|--------|--------|--------|--------|--------|--------|--------|--------|--------|
B|--------|--------|--------|--------|--------|--------|--------|--------|--------|
G|--------|--------|--------|--------|--------|--------|--------|--------|--------|
D|--------|--------|--------|--------|--------|--------|--------|--------|--------|
A|--------|--------|--------|--------|--------|--------|--------|--------|--------|
E|--------|--------|--------|--------|--------|--------|--------|--------|--------|


E|--------|--------|--------|--------|--------|--------|--------|--------|--------|
B|--------|--------|--------|--------|--------|--------|--------|--------|--------|
G|--------|--------|--------|--------|--------|--------|--------|--------|--------|
D|--------|--------|--------|--------|--------|--------|--------|--------|--------|
A|--------|--------|--------|--------|--------|--------|--------|--------|--------|
E|--------|--------|--------|--------|--------|--------|--------|--------|--------|


E|--------|--------|--------|--------|--------|--------|--------|--------|--------|
B|--------|--------|--------|--------|--------|--------|--------|--------|--------|
G|--------|--------|--------|--------|--------|--------|--------|--------|--------|
D|--------|--------|--------|--------|--------|--------|--------|--------|--------|
A|--------|--------|--------|--------|--------|--------|--------|--------|--------|
E|--------|--------|--------|--------|--------|--------|--------|--------|--------|


E|--------|--------|--------|--------|--------|--------|--------|--------|--------|
B|--------|--------|--------|--------|--------|--------|--------|--------|--------|
G|--------|--------|--------|--------|--------|--------|--------|--------|--------|
D|--------|--------|--------|--------|--------|--------|--------|--------|--------|
A|--------|--------|--------|--------|--------|--------|--------|--------|--------|
E|--------|--------|--------|--------|--------|--------|--------|--------|--------|


E|--------|--------|--------|--------|--------|--------|--------|--------|--------|
B|--------|--------|--------|--------|--------|--------|--------|--------|--------|
G|--------|--------|--------|--------|--------|--------|--------|--------|--------|
D|--------|--------|--------|--------|--------|--------|--------|--------|--------|
A|--------|--------|--------|--------|--------|--------|--------|--------|--------|
E|--------|--------|--------|--------|--------|--------|--------|--------|--------|


E|--------|--------|--------|--------|--------|--------|--------|--------|--------|
B|--------|--------|--------|--------|--------|--------|--------|--------|--------|
G|--------|--------|--------|--------|--------|--------|--------|--------|--------|
D|--------|--------|--------|--------|--------|--------|--------|--------|--------|
A|--------|--------|--------|--------|--------|--------|--------|--------|--------|
E|--------|--------|--------|--------|--------|--------|--------|--------|--------|


E|--------|--------|--------|--------|--------|--------|--------|--------|--------|
B|--------|--------|--------|--------|--------|--------|--------|--------|--------|
G|--------|--------|--------|--------|--------|--------|--------|--------|--------|
D|--------|--------|--------|--------|--------|--------|--------|--------|--------|
A|--------|--------|--------|--------|--------|--------|--------|--------|--------|
E|--------|--------|--------|--------|--------|--------|--------|--------|--------|


E|--------|--------|--------|--------|--------|--------|--------|--------|--------|
B|--------|--------|--------|--------|--------|--------|--------|--------|--------|
G|--------|--------|--------|--------|--------|--------|--------|--------|--------|
D|--------|--------|--------|--------|--------|--------|--------|--------|--------|
A|--------|--------|--------|--------|--------|--------|--------|--------|--------|
E|--------|--------|--------|--------|--------|--------|--------|--------|--------|


E|--------------------------|-------------------------------------------------------------------------|
B|--------------------------|-------------------------------------------------------------------------|
G|--------------------------|-------------------------------------------------------15-12-------------|
D|--------15-12----15-12----|-15-12----14-12----15-12----17-12----15-12----14-12-------------15-12----|
A|--------------12-------12-|-------12-------12-------12-------12-------12-------12-------13-------13-|
E|--------------------------|-------------------------------------------------------------------------|


E|-------------------------------------------------------------------------|----------------------------------------------------10-15-13-10-13-10-10-|
B|-------------------------------------------------------------------------|-------------------------------------------------13----------------------|
G|-------------------------------------------------------------------------|----------------------------------------------10-------------------------|
D|-15-12----14-12----15-12----17-12----15-12----14-12----15-12----15-12----|-15-12----14-12----15-12----17-12----15-12-------------------------------|
A|-------13-------13-------13-------13-------13-------13-------14-------14-|-------14-------14-------14-------14-------14----------------------------|
E|-------------------------------------------------------------------------|-------------------------------------------------------------------------|


E|---------------------------------------------------------------|-------------------------------------18-17-15-17-18-20-22--22-20-18-|
B|-15-13-10-13-15-15-15-13-10-13-10------------------------------|----------17-18-20-20-18-17-17-18-20--------------------------------|
G|----------------------------------13-14-13-10-13--19--19-19-21-|-22-21-19-----------------------------------------------------------|
D|---------------------------------------------------------------|--------------------------------------------------------------------|
A|---------------------------------------------------------------|--------------------------------------------------------------------|
E|---------------------------------------------------------------|--------------------------------------------------------------------|


E|-22--20--18--18--20------------------------------------|----------------------------------------------------|
B|---------------------23-22-23-22-20-22-20-18-20--20-18-|-20-20--20-20-18-17-18-17---------------------------|
G|-------------------------------------------------------|--------------------------19-19---19-17-15-17-15----|
D|-------------------------------------------------------|-------------------------------------------------19-|
A|-------------------------------------------------------|----------------------------------------------------|
E|-------------------------------------------------------|----------------------------------------------------|


E|-------------------------------------------------------------------------|-------------------------------------------------------------------------|
B|-------------------------------------------------------------------------|-------------------------------------------------------------------------|
G|-15----------------------------------------------------------------------|----------------------------------------------------------------------12-|
D|----19-17-19-17-15-17-15----15-------------------------------------------|-------------------------------------------------------12-15-12-14-15----|
A|-------------------------19----19-17-19-17-15-17-15-13----------------10-|-12-10-------------------10-12-10----10-------12-13-15-------------------|
E|-------------------------------------------------------10-13-10-12-13----|-------13-10-13-10-12-13----------13----13-12----------------------------|


E|----------------------------------------------------------------------15-|-17-15-------------------15-17-15----15-17-18-17-18-20-22-20-18-20-18----|
B|-------------------------------------------------------15-18-15-17-18----|-------18-15-18-15-17-18----------18----------------------------------22-|
G|-14-12-------------------12-14-12----12-------14-15-17-------------------|-------------------------------------------------------------------------|
D|-------15-12-15-12-14-15----------15----15-14----------------------------|-------------------------------------------------------------------------|
A|-------------------------------------------------------------------------|-------------------------------------------------------------------------|
E|-------------------------------------------------------------------------|-------------------------------------------------------------------------|


E|-------------------------------------------------------22-20-18-20-18----|-20-18-------------22-20-18-20-18----20------22-20-18-20-18----|
B|-23-22-20-22-20-18-20-18----------------------------------------------22-|-------22-23-22-20----------------22-----20-----------------22-|
G|-------------------------21-22-21-19-21-19----19-------------------------|---------------------------------------------------------------|
D|-------------------------------------------22----22-20-------------------|---------------------------------------------------------------|
A|-------------------------------------------------------------------------|---------------------------------------------------------------|
E|-------------------------------------------------------------------------|---------------------------------------------------------------|


E|-20-18-------------22-20-18-20-18----22--22--22-22-22-20-18-20-18----|-20-18-------------22-20-18-20-18----20-18-------------22-20-18-20-18----|
B|-------22-23-22-20----------------22------------------------------22-|-------22-23-22-20----------------22-------22-23-22-20----------------22-|
G|---------------------------------------------------------------------|-------------------------------------------------------------------------|
D|---------------------------------------------------------------------|-------------------------------------------------------------------------|
A|---------------------------------------------------------------------|-------------------------------------------------------------------------|
E|---------------------------------------------------------------------|-------------------------------------------------------------------------|


E|------------------------------------------------------------|-------------|-----------------|
B|-22-20-17-20-18-17------------------------------------------|-------------|-----------------|
G|-------------------19-17-15---------------------------------|-------------|-----------------|
D|----------------------------22-20-19-20-19-17-19-17-15------|-------------|-----------------|
A|-------------------------------------------------------5----|--------5----|-----------------|
E|------------------------------------------------------------|-------------|-----------------|


E|--------|--------|--------|--------|--------|--------|--------|--------|--------|
B|--------|--------|--------|--------|--------|--------|--------|--------|--------|
G|--------|--------|--------|--------|--------|--------|--------|--------|--------|
D|--------|--------|--------|--------|--------|--------|--------|--------|--------|
A|--------|--------|--------|--------|--------|--------|--------|--------|--------|
E|--------|--------|--------|--------|--------|--------|--------|--------|--------|


E|--------|--------|--------|--------|--------|--------|--------|--------|--------|
B|--------|--------|--------|--------|--------|--------|--------|--------|--------|
G|--------|--------|--------|--------|--------|--------|--------|--------|--------|
D|--------|--------|--------|--------|--------|--------|--------|--------|--------|
A|--------|--------|--------|--------|--------|--------|--------|--------|--------|
E|--------|--------|--------|--------|--------|--------|--------|--------|--------|


E|--------|
B|--------|
G|--------|
D|--------|
A|--------|
E|--------|





Track 6: Untitled

G|--------|--------|--------|--------|-----------------|-----------------|-----------------|
D|--------|--------|--------|--------|-12----12--------|-9-----9---------|-----------------|
A|--------|--------|--------|--------|-----------------|-11----11--------|-10----10--------|
E|--------|--------|--------|--------|-----------------|-----------------|-10----10--------|


G|-10--------------------------------|-----------------9--10-9--------|----------13-------13----------|
D|------8----7-----------------7--10-|-12--------10-12----------12-10-|-------------14-12----14-12-14-|
A|--------------10-8--7--8--10-------|--------------------------------|-11----------------------------|
E|-----------------------------------|--------------------------------|-------------------------------|


G|-----------------|-10--------------------------------|-----------------9--10-9--------|
D|-----------------|------8----7-----------------7--10-|-12--------10-12----------12-10-|
A|-10----10--------|--------------10-8--7--8--10-------|--------------------------------|
E|-----------------|-----------------------------------|--------------------------------|


G|----------13-------13----------|-----------------|-10--------------------------------|
D|-------------14-12----14-12-14-|-----------------|------8----7-----------------7--10-|
A|-11----------------------------|-10----10--------|--------------10-8--7--8--10-------|
E|-------------------------------|-----------------|-----------------------------------|


G|----------------10----9-----|----------------10----9-----|----------------10----9-----|
D|-12----------------12----10-|-12----------------12----10-|-12----------------12----10-|
A|------11---10---------------|------11---10---------------|------11---10---------------|
E|----------------------------|----------------------------|----------------------------|


G|----------------10-7--9-----|-7----------------------------------------|---------------------|
D|-12----------------------10-|----8--10-7--8-----7----------------------|---------------------|
A|------11---10---------------|----------------10----8--10-8--7----------|---------------------|
E|----------------------------|----------------------------------8--10---|------10-------------|


G|-------------|---------------------------|-----------------|------------------------|
D|-------------|---------------------------|-----------------|------------------------|
A|-------------|-----------3----5--5-------|-----------------|-----------3----5--5----|
E|-------------|------1--------------------|-----------------|------1-----------------|


G|-------------|---------------------------|-----------------|------------------5--6--7-----------------|
D|-------------|---------------------------|-----------------|------------5--7--------------------------|
A|--------5----|-----------3----5--5-------|-----------------|------5--7-----------------5--5--5--5--5--|
E|-------------|------1--------------------|-----------------|------------------------------------------|


G|-------------------------------------------------|--------------------------------------|
D|-------------------------------------------------|--------------------------------------|
A|-5--5--5--5--5--5--5--5--5--5--5--5--5--5--5--5--|-5--5--5--5-------3----5--5--5--5--5--|
E|-------------------------------------------------|-------------1------------------------|


G|-------------------------------------------------|--------------------------------------|
D|-------------------------------------------------|--------------------------------------|
A|-5--5--5--5--5--5--5--5--5--5--5--5--5--5--5--5--|-5--5--5--5-------3----5--5--5--5--5--|
E|-------------------------------------------------|-------------1------------------------|


G|-------------------------------------------------|--------------------------------------|
D|-------------------------------------------------|--------------------------------------|
A|-5--5--5--5--5--5--5--5--5--5--5--5--5--5--5--5--|-5--5--5--5-------3----5--5--5--5--5--|
E|-------------------------------------------------|-------------1------------------------|


G|-------------------------------------------------|-------------------------5--6--7---------7--5--|
D|-------------------------------------------------|-------------------5--7------------------------|
A|-5--5--5--5--5--5--5--5--5--5--5--5--5--5--5--5--|-5--5--5--5--5--7-----------------5--5---------|
E|-------------------------------------------------|-----------------------------------------------|


G|-----------------7--5------------------7--5--|-----------------7--5------------------7--5--|
D|-7--5------------------7--5------------------|-7--5------------------7--5------------------|
A|-------8--5--5---------------8--5--5---------|-------8--5--5---------------8--5--5---------|
E|---------------------------------------------|---------------------------------------------|


G|-----------------7--5------------------7--5--|-----------------7--5------------------7--5--|
D|-7--5------------------7--5------------------|-7--5------------------7--5------------------|
A|-------8--5--5---------------8--5--5---------|-------8--5--5---------------8--5--5---------|
E|---------------------------------------------|---------------------------------------------|


G|-----------------7--5------------------7--5--|-----------------7--5------------------7--5--|
D|-7--5------------------7--5------------------|-7--5------------------7--5------------------|
A|-------8--5--5---------------8--5--5---------|-------8--5--5---------------8--5--5---------|
E|---------------------------------------------|---------------------------------------------|


G|-----------------7--5------------------7--5--|---------------------------------------7--5--|
D|-7--5------------------7--5------------------|-7--5---------------5--7--5------------------|
A|-------8--5--5---------------8--5--5---------|-------8--5--5---8-----------8--5--5---------|
E|---------------------------------------------|---------------------------------------------|


G|-----------------7--5------------------7--5--|-----------------7--5------------------7--5--|
D|-7--5------------------7--5------------------|-7--5------------------7--5------------------|
A|-------8--5--5---------------8--5--5---------|-------8--5--5---------------8--5--5---------|
E|---------------------------------------------|---------------------------------------------|


G|-----------------7--5------------------7--5--|-----------------7--5------------------7--5--|
D|-7--5------------------7--5------------------|-7--5------------------7--5------------------|
A|-------8--5--5---------------8--5--5---------|-------8--5--5---------------8--5--5---------|
E|---------------------------------------------|---------------------------------------------|


G|-----------------7--5------------------7--5--|-----------------7--5------------------7--5--|
D|-7--5------------------7--5------------------|-7--5------------------7--5------------------|
A|-------8--5--5---------------8--5--5---------|-------8--5--5---------------8--5--5---------|
E|---------------------------------------------|---------------------------------------------|


G|-----------------7--5------------------7--5--|-----------------------------------------------|
D|-7--5------------------7--5------------------|-7--5---------------5--7--5--------------------|
A|-------8--5--5---------------8--5--5---------|-------8--5--5---8-----------8--5--5--5--5--5--|
E|---------------------------------------------|-----------------------------------------------|


G|-------------------------------------------------|--------------------------------------|
D|-------------------------------------------------|--------------------------------------|
A|-5--5--5--5--5--5--5--5--5--5--5--5--5--5--5--5--|-5--5--5--5-------3----5--5--5--5--5--|
E|-------------------------------------------------|-------------1------------------------|


G|-------------------------------------------------|--------------------------------------|
D|-------------------------------------------------|--------------------------------------|
A|-5--5--5--5--5--5--5--5--5--5--5--5--5--5--5--5--|-5--5--5--5-------3----5--5--5--5--5--|
E|-------------------------------------------------|-------------1------------------------|


G|-------------------------------------------------|--------------------------------------|
D|-------------------------------------------------|--------------------------------------|
A|-5--5--5--5--5--5--5--5--5--5--5--5--5--5--5--5--|-5--5--5--5-------3----5--5--5--5--5--|
E|-------------------------------------------------|-------------1------------------------|


G|-------------------------------------------------|-------------------------5--6--7---------7--5--|
D|-------------------------------------------------|-------------------5--7------------------------|
A|-5--5--5--5--5--5--5--5--5--5--5--5--5--5--5--5--|-5--5--5--5--5--7-----------------5--5---------|
E|-------------------------------------------------|-----------------------------------------------|


G|-----------------7--5------------------7--5--|-----------------7--5------------------7--5--|
D|-7--5------------------7--5------------------|-7--5------------------7--5------------------|
A|-------8--5--5---------------8--5--5---------|-------8--5--5---------------8--5--5---------|
E|---------------------------------------------|---------------------------------------------|


G|-----------------7--5------------------7--5--|-----------------7--5------------------7--5--|
D|-7--5------------------7--5------------------|-7--5------------------7--5------------------|
A|-------8--5--5---------------8--5--5---------|-------8--5--5---------------8--5--5---------|
E|---------------------------------------------|---------------------------------------------|


G|-----------------7--5------------------7--5--|-----------------7--5------------------7--5--|
D|-7--5------------------7--5------------------|-7--5------------------7--5------------------|
A|-------8--5--5---------------8--5--5---------|-------8--5--5---------------8--5--5---------|
E|---------------------------------------------|---------------------------------------------|


G|-----------------7--5------------------7--5--|---------------------------------------7--5--|
D|-7--5------------------7--5------------------|-7--5---------------5--7--5------------------|
A|-------8--5--5---------------8--5--5---------|-------8--5--5---8-----------8--5--5---------|
E|---------------------------------------------|---------------------------------------------|


G|-----------------7--5------------------7--5--|-----------------7--5------------------7--5--|
D|-7--5------------------7--5------------------|-7--5------------------7--5------------------|
A|-------8--5--5---------------8--5--5---------|-------8--5--5---------------8--5--5---------|
E|---------------------------------------------|---------------------------------------------|


G|-----------------7--5------------------7--5--|-----------------7--5------------------7--5--|
D|-7--5------------------7--5------------------|-7--5------------------7--5------------------|
A|-------8--5--5---------------8--5--5---------|-------8--5--5---------------8--5--5---------|
E|---------------------------------------------|---------------------------------------------|


G|-----------------7--5------------------7--5--|-----------------7--5------------------7--5--|
D|-7--5------------------7--5------------------|-7--5------------------7--5------------------|
A|-------8--5--5---------------8--5--5---------|-------8--5--5---------------8--5--5---------|
E|---------------------------------------------|---------------------------------------------|


G|-----------------7--5------------------7--5--|-----------------------------------------------|
D|-7--5------------------7--5------------------|-7--5---------------5--7--5--------------------|
A|-------8--5--5---------------8--5--5---------|-------8--5--5---8-----------8--5--5--5--5--5--|
E|---------------------------------------------|-----------------------------------------------|


G|-------------------------------------------------|--------------------------------------|
D|-------------------------------------------------|--------------------------------------|
A|-5--5--5--5--5--5--5--5--5--5--5--5--5--5--5--5--|-5--5--5--5-------3----5--5--5--5--5--|
E|-------------------------------------------------|-------------1------------------------|


G|-------------------------------------------------|--------------------------------------|
D|-------------------------------------------------|--------------------------------------|
A|-5--5--5--5--5--5--5--5--5--5--5--5--5--5--5--5--|-5--5--5--5-------3----5--5--5--5--5--|
E|-------------------------------------------------|-------------1------------------------|


G|-------------------------------------------------|--------------------------------------|
D|-------------------------------------------------|--------------------------------------|
A|-5--5--5--5--5--5--5--5--5--5--5--5--5--5--5--5--|-5--5--5--5-------3----5--5--5--5--5--|
E|-------------------------------------------------|-------------1------------------------|


G|-------------------------------------------------|-------------------------5--6--7---------7--5--|
D|-------------------------------------------------|-------------------5--7------------------------|
A|-5--5--5--5--5--5--5--5--5--5--5--5--5--5--5--5--|-5--5--5--5--5--7-----------------5--5---------|
E|-------------------------------------------------|-----------------------------------------------|


G|-----------------7--5------------------7--5--|-----------------7--5------------------7--5--|
D|-7--5------------------7--5------------------|-7--5------------------7--5------------------|
A|-------8--5--5---------------8--5--5---------|-------8--5--5---------------8--5--5---------|
E|---------------------------------------------|---------------------------------------------|


G|-----------------7--5------------------7--5--|-----------------7--5------------------7--5--|
D|-7--5------------------7--5------------------|-7--5------------------7--5------------------|
A|-------8--5--5---------------8--5--5---------|-------8--5--5---------------8--5--5---------|
E|---------------------------------------------|---------------------------------------------|


G|-----------------7--5------------------7--5--|-----------------7--5------------------7--5--|
D|-7--5------------------7--5------------------|-7--5------------------7--5------------------|
A|-------8--5--5---------------8--5--5---------|-------8--5--5---------------8--5--5---------|
E|---------------------------------------------|---------------------------------------------|


G|-----------------7--5------------------7--5--|---------------------------------------7--5--|
D|-7--5------------------7--5------------------|-7--5---------------5--7--5------------------|
A|-------8--5--5---------------8--5--5---------|-------8--5--5---8-----------8--5--5---------|
E|---------------------------------------------|---------------------------------------------|


G|-----------------7--5------------------7--5--|-----------------7--5------------------7--5--|
D|-7--5------------------7--5------------------|-7--5------------------7--5------------------|
A|-------8--5--5---------------8--5--5---------|-------8--5--5---------------8--5--5---------|
E|---------------------------------------------|---------------------------------------------|


G|-----------------7--5------------------7--5--|-----------------7--5------------------7--5--|
D|-7--5------------------7--5------------------|-7--5------------------7--5------------------|
A|-------8--5--5---------------8--5--5---------|-------8--5--5---------------8--5--5---------|
E|---------------------------------------------|---------------------------------------------|


G|-----------------7--5------------------7--5--|-----------------7--5------------------7--5--|
D|-7--5------------------7--5------------------|-7--5------------------7--5------------------|
A|-------8--5--5---------------8--5--5---------|-------8--5--5---------------8--5--5---------|
E|---------------------------------------------|---------------------------------------------|


G|-----------------7--5---------------------------|----------------------------------------------------------|
D|-7--5------------------7--5---------------------|----------------------------------------------------------|
A|-------8--5--5---------------8--5--5---5--5--5--|-5--5--5--5--5--5--5--5--5--5--5--5--8---7----------------|
E|------------------------------------------------|---------------------------------------------6---6--6--6--|


G|----------------------------------------------------------|----------------------------------------------------------|
D|----------------------------------------------------------|----------------------------------------------------------|
A|----------------------------------------------------------|-------------------------------------3---4---5---5--5--5--|
E|-6--6--6--6--6--6--6--6--6--6--6--6--6---5---3---3--3--3--|-3--3--3--3--3--3--3--3--3--3--3--3-----------------------|


G|--------------------------------------------------------------------|----------------------------------------------------------|
D|--------------------------------------------------------------------|----------------------------------------------------------|
A|-5--5--5--5--5--5--5--5--5--5--5--5--5--5--5--5--5--5--5---5--5--5--|-5--5--5--5--5--5--5--5--5--5--5--5--8---7----------------|
E|--------------------------------------------------------------------|---------------------------------------------6---6--6--6--|


G|----------------------------------------------------------|----------------------------------------------------------|
D|----------------------------------------------------------|----------------------------------------------------------|
A|----------------------------------------------------------|-------------------------------------3---4---5---5--5--5--|
E|-6--6--6--6--6--6--6--6--6--6--6--6--6---5---3---3--3--3--|-3--3--3--3--3--3--3--3--3--3--3--3-----------------------|


G|----------------5--7--7--7--7--7--7--7--5---------------------------|----------------------------------------------------------|
D|----------5--7-----------------------------7--6--5------------------|----------------------------------------------------------|
A|-5--5--5--------------------------------------------8--5---5--5--5--|-5--5--5--5--5--5--5--5--5--5--5--5--8---7----------------|
E|--------------------------------------------------------------------|---------------------------------------------6---6--6--6--|


G|----------------------------------------------------------|----------------------------------------------------------|
D|----------------------------------------------------------|----------------------------------------------------------|
A|----------------------------------------------------------|-------------------------------------3---4---5---5--5--5--|
E|-6--6--6--6--6--6--6--6--6--6--6--6--6---5---3---3--3--3--|-3--3--3--3--3--3--3--3--3--3--3--3-----------------------|


G|--------------------------------------------------------------------|----------------------------------------------------------|
D|--------------------------------------------------------------------|----------------------------------------------------------|
A|-5--5--5--5--5--5--5--5--5--5--5--5--5--5--5--5--5--5--5---5--5--5--|-5--5--5--5--5--5--5--5--5--5--5--5--8---7----------------|
E|--------------------------------------------------------------------|---------------------------------------------6---6--6--6--|


G|----------------------------------------------------------|----------------------------------------------------------|
D|----------------------------------------------------------|----------------------------------------------------------|
A|----------------------------------------------------------|-------------------------------------3---4---5---5--5--5--|
E|-6--6--6--6--6--6--6--6--6--6--6--6--6---5---3---3--3--3--|-3--3--3--3--3--3--3--3--3--3--3--3-----------------------|


G|--------------------------------------------------------------------|----------------------------------------------------------|
D|--------------------------------------------------------------------|----------------------------------------------------------|
A|-5--5--5--5--5--5--5--5--5--5--5--5--5--5--5--5--5--5--5---5--5--5--|-5--5--5--5--5--5--5--5--5--5--5--5--8---7----------------|
E|--------------------------------------------------------------------|---------------------------------------------6---6--6--6--|


G|----------------------------------------------------------|----------------------------------------------------------|
D|----------------------------------------------------------|----------------------------------------------------------|
A|----------------------------------------------------------|-------------------------------------3---4---5---5--5--5--|
E|-6--6--6--6--6--6--6--6--6--6--6--6--6---5---3---3--3--3--|-3--3--3--3--3--3--3--3--3--3--3--3-----------------------|


G|--------------------------------------------------------------------|----------------------------------------------------------|
D|--------------------------------------------------------------------|----------------------------------------------------------|
A|-5--5--5--5--5--5--5--5--5--5--5--5--5--5--5--5--5--5--5---5--5--5--|-5--5--5--5--5--5--5--5--5--5--5--5--8---7----------------|
E|--------------------------------------------------------------------|---------------------------------------------6---6--6--6--|


G|----------------------------------------------------------|----------------------------------------------------------|
D|----------------------------------------------------------|----------------------------------------------------------|
A|----------------------------------------------------------|-------------------------------------3---4---5---5--5--5--|
E|-6--6--6--6--6--6--6--6--6--6--6--6--6---5---3---3--3--3--|-3--3--3--3--3--3--3--3--3--3--3--3-----------------------|


G|----------------5--7--7--7--7--7--7--7--5---------------------------|----------------------------------------------------------|
D|----------5--7-----------------------------7--6--5------------------|----------------------------------------------------------|
A|-5--5--5--------------------------------------------8--5---5--5--5--|-5--5--5--5--5--5--5--5--5--5--5--5--8---7----------------|
E|--------------------------------------------------------------------|---------------------------------------------6---6--6--6--|


G|----------------------------------------------------------|----------------------------------------------------------|
D|----------------------------------------------------------|----------------------------------------------------------|
A|----------------------------------------------------------|-------------------------------------3---4---5---5--5--5--|
E|-6--6--6--6--6--6--6--6--6--6--6--6--6---5---3---3--3--3--|-3--3--3--3--3--3--3--3--3--3--3--3-----------------------|


G|--------------------------------------------------------------------|----------------------------------------------------------|
D|--------------------------------------------------------------------|----------------------------------------------------------|
A|-5--5--5--5--5--5--5--5--5--5--5--5--5--5--5--5--5--5--5---5--5--5--|-5--5--5--5--5--5--5--5--5--5--5--5--8---7----------------|
E|--------------------------------------------------------------------|---------------------------------------------6---6--6--6--|


G|----------------------------------------------------------|----------------------------------------------------------|
D|----------------------------------------------------------|----------------------------------------------------------|
A|----------------------------------------------------------|-------------------------------------3---4---5---5--5--5--|
E|-6--6--6--6--6--6--6--6--6--6--6--6--6---5---3---3--3--3--|-3--3--3--3--3--3--3--3--3--3--3--3-----------------------|


G|--------------------------------------------------------------------|----------------------------------------------------------|
D|--------------------------------------------------------------------|----------------------------------------------------------|
A|-5--5--5--5--5--5--5--5--5--5--5--5--5--5--5--5--5--5--5---5--5--5--|-5--5--5--5--5--5--5--5--5--5--5--5--8---7----------------|
E|--------------------------------------------------------------------|---------------------------------------------6---6--6--6--|


G|----------------------------------------------------------|----------------------------------------------------------|
D|----------------------------------------------------------|----------------------------------------------------------|
A|----------------------------------------------------------|-------------------------------------3---4---5---5--5--5--|
E|-6--6--6--6--6--6--6--6--6--6--6--6--6---5---3---3--3--3--|-3--3--3--3--3--3--3--3--3--3--3--3-----------------------|


G|--------------------------------------------------------------------|----------------------------------------------------------|
D|--------------------------------------------------------------------|----------------------------------------------------------|
A|-5--5--5--5--5--5--5--5--5--5--5--5--5--5--5--5--5--5--5---5--5--5--|-5--5--5--5--5--5--5--5--5--5--5--5--8---7----------------|
E|--------------------------------------------------------------------|---------------------------------------------6---6--6--6--|


G|----------------------------------------------------------|---------------------------------------------------------------|
D|----------------------------------------------------------|------------------------------------------------------5--7--5--|
A|----------------------------------------------------------|-------------------------------------3---4---5--7--8-----------|
E|-6--6--6--6--6--6--6--6--6--6--6--6--6---5---3---3--3--3--|-3--3--3--3--3--3--3--3--3--3--3--3----------------------------|


G|-------------------------------------------------------------------------|------------------------------------------------------------|
D|-8--7--5--5--7--8-----------5--7--5--8--7--5--5--7--8-----------5--7--5--|-8--7--5--5--7--8-----------5--7--5--8--7--5--5--7--5-------|
A|-------------------5--7--8-----------------------------5--7--8-----------|-------------------5--7--8-----------------------------5----|
E|-------------------------------------------------------------------------|------------------------------------------------------------|


G|-------------|-------------|-------------|---------------------|
D|-------------|-------------|-------------|---------------------|
A|--------5----|--------5----|--------5----|------5----3---------|
E|-------------|-------------|-------------|---------------------|