Menu:

 

Search:

 

megadeth - millenium of the blind:

 



Title: Millenium Of The Blind
Artist: 
Album: Youthanasia (Remastered)
Author: Megadeth


Track 1: Dave Mustaine

E|---------------------------------|---------------------------------|---------------------------------|
B|---------------------------------|---------------------------------|---------------------------------|
G|---------------------------------|---------------------------------|---------------------------------|
D|-9---9---9---9-------------------|---------------------------------|-9---9---9---9-------------------|
A|-7---7---7---7---3---3---3---3---|-2---2---2---2---8---7---6---5---|-7---7---7---7---3---3---3---3---|
E|-----------------1---1---1---1---|-0---0---0---0---6---5---4---3---|-----------------1---1---1---1---|


E|---------------------------------|---------------------------------|---------------------------------|
B|---------------------------------|---------------------------------|---------------------------------|
G|---------------------------------|---------------------------------|---------------------------------|
D|---------------------------------|-9---9---9---9-------------------|---------------------------------|
A|-2---2---2---2---8---7---6---5---|-7---7---7---7---3---3---3---3---|-2---2---2---2---8---7---6---5---|
E|-0---0---0---0---6---5---4---3---|-----------------1---1---1---1---|-0---0---0---0---6---5---4---3---|


E|---------------------------------|---------------------------------|--------|-------------------------------|
B|---------------------------------|---------------------------------|--------|-------------------------------|
G|---------------------------------|---------------------------------|--------|-------------------------------|
D|-9---9---9---9-------------------|---------------------------------|-2------|-2-----------------------------|
A|-7---7---7---7---3---3---3---3---|-2---2---2---2---8---7---6---5---|-0------|-0-----3---2---1---------------|
E|-----------------1---1---1---1---|-0---0---0---0---6---5---4---3---|--------|-------------------3---2---1---|


E|--------|-------------------------------|--------|-------------------------------|
B|--------|-------------------------------|--------|-------------------------------|
G|--------|-------------------------------|--------|-------------------------------|
D|--------|-------------------------------|-4------|-4-----------------------------|
A|-2------|-2-----3---2---1---------------|-2------|-2-----3---2---1---------------|
E|-0------|-0-----------------3---2---1---|--------|-------------------3---2---1---|


E|--------|-------------------------------|--------|-------------------------------|
B|--------|-------------------------------|--------|-------------------------------|
G|--------|-------------------------------|--------|-------------------------------|
D|--------|-------------------------------|-7------|-7-----------------------------|
A|-4------|-4-----3---2---1---------------|-5------|-5-----3---2---1---------------|
E|-2------|-2-----------------3---2---1---|--------|-------------------3---2---1---|


E|--------|-------------------------------|--------|-------------------------------|
B|--------|-------------------------------|--------|-------------------------------|
G|--------|-------------------------------|--------|-------------------------------|
D|-2------|-2-----------------------------|--------|-------------------------------|
A|-0------|-0-----3---2---1---------------|-2------|-2-----3---2---1---------------|
E|--------|-------------------3---2---1---|-0------|-0-----------------3---2---1---|


E|--------------------|-------------|-------------|-------------|--------|--------|
B|--------------------|-------------|-------------|-------------|--------|--------|
G|--------------------|-------------|-------------|-------------|--------|--------|
D|-2------------2-----|-------2-----|-------------|-------------|--------|--------|
A|-0------------0-----|-------0-----|-------------|-------------|--------|--------|
E|--------------------|-------------|-------------|-------------|--------|--------|


E|--------|--------|--------|--------|--------|--------|--------|--------|--------|
B|--------|--------|--------|--------|--------|--------|--------|--------|--------|
G|--------|--------|--------|--------|--------|--------|--------|--------|--------|
D|--------|--------|--------|--------|--------|--------|--------|--------|--------|
A|--------|--------|--------|--------|--------|--------|--------|--------|--------|
E|--------|--------|--------|--------|--------|--------|--------|--------|--------|


E|--------|--------|-----------------------|---------------------------------|---------------------------------|
B|--------|--------|-----------------------|---------------------------------|---------------------------------|
G|--------|--------|-----------------------|---------------------------------|---------------------------------|
D|--------|--------|-------9---9---9---9---|---------------------------------|-----------------9---9---9---9---|
A|--------|--------|-------7---7---7---7---|-3---3---3---3---2---2---2---2---|-8---7---6---5---7---7---7---7---|
E|--------|--------|-----------------------|-1---1---1---1---0---0---0---0---|-6---5---4---3-------------------|


E|---------------------------------|---------------------------------|---------------------------------|
B|---------------------------------|---------------------------------|---------------------------------|
G|---------------------------------|---------------------------------|---------------------------------|
D|---------------------------------|-----------------9---9---9---9---|---------------------------------|
A|-3---3---3---3---2---2---2---2---|-8---7---6---5---7---7---7---7---|-3---3---3---3---2---2---2---2---|
E|-1---1---1---1---0---0---0---0---|-6---5---4---3-------------------|-1---1---1---1---0---0---0---0---|


E|---------------------------------|---------------------------------|-----------------------|
B|---------------------------------|---------------------------------|-----------------------|
G|---------------------------------|---------------------------------|-----------------------|
D|-----------------9---9---9---9---|---------------------------------|-----------------------|
A|-8---7---6---5---7---7---7---7---|-3---3---3---3---2---2---2---2---|-8---7---6---5---2-----|
E|-6---5---4---3-------------------|-1---1---1---1---0---0---0---0---|-6---5---4---3---0-----|


E|-------------|-------------------------------|-------------|-------------------------------|
B|-------------|-------------------------------|-------------|-------------------------------|
G|-------------|-------------------------------|-------------|-------------------------------|
D|-8-----7-----|-------------------------------|-8-----7-----|-------------------------------|
A|-8-----7-----|-3---2---1---------------2-----|-8-----7-----|-3---2---1---------------2-----|
E|-------------|-------------3---2---1---0-----|-------------|-------------3---2---1---0-----|


E|-------------|-------------------------------|-------------|-------------------------------|
B|-------------|-------------------------------|-------------|-------------------------------|
G|-------------|-------------------------------|-------------|-------------------------------|
D|-8-----7-----|-------------------------------|-8-----7-----|-------------------------------|
A|-8-----7-----|-3---2---1---------------2-----|-8-----7-----|-3---2---1---------------2-----|
E|-------------|-------------3---2---1---0-----|-------------|-------------3---2---1---0-----|


E|-------------|-------------------------------|-------------|-------------------------------|
B|-------------|-------------------------------|-------------|-------------------------------|
G|-------------|-------------------------------|-------------|-------------------------------|
D|-8-----7-----|-------------------------------|-8-----7-----|-------------------------------|
A|-8-----7-----|-3---2---1---------------2-----|-8-----7-----|-3---2---1---------------2-----|
E|-------------|-------------3---2---1---0-----|-------------|-------------3---2---1---0-----|


E|-------------|-------------------------------|-------------|-------------|-------------|
B|-------------|-------------------------------|-------------|-------------|-------------|
G|-------------|-------------------------------|-------------|-------------|-------------|
D|-8-----7-----|-------------------------------|-8-----7-----|-------------|-------------|
A|-8-----7-----|-3---2---1---------------2-----|-8-----7-----|-5-----2-----|-------2-----|
E|-------------|-------------3---2---1---0-----|-------------|-3-----0-----|-------0-----|


E|-------------|-------------|-------------|-------------|-------------|-------------|
B|-------------|-------------|-------------|-------------|-------------|-------------|
G|-------------|-------------|-------------|-------------|-------------|-------------|
D|-------------|-------------|-------------|-------------|-------------|-------------|
A|-------3-----|-------3-----|-------4-----|-------4-----|-------5-----|-------5-----|
E|-------1-----|-------1-----|-------2-----|-------2-----|-------3-----|-------3-----|


E|---------------------------|-------------|
B|---------------------------|-------------|
G|---------------------------|-------------|
D|---------------------------|-------------|
A|------5---2---4------------|-------------|
E|------3---0---2------------|-------------|





Track 2: Marty Friedman

E|---------------------------------|---------------------------------|---------------------------------|
B|---------------------------------|---------------------------------|---------------------------------|
G|---------------------------------|---------------------------------|---------------------------------|
D|---------------------------------|---------------------------------|---------------------------------|
A|-2---2---2---2---3---3---3---3---|-2---2---2---2---8---7---6---5---|-2---2---2---2---3---3---3---3---|
E|-0---0---0---0---1---1---1---1---|-0---0---0---0---6---5---4---3---|-0---0---0---0---1---1---1---1---|


E|---------------------------------|---------------------------------|---------------------------------|
B|---------------------------------|---------------------------------|---------------------------------|
G|---------------------------------|---------------------------------|---------------------------------|
D|---------------------------------|---------------------------------|---------------------------------|
A|-2---2---2---2---8---7---6---5---|-2---2---2---2---3---3---3---3---|-2---2---2---2---8---7---6---5---|
E|-0---0---0---0---6---5---4---3---|-0---0---0---0---1---1---1---1---|-0---0---0---0---6---5---4---3---|


E|---------------------------------|---------------------------------|--------|--------|
B|---------------------------------|---------------------------------|--------|--------|
G|---------------------------------|---------------------------------|--------|--------|
D|---------------------------------|---------------------------------|--------|--------|
A|-2---2---2---2---3---3---3---3---|-2---2---2---2---8---7---6---5---|--------|--------|
E|-0---0---0---0---1---1---1---1---|-0---0---0---0---6---5---4---3---|--------|--------|


E|--------|--------|--------|--------|--------|--------|--------|--------|--------|
B|--------|--------|--------|--------|--------|--------|--------|--------|--------|
G|--------|--------|--------|--------|--------|--------|--------|--------|--------|
D|--------|--------|--------|--------|--------|--------|--------|--------|--------|
A|--------|--------|--------|--------|--------|--------|--------|--------|--------|
E|--------|--------|--------|--------|--------|--------|--------|--------|--------|


E|--------|--------|--------|--------|--------|--------|--------|--------|--------|
B|--------|--------|--------|--------|--------|--------|--------|--------|--------|
G|--------|--------|--------|--------|--------|--------|--------|--------|--------|
D|--------|--------|--------|--------|--------|--------|--------|--------|--------|
A|--------|--------|--------|--------|--------|--------|--------|--------|--------|
E|--------|--------|--------|--------|--------|--------|--------|--------|--------|


E|--------|--------|--------|--------|--------|--------|--------|--------|--------|
B|--------|--------|--------|--------|--------|--------|--------|--------|--------|
G|--------|--------|--------|--------|--------|--------|--------|--------|--------|
D|--------|--------|--------|--------|--------|--------|--------|--------|--------|
A|--------|--------|--------|--------|--------|--------|--------|--------|--------|
E|--------|--------|--------|--------|--------|--------|--------|--------|--------|


E|--------|--------|-----------------------|---------------------------------|---------------------------------|
B|--------|--------|-----------------------|---------------------------------|---------------------------------|
G|--------|--------|-----------------------|---------------------------------|---------------------------------|
D|--------|--------|-----------------------|---------------------------------|---------------------------------|
A|--------|--------|-------2---2---2---2---|-3---3---3---3---2---2---2---2---|-8---7---6---5---2---2---2---2---|
E|--------|--------|-------0---0---0---0---|-1---1---1---1---0---0---0---0---|-6---5---4---3---0---0---0---0---|


E|---------------------------------|---------------------------------|---------------------------------|
B|---------------------------------|---------------------------------|---------------------------------|
G|---------------------------------|---------------------------------|---------------------------------|
D|---------------------------------|---------------------------------|---------------------------------|
A|-3---3---3---3---2---2---2---2---|-8---7---6---5---2---2---2---2---|-3---3---3---3---2---2---2---2---|
E|-1---1---1---1---0---0---0---0---|-6---5---4---3---0---0---0---0---|-1---1---1---1---0---0---0---0---|


E|---------------------------------|---------------------------------|-----------------------|
B|---------------------------------|---------------------------------|-----------------------|
G|---------------------------------|---------------------------------|-----------------------|
D|---------------------------------|---------------------------------|-----------------------|
A|-8---7---6---5---2---2---2---2---|-3---3---3---3---2---2---2---2---|-8---7---6---5---------|
E|-6---5---4---3---0---0---0---0---|-1---1---1---1---0---0---0---0---|-6---5---4---3---------|


E|--------|--------|--------|--------|--------|--------|--------|--------|--------|
B|--------|--------|--------|--------|--------|--------|--------|--------|--------|
G|--------|--------|--------|--------|--------|--------|--------|--------|--------|
D|--------|--------|--------|--------|--------|--------|--------|--------|--------|
A|--------|--------|--------|--------|--------|--------|--------|--------|--------|
E|--------|--------|--------|--------|--------|--------|--------|--------|--------|


E|--------|--------|--------|--------|--------|--------|--------|--------|--------|
B|--------|--------|--------|--------|--------|--------|--------|--------|--------|
G|--------|--------|--------|--------|--------|--------|--------|--------|--------|
D|--------|--------|--------|--------|--------|--------|--------|--------|--------|
A|--------|--------|--------|--------|--------|--------|--------|--------|--------|
E|--------|--------|--------|--------|--------|--------|--------|--------|--------|


E|--------|--------|--------|--------|--------|--------|--------|
B|--------|--------|--------|--------|--------|--------|--------|
G|--------|--------|--------|--------|--------|--------|--------|
D|--------|--------|--------|--------|--------|--------|--------|
A|--------|--------|--------|--------|--------|--------|--------|
E|--------|--------|--------|--------|--------|--------|--------|





Track 3: Lead Guitar

E|--------|--------|--------|--------|--------|--------|--------|--------|--------|
B|--------|--------|--------|--------|--------|--------|--------|--------|--------|
G|--------|--------|--------|--------|--------|--------|--------|--------|--------|
D|--------|--------|--------|--------|--------|--------|--------|--------|--------|
A|--------|--------|--------|--------|--------|--------|--------|--------|--------|
E|--------|--------|--------|--------|--------|--------|--------|--------|--------|


E|--------|--------|--------|--------|--------|--------|--------|--------|--------|
B|--------|--------|--------|--------|--------|--------|--------|--------|--------|
G|--------|--------|--------|--------|--------|--------|--------|--------|--------|
D|--------|--------|--------|--------|--------|--------|--------|--------|--------|
A|--------|--------|--------|--------|--------|--------|--------|--------|--------|
E|--------|--------|--------|--------|--------|--------|--------|--------|--------|


E|--------|--------|--------|--------|-------------|----------------------------|-----------------|
B|--------|--------|--------|--------|-------------|----------------------------|-----------------|
G|--------|--------|--------|--------|-------------|----------4--5--7-----5--4--|-------4---------|
D|--------|--------|--------|--------|-------7-----|------7---------------------|-5---------7-----|
A|--------|--------|--------|--------|-------------|----------------------------|-----------------|
E|--------|--------|--------|--------|-------------|----------------------------|-----------------|


E|-----------------------|-----------------------|----------------------------|-------------------------|
B|-------10--------------|-----------------------|----------------------------|-------------7--------7--|
G|-----------9---10--7---|-9-------7-------------|----------4--5--7-----5--7--|-9-----7--9--------9-----|
D|-----------------------|-----9-------8---7-----|------7---------------------|-------------------------|
A|-----------------------|-----------------------|----------------------------|-------------------------|
E|-----------------------|-----------------------|----------------------------|-------------------------|


E|-----------------------|-----------------8-----------|-------------------------------10--|
B|-8-----7--8--10--------|-10-----10-10-------10-11----|-10-11-10-8--11-13-11-10-11--------|
G|-----------------------|-----------------------------|-----------------------------------|
D|-----------------------|-----------------------------|-----------------------------------|
A|-----------------------|-----------------------------|-----------------------------------|
E|-----------------------|-----------------------------|-----------------------------------|


E|-13-11-10-13-11-10-11-13-11-10----11-10----10----------------------------|---------------------------|
B|-------------------------------13-------13----11-10----10-11-11-10-------|---------------------------|
G|----------------------------------------------------12-------------12-11-|-12------------------------|
D|-------------------------------------------------------------------------|-------12--13--12--13--10--|
A|-------------------------------------------------------------------------|---------------------------|
E|-------------------------------------------------------------------------|---------------------------|


E|-----------------------|----------10--13-11-10----10-11-10----|-10-----------------------------------|
B|---------13--10--11----|------11---------------13----------13-|----13-11-10-13-11-10----10-11---11---|
G|-----11----------------|--------------------------------------|----------------------12--------------|
D|-12--------------------|--------------------------------------|--------------------------------------|
A|-----------------------|--------------------------------------|--------------------------------------|
E|-----------------------|--------------------------------------|--------------------------------------|


E|-------------|-10--------------|-----------------|--------|--------|--------|--------|
B|-------10----|-------10---8----|-----------------|--------|--------|--------|--------|
G|-------------|-----------------|-8----7----------|--------|--------|--------|--------|
D|-------------|-----------------|-----------------|--------|--------|--------|--------|
A|-------------|-----------------|-----------------|--------|--------|--------|--------|
E|-------------|-----------------|-----------------|--------|--------|--------|--------|


E|--------|--------|--------|--------|--------|--------|--------|--------|--------|
B|--------|--------|--------|--------|--------|--------|--------|--------|--------|
G|--------|--------|--------|--------|--------|--------|--------|--------|--------|
D|--------|--------|--------|--------|--------|--------|--------|--------|--------|
A|--------|--------|--------|--------|--------|--------|--------|--------|--------|
E|--------|--------|--------|--------|--------|--------|--------|--------|--------|


E|--------|--------|-------------|---------------------|-------------|---------------------|
B|--------|--------|-------------|-11----11--10----10--|-------------|-8-----8---10----10--|
G|--------|--------|-------------|-13----13--12----12--|-------------|-10----10--12----12--|
D|--------|--------|-------------|---------------------|-------------|---------------------|
A|--------|--------|-------------|---------------------|-------------|---------------------|
E|--------|--------|-------------|---------------------|-------------|---------------------|


E|-------------|---------------------|-------------|-10----10--12----12--|-15----15--12----|
B|-------------|-11----11--10----10--|-------------|-13----13--15----15--|-18----18--15----|
G|-------------|-13----13--12----12--|-------------|---------------------|-----------------|
D|-------------|---------------------|-------------|---------------------|-----------------|
A|-------------|---------------------|-------------|---------------------|-----------------|
E|-------------|---------------------|-------------|---------------------|-----------------|


E|-------12---12---|-12----------|-------------|--------|--------|--------|--------|
B|-------15---15---|-15----------|-------------|--------|--------|--------|--------|
G|-----------------|-------------|-------------|--------|--------|--------|--------|
D|-----------------|-------------|-------------|--------|--------|--------|--------|
A|-----------------|-------------|-------------|--------|--------|--------|--------|
E|-----------------|-------------|-------------|--------|--------|--------|--------|


E|--------|--------|
B|--------|--------|
G|--------|--------|
D|--------|--------|
A|--------|--------|
E|--------|--------|





Track 4: Clean Guitar

E|--------|--------|--------|--------|--------|--------|--------|--------|--------|
B|--------|--------|--------|--------|--------|--------|--------|--------|--------|
G|--------|--------|--------|--------|--------|--------|--------|--------|--------|
D|--------|--------|--------|--------|--------|--------|--------|--------|--------|
A|--------|--------|--------|--------|--------|--------|--------|--------|--------|
E|--------|--------|--------|--------|--------|--------|--------|--------|--------|


E|--------|--------|--------|--------|--------|--------|--------|--------|--------|
B|--------|--------|--------|--------|--------|--------|--------|--------|--------|
G|--------|--------|--------|--------|--------|--------|--------|--------|--------|
D|--------|--------|--------|--------|--------|--------|--------|--------|--------|
A|--------|--------|--------|--------|--------|--------|--------|--------|--------|
E|--------|--------|--------|--------|--------|--------|--------|--------|--------|


E|--------|--------|--------|--------|-----------------------|-0---------------------------------|
B|--------|--------|--------|--------|-------------------1---|-----1-----------------------------|
G|--------|--------|--------|--------|---------------2-------|---------2---------------0---------|
D|--------|--------|--------|--------|-----------2-----------|-------------2-------2-------------|
A|--------|--------|--------|--------|-------0---------------|-----------------3-----------2--0--|
E|--------|--------|--------|--------|-----------------------|-----------------------------------|


E|---------------------------------|-0-----------------------------1---|---------0-----------------------|
B|-------------------------3-------|-----3---------------------1-------|-----0-----------------------1---|
G|-------------0-------2-------2---|---------2-------------2-----------|-1-----------------------2-------|
D|---------0-----------------------|-------------0--2--3---------------|---------------------2-----------|
A|-----2---------------------------|-----------------------------------|-------------1---0---------------|
E|-3---------------2---------------|-----------------------------------|---------------------------------|


E|-0---------------------------------|---------------------------------|-0-----------------------------1---|
B|-----1-----------------------------|-------------------------3-------|-----3---------------------1-------|
G|---------2---------------0---------|-------------0-------2-------2---|---------2-------------2-----------|
D|-------------2-------2-------------|---------0-----------------------|-------------0--2--3---------------|
A|-----------------3-----------2--0--|-----2---------------------------|-----------------------------------|
E|-----------------------------------|-3---------------2---------------|-----------------------------------|


E|---------0-----------------------|-3-------------------------------|---------------------------------|
B|-----0-------0-----------3-------|-----3-------3-----------3-------|-----6---------------------------|
G|-1-------------------3-------3---|---------3-----------3-----------|-5-----------------------8-------|
D|-----------------5---------------|-----------------4-----------3---|---------------------8-------8---|
A|---------------------------------|---------------------------------|---------8---7---6---------------|
E|---------------------------------|---------------------------------|---------------------------------|


E|---------------------------------|-3-------------------------------|-3-------------------------------|
B|-8---------------------------3---|---------3---------------3-------|-----3-------3-------------------|
G|-----8-------------------5-------|-----5-------3-------3-------3---|---------3-----------------------|
D|---------8-----------4-----------|-----------------5---------------|-------------------------7-------|
A|-------------4---5---------------|---------------------------------|---------------------7-----------|
E|---------------------------------|---------------------------------|-----------------5-----------6---|


E|---------------------------------|---------------------------------|---------------------------------|
B|---------------------------------|-8---------------------------6---|-----------------------------1---|
G|-------------------------8-------|-----8-------8-----------8-------|---------7---------------3-------|
D|-----8---------------8-------8---|---------8-----------7-----------|-----7---------------2-----------|
A|-8-------3---5---6---------------|-----------------8---------------|-5---------------3---------------|
E|---------------------------------|---------------------------------|-------------4-------------------|


E|-----------------------|--------|--------|--------|--------|--------|--------|--------|
B|-----------------------|--------|--------|--------|--------|--------|--------|--------|
G|---------2-------------|--------|--------|--------|--------|--------|--------|--------|
D|-----1-----------------|--------|--------|--------|--------|--------|--------|--------|
A|-2---------------------|--------|--------|--------|--------|--------|--------|--------|
E|-------------1---------|--------|--------|--------|--------|--------|--------|--------|


E|--------|--------|--------|--------|--------|--------|--------|--------|--------|
B|--------|--------|--------|--------|--------|--------|--------|--------|--------|
G|--------|--------|--------|--------|--------|--------|--------|--------|--------|
D|--------|--------|--------|--------|--------|--------|--------|--------|--------|
A|--------|--------|--------|--------|--------|--------|--------|--------|--------|
E|--------|--------|--------|--------|--------|--------|--------|--------|--------|


E|--------|--------|--------|--------|--------|--------|--------|--------|--------|
B|--------|--------|--------|--------|--------|--------|--------|--------|--------|
G|--------|--------|--------|--------|--------|--------|--------|--------|--------|
D|--------|--------|--------|--------|--------|--------|--------|--------|--------|
A|--------|--------|--------|--------|--------|--------|--------|--------|--------|
E|--------|--------|--------|--------|--------|--------|--------|--------|--------|


E|--------|--------|--------|--------|--------|--------|--------|--------|
B|--------|--------|--------|--------|--------|--------|--------|--------|
G|--------|--------|--------|--------|--------|--------|--------|--------|
D|--------|--------|--------|--------|--------|--------|--------|--------|
A|--------|--------|--------|--------|--------|--------|--------|--------|
E|--------|--------|--------|--------|--------|--------|--------|--------|





Track 5: Untitled

G|--------|--------|--------|--------|--------|--------|--------|--------|--------|
D|--------|--------|--------|--------|--------|--------|--------|--------|--------|
A|--------|--------|--------|--------|--------|--------|--------|--------|--------|
E|--------|--------|--------|--------|--------|--------|--------|--------|--------|


G|--------|--------|--------|--------|--------|--------|--------|--------|--------|
D|--------|--------|--------|--------|--------|--------|--------|--------|--------|
A|--------|--------|--------|--------|--------|--------|--------|--------|--------|
E|--------|--------|--------|--------|--------|--------|--------|--------|--------|


G|--------|--------|--------|--------|--------|--------|--------|--------|--------|
D|--------|--------|--------|--------|--------|--------|--------|--------|--------|
A|--------|--------|--------|--------|--------|--------|--------|--------|--------|
E|--------|--------|--------|--------|--------|--------|--------|--------|--------|


G|--------|--------|--------|--------|--------|--------|--------|--------|--------|
D|--------|--------|--------|--------|--------|--------|--------|--------|--------|
A|--------|--------|--------|--------|--------|--------|--------|--------|--------|
E|--------|--------|--------|--------|--------|--------|--------|--------|--------|


G|--------|--------|--------|--------|--------|--------|--------|--------|--------|
D|--------|--------|--------|--------|--------|--------|--------|--------|--------|
A|--------|--------|--------|--------|--------|--------|--------|--------|--------|
E|--------|--------|--------|--------|--------|--------|--------|--------|--------|


G|--------|--------|--------|--------|--------|--------|--------|--------|--------|
D|--------|--------|--------|--------|--------|--------|--------|--------|--------|
A|--------|--------|--------|--------|--------|--------|--------|--------|--------|
E|--------|--------|--------|--------|--------|--------|--------|--------|--------|


G|--------|--------|--------|--------|--------|--------|--------|--------|--------|
D|--------|--------|--------|--------|--------|--------|--------|--------|--------|
A|--------|--------|--------|--------|--------|--------|--------|--------|--------|
E|--------|--------|--------|--------|--------|--------|--------|--------|--------|


G|--------|--------|--------|--------|--------|--------|--------|--------|--------|
D|--------|--------|--------|--------|--------|--------|--------|--------|--------|
A|--------|--------|--------|--------|--------|--------|--------|--------|--------|
E|--------|--------|--------|--------|--------|--------|--------|--------|--------|


G|--------|
D|--------|
A|--------|
E|--------|