Menu:

 

Search:

 

megadeth - mechanix:

 



Title: Mechanix
Artist: 
Album: Killing is my Business...and Business is Good!
Author: Dave Mustaine


Track 1: Dave Mustaine

E|-------------|-----------------------|-------------|------------------------|-------------|
B|-------------|-----------------------|-------------|------------------------|-------------|
G|-4-----5-----|-----------------------|-4-----5-----|------------------------|-4-----5-----|
D|-4-----5-----|-----4--5--------5-----|-4-----5-----|-------------2----2-----|-4-----5-----|
A|-2-----3-----|-2---4--5----2---5-----|-2-----3-----|-------------2----2-----|-2-----3-----|
E|-------------|-0---2--3----0---3-----|-------------|-0---2---3---0----0-----|-------------|


E|-----------------------|-------------|------------------------|-------------|-----------------------|
B|-----------------------|-------------|------------------------|-------------|-----------------------|
G|-----------------------|-4-----5-----|------------------------|-4-----5-----|-----------------------|
D|-----4--5--------5-----|-4-----5-----|-------------2----2-----|-4-----5-----|-4--5--------5-----5---|
A|-2---4--5----2---5-----|-2-----3-----|-------------2----2-----|-2-----3-----|-4--5----2---5-----5---|
E|-0---2--3----0---3-----|-------------|-0---2---3---0----0-----|-------------|-2--3----0---3-----3---|


E|-------------|----------------------------|---------------------------------|---------------------------------|
B|-------------|----------------------------|---------------------------------|---------------------------------|
G|-4-----5-----|----------------------------|---------------------------------|---------------------------------|
D|-4-----5-----|-------------2----2----14---|---------------------------------|---------------------------------|
A|-2-----3-----|-------------2----2----14---|-7---5---7---5---7---5---7---5---|-7---5---7---5---7---5---5---5---|
E|-------------|-0---2---3---0----0----12---|-0-------0-------0-------0-------|-0-------0-------0-------7-------|


E|---------------------------------|---------------------------------|---------------------------------|
B|---------------------------------|---------------------------------|---------------------------------|
G|---------------------------------|---------------------------------|---------------------------------|
D|---------------------------------|-------------5---7---5-----------|---------------------------------|
A|-7---5---7---5---7---5---7---5---|-----5---7---------------7---5---|-7---5---7---5---7---5---7---5---|
E|-0-------0-------0-------0-------|-7-------------------------------|-0-------0-------0-------0-------|


E|---------------------------------|---------------------|---------------------------------|
B|---------------------------------|---------------------|---------------------------------|
G|---------------------------------|---------------------|---------------------------------|
D|---------------------------------|-5---------7----5----|---------------------------------|
A|-7---5---7---5---7---5---5---5---|-3----5----5----3----|-7---5---7---5---7---5---7---5---|
E|-0-------0-------0-------7-------|------3--------------|-0-------0-------0-------0-------|


E|---------------------------------|---------------------------------|---------------------------------|
B|---------------------------------|---------------------------------|---------------------------------|
G|---------------------------------|---------------------------------|---------------------------------|
D|---------------------------------|---------------------------------|-------------5---7---5-----------|
A|-7---5---7---5---7---5---5---5---|-7---5---7---5---7---5---7---5---|-----5---7---------------7---5---|
E|-0-------0-------0-------7-------|-0-------0-------0-------0-------|-7-------------------------------|


E|---------------------------------|---------------------------------|---------------------|
B|---------------------------------|---------------------------------|---------------------|
G|---------------------------------|---------------------------------|---------------------|
D|---------------------------------|---------------------------------|-5---------7----5----|
A|-7---5---7---5---7---5---7---5---|-7---5---7---5---7---5---5---5---|-3----5----5----3----|
E|-0-------0-------0-------0-------|-0-------0-------0-------7-------|------3--------------|


E|-----------------------------------|----------------------------|-----------------------------------|
B|-----------------------------------|----------------------------|-----------------------------------|
G|-----------------------------------|----------------------------|-----------------------------------|
D|-------------9----------------9----|-------------9----7----7----|-------------9----------------9----|
A|-------------7----------------7----|-------------7----5----5----|-------------7----------------7----|
E|-0---0---0--------0---0---0--------|-0---0---0------------------|-0---0---0--------0---0---0--------|


E|----------------------------|-----------------------------------|----------------------------|
B|----------------------------|-----------------------------------|----------------------------|
G|----------------------------|-----------------------------------|----------------------------|
D|-------------9----5----7----|-------------9----------------9----|-------------9----12---9----|
A|-------------7----3----5----|-------------7----------------7----|-------------7----10---7----|
E|-0---0---0------------------|-0---0---0--------0---0---0--------|-0---0---0------------------|


E|---------------------|-----------------------------------|----------------------------|
B|---------------------|-----------------------------------|----------------------------|
G|---------------------|-----------------------------------|----------------------------|
D|-5---------7----5----|-------------9----------------9----|-------------9----7----7----|
A|-3----5----5----3----|-------------7----------------7----|-------------7----5----5----|
E|------3--------------|-0---0---0--------0---0---0--------|-0---0---0------------------|


E|-----------------------------------|----------------------------|-----------------------------------|
B|-----------------------------------|----------------------------|-----------------------------------|
G|-----------------------------------|----------------------------|-----------------------------------|
D|-------------9----------------9----|-------------9----5----7----|-------------9----------------9----|
A|-------------7----------------7----|-------------7----3----5----|-------------7----------------7----|
E|-0---0---0--------0---0---0--------|-0---0---0------------------|-0---0---0--------0---0---0--------|


E|----------------------------|---------------------|-----------------------------------|
B|----------------------------|---------------------|-----------------------------------|
G|----------------------------|---------------------|-----------------------------------|
D|-------------9----12---9----|-5---------7----5----|-------------9----------------9----|
A|-------------7----10---7----|-3----5----5----3----|-------------7----------------7----|
E|-0---0---0------------------|------3--------------|-0---0---0--------0---0---0--------|


E|----------------------------|-----------------------------------|----------------------------|
B|----------------------------|-----------------------------------|----------------------------|
G|----------------------------|-----------------------------------|----------------------------|
D|-------------9----7----7----|-------------9----------------9----|-------------9----5----7----|
A|-------------7----5----5----|-------------7----------------7----|-------------7----3----5----|
E|-0---0---0------------------|-0---0---0--------0---0---0--------|-0---0---0------------------|


E|-----------------------------------|----------------------------|---------------------|
B|-----------------------------------|----------------------------|---------------------|
G|-----------------------------------|----------------------------|---------------------|
D|-------------9----------------9----|-------------9----12---9----|-5---------7----5----|
A|-------------7----------------7----|-------------7----10---7----|-3----5----5----3----|
E|-0---0---0--------0---0---0--------|-0---0---0------------------|------3--------------|


E|--------|--------------------|--------|--------------------|--------|--------------------|
B|--------|--------------------|--------|--------------------|--------|--------------------|
G|-9------|-9-----9----9---9---|-7------|-7-----7----7---7---|-5------|-5-----5----5---5---|
D|-9------|-9-----9----9---9---|-7------|-7-----7----7---7---|-5------|-5-----5----5---5---|
A|-7------|-7-----7----7---7---|-5------|-5-----5----5---5---|-3------|-3-----3----3---3---|
E|--------|--------------------|--------|--------------------|--------|--------------------|


E|--------|-----------------|--------|--------------------|--------|--------------------|
B|--------|-----------------|--------|--------------------|--------|--------------------|
G|-4------|-4-----4---------|-9------|-9-----9----9---9---|-7------|-7-----7----7---7---|
D|-4------|-4-----4----14---|-9------|-9-----9----9---9---|-7------|-7-----7----7---7---|
A|-2------|-2-----2----14---|-7------|-7-----7----7---7---|-5------|-5-----5----5---5---|
E|--------|------------12---|--------|--------------------|--------|--------------------|


E|--------|--------------------|---------------------|---------------------------------|
B|--------|--------------------|---------------------|---------------------------------|
G|-5------|-5-----5----5---5---|-4----5----4---------|---------------------------------|
D|-5------|-5-----5----5---5---|-4----5----4----5----|---------------------------------|
A|-3------|-3-----3----3---3---|-2----3----2----5----|-7---5---7---5---7---5---7---5---|
E|--------|--------------------|----------------3----|-0-------0-------0-------0-------|


E|---------------------------------|---------------------------------|---------------------------------|
B|---------------------------------|---------------------------------|---------------------------------|
G|---------------------------------|---------------------------------|---------------------------------|
D|---------------------------------|---------------------------------|-------------5---7---5-----------|
A|-7---5---7---5---7---5---5---5---|-7---5---7---5---7---5---7---5---|-----5---7---------------7---5---|
E|-0-------0-------0-------7-------|-0-------0-------0-------0-------|-7-------------------------------|


E|---------------------------------|---------------------------------|---------------------|
B|---------------------------------|---------------------------------|---------------------|
G|---------------------------------|---------------------------------|---------------------|
D|---------------------------------|---------------------------------|-5---------7----5----|
A|-7---5---7---5---7---5---7---5---|-7---5---7---5---7---5---5---5---|-3----5----5----3----|
E|-0-------0-------0-------0-------|-0-------0-------0-------7-------|------3--------------|


E|---------------------------------|---------------------------------|---------------------------------|
B|---------------------------------|---------------------------------|---------------------------------|
G|---------------------------------|---------------------------------|---------------------------------|
D|---------------------------------|---------------------------------|---------------------------------|
A|-7---5---7---5---7---5---7---5---|-7---5---7---5---7---5---5---5---|-7---5---7---5---7---5---7---5---|
E|-0-------0-------0-------0-------|-0-------0-------0-------7-------|-0-------0-------0-------0-------|


E|---------------------------------|---------------------------------|---------------------------------|
B|---------------------------------|---------------------------------|---------------------------------|
G|---------------------------------|---------------------------------|---------------------------------|
D|-------------5---7---5-----------|---------------------------------|---------------------------------|
A|-----5---7---------------7---5---|-7---5---7---5---7---5---7---5---|-7---5---7---5---7---5---5---5---|
E|-7-------------------------------|-0-------0-------0-------0-------|-0-------0-------0-------7-------|


E|---------------------|-----------------------------------|----------------------------|
B|---------------------|-----------------------------------|----------------------------|
G|---------------------|-----------------------------------|----------------------------|
D|-5---------7----5----|-------------9----------------9----|-------------9----7----7----|
A|-3----5----5----3----|-------------7----------------7----|-------------7----5----5----|
E|------3--------------|-0---0---0--------0---0---0--------|-0---0---0------------------|


E|-----------------------------------|----------------------------|-----------------------------------|
B|-----------------------------------|----------------------------|-----------------------------------|
G|-----------------------------------|----------------------------|-----------------------------------|
D|-------------9----------------9----|-------------9----5----7----|-------------9----------------9----|
A|-------------7----------------7----|-------------7----3----5----|-------------7----------------7----|
E|-0---0---0--------0---0---0--------|-0---0---0------------------|-0---0---0--------0---0---0--------|


E|----------------------------|---------------------|-----------------------------------|
B|----------------------------|---------------------|-----------------------------------|
G|----------------------------|---------------------|-----------------------------------|
D|-------------9----12---9----|-5---------7----5----|-------------9----------------9----|
A|-------------7----10---7----|-3----5----5----3----|-------------7----------------7----|
E|-0---0---0------------------|------3--------------|-0---0---0--------0---0---0--------|


E|----------------------------|-----------------------------------|----------------------------|
B|----------------------------|-----------------------------------|----------------------------|
G|----------------------------|-----------------------------------|----------------------------|
D|-------------9----7----7----|-------------9----------------9----|-------------9----5----7----|
A|-------------7----5----5----|-------------7----------------7----|-------------7----3----5----|
E|-0---0---0------------------|-0---0---0--------0---0---0--------|-0---0---0------------------|


E|-----------------------------------|----------------------------|---------------------|
B|-----------------------------------|----------------------------|---------------------|
G|-----------------------------------|----------------------------|---------------------|
D|-------------9----------------9----|-------------9----12---9----|-5---------7----5----|
A|-------------7----------------7----|-------------7----10---7----|-3----5----5----3----|
E|-0---0---0--------0---0---0--------|-0---0---0------------------|------3--------------|


E|--------|--------------------|--------|--------------------|--------|--------------------|
B|--------|--------------------|--------|--------------------|--------|--------------------|
G|-9------|-9-----9----9---9---|-7------|-7-----7----7---7---|-5------|-5-----5----5---5---|
D|-9------|-9-----9----9---9---|-7------|-7-----7----7---7---|-5------|-5-----5----5---5---|
A|-7------|-7-----7----7---7---|-5------|-5-----5----5---5---|-3------|-3-----3----3---3---|
E|--------|--------------------|--------|--------------------|--------|--------------------|


E|--------|-----------------|--------|--------------------|--------|--------------------|
B|--------|-----------------|--------|--------------------|--------|--------------------|
G|-4------|-4-----4---------|-9------|-9-----9----9---9---|-7------|-7-----7----7---7---|
D|-4------|-4-----4----14---|-9------|-9-----9----9---9---|-7------|-7-----7----7---7---|
A|-2------|-2-----2----14---|-7------|-7-----7----7---7---|-5------|-5-----5----5---5---|
E|--------|------------12---|--------|--------------------|--------|--------------------|


E|--------|--------------------|---------------------|---------------------------------|
B|--------|--------------------|---------------------|---------------------------------|
G|-5------|-5-----5----5---5---|-4----5----4---------|---------------------------------|
D|-5------|-5-----5----5---5---|-4----5----4----5----|---------------------------------|
A|-3------|-3-----3----3---3---|-2----3----2----5----|-7---5---7---5---7---5---7---5---|
E|--------|--------------------|----------------3----|-0-------0-------0-------0-------|


E|---------------------------------|---------------------------------|---------------------------------|
B|---------------------------------|---------------------------------|---------------------------------|
G|---------------------------------|---------------------------------|---------------------------------|
D|---------------------------------|---------------------------------|-------------5---7---5-----------|
A|-7---5---7---5---7---5---5---5---|-7---5---7---5---7---5---7---5---|-----5---7---------------7---5---|
E|-0-------0-------0-------7-------|-0-------0-------0-------0-------|-7-------------------------------|


E|---------------------------------|---------------------------------|---------------------|
B|---------------------------------|---------------------------------|---------------------|
G|---------------------------------|---------------------------------|---------------------|
D|---------------------------------|---------------------------------|-5---------7----5----|
A|-7---5---7---5---7---5---7---5---|-7---5---7---5---7---5---5---5---|-3----5----5----3----|
E|-0-------0-------0-------0-------|-0-------0-------0-------7-------|------3--------------|


E|---------------------------------|---------------------------------|---------------------------------|
B|---------------------------------|---------------------------------|---------------------------------|
G|---------------------------------|---------------------------------|---------------------------------|
D|---------------------------------|---------------------------------|---------------------------------|
A|-7---5---7---5---7---5---7---5---|-7---5---7---5---7---5---5---5---|-7---5---7---5---7---5---7---5---|
E|-0-------0-------0-------0-------|-0-------0-------0-------7-------|-0-------0-------0-------0-------|


E|---------------------------------|---------------------------------|---------------------------------|
B|---------------------------------|---------------------------------|---------------------------------|
G|---------------------------------|---------------------------------|---------------------------------|
D|-------------5---7---5-----------|---------------------------------|---------------------------------|
A|-----5---7---------------7---5---|-7---5---7---5---7---5---7---5---|-7---5---7---5---7---5---5---5---|
E|-7-------------------------------|-0-------0-------0-------0-------|-0-------0-------0-------7-------|


E|---------------------|--------|-----------------------------------------|-----------------------------------------|
B|---------------------|--------|-----------------------------------------|-----------------------------------------|
G|---------------------|--------|-----------------------------------------|-----------------------------------------|
D|-5---------7----5----|-2------|-----------------------------------------|-----------------------------------------|
A|-3----5----5----3----|-2------|-----------------------------------------|-----------------------------------------|
E|------3--------------|-0------|-0---0---0---0---0---0---0---0---0---0---|-0---0---0---0---0---0---0---0---0---0---|


E|-----------------------------------------|-----------------------------------------|
B|-----------------------------------------|-----------------------------------------|
G|-----------------------------------------|-----------------------------------------|
D|-----------------------------------------|-----------------------------------------|
A|-----------------------------------------|-----------------------------------------|
E|-0---0---0---0---0---0---0---0---0---0---|-0---0---0---0---0---0---0---0---0---0---|


E|-----------------------------------------|-----------------------------------------|
B|-----------------------------------------|-----------------------------------------|
G|-----------------------------------------|-----------------------------------------|
D|-----------------------------------------|-----------------------------------------|
A|-----------------------------------------|-----------------------------------------|
E|-0---0---0---0---0---0---0---0---0---0---|-0---0---0---0---0---0---0---0---0---0---|


E|-----------------------------------------|-----------------------------------------|
B|-----------------------------------------|-----------------------------------------|
G|-----------------------------------------|-----------------------------------------|
D|-----------------------------------------|-----------------------------------------|
A|-----------------------------------------|-----------------------------------------|
E|-0---0---0---0---0---0---0---0---0---0---|-0---0---0---0---0---0---0---0---0---0---|


E|-----------------------------------------|----------------------------------|-----------------------------------------|
B|-----------------------------------------|----------------------------------|-----------------------------------------|
G|-----------------------------------------|---------------------10-9----9----|-----------------------------------------|
D|-----------------------------------------|---------------------10-9----9----|-----------------------------------------|
A|-----------------------------------------|---------------------8--7----7----|-----------------------------------------|
E|-0---0---0---0---0---0---0---0---0---0---|-0---0---0---0---0----------------|-0---0---0---0---0---0---0---0---0---0---|


E|----------------------------------|-----------------------------------------|---------------------------|
B|----------------------------------|-----------------------------------------|---------------------------|
G|---------------------10-9----9----|-----------------------------------------|---------------------10----|
D|---------------------10-9----9----|-----------------------------------------|---------------------10----|
A|---------------------8--7----7----|-----------------------------------------|---------------------8-----|
E|-0---0---0---0---0----------------|-0---0---0---0---0---0---0---0---0---0---|-0---0---0---0---0---------|


E|-----------------------------------------|----------------------------------|-----------------------------------------|
B|-----------------------------------------|----------------------------------|-----------------------------------------|
G|-----------------------------------------|---------------------10-9----9----|-----------------------------------------|
D|-----------------------------------------|---------------------10-9----9----|-----------------------------------------|
A|-----------------------------------------|---------------------8--7----7----|-----------------------------------------|
E|-0---0---0---0---0---0---0---0---0---0---|-0---0---0---0---0----------------|-0---0---0---0---0---0---0---0---0---0---|


E|---------------------------|-----------------------------------------|----------------------------------|
B|---------------------------|-----------------------------------------|----------------------------------|
G|---------------------10----|-----------------------------------------|---------------------10-9----9----|
D|---------------------10----|-----------------------------------------|---------------------10-9----9----|
A|---------------------8-----|-----------------------------------------|---------------------8--7----7----|
E|-0---0---0---0---0---------|-0---0---0---0---0---0---0---0---0---0---|-0---0---0---0---0----------------|


E|-----------------------------------------|---------------------------|-----------------------------------------|
B|-----------------------------------------|---------------------------|-----------------------------------------|
G|-----------------------------------------|---------------------10----|-----------------------------------------|
D|-----------------------------------------|---------------------10----|-----------------------------------------|
A|-----------------------------------------|---------------------8-----|-----------------------------------------|
E|-0---0---0---0---0---0---0---0---0---0---|-0---0---0---0---0---------|-0---0---0---0---0---0---0---0---0---0---|


E|----------------------------------|-----------------------------------------|---------------------------|
B|----------------------------------|-----------------------------------------|---------------------------|
G|---------------------10-9----9----|-----------------------------------------|---------------------10----|
D|---------------------10-9----9----|-----------------------------------------|---------------------10----|
A|---------------------8--7----7----|-----------------------------------------|---------------------8-----|
E|-0---0---0---0---0----------------|-0---0---0---0---0---0---0---0---0---0---|-0---0---0---0---0---------|


E|-------------------------------------------------|-------------------------------------------------|
B|-------------------------------------------------|-------------------------------------------------|
G|-------------------------------------------------|-------------------------------------------------|
D|-------------------------------------------------|-------------------------------------------------|
A|-7---5-------5-----------------------------------|-7---5-------5-----------------------------------|
E|---------7-------7---6---5---3---5---0---3---5---|---------7-------7---6---5---3---5---0---3---5---|


E|---------------------------------|---------------------------------|---------------------------------|
B|---------------------------------|---------------------------------|---------------------------------|
G|---------------------------------|---------------------------------|---------------------------------|
D|---------------------------------|---------------------------------|---------------------------------|
A|-7---5---7---5---7---5---7---5---|-7---5---7---5---7---5---5---5---|-7---5---7---5---7---5---7---5---|
E|-0-------0-------0-------0-------|-0-------0-------0-------7-------|-0-------0-------0-------0-------|


E|---------------------------------|---------------------------------|---------------------------------|
B|---------------------------------|---------------------------------|---------------------------------|
G|---------------------------------|---------------------------------|---------------------------------|
D|-------------5---7---5-----------|---------------------------------|---------------------------------|
A|-----5---7---------------7---5---|-7---5---7---5---7---5---7---5---|-7---5---7---5---7---5---5---5---|
E|-7-------------------------------|-0-------0-------0-------0-------|-0-------0-------0-------7-------|


E|---------------------|---------------------------------|---------------------------------|
B|---------------------|---------------------------------|---------------------------------|
G|---------------------|---------------------------------|---------------------------------|
D|-5---------7----5----|---------------------------------|---------------------------------|
A|-3----5----5----3----|-7---5---7---5---7---5---7---5---|-7---5---7---5---7---5---5---5---|
E|------3--------------|-0-------0-------0-------0-------|-0-------0-------0-------7-------|


E|---------------------------------|---------------------------------|---------------------------------|
B|---------------------------------|---------------------------------|---------------------------------|
G|---------------------------------|---------------------------------|---------------------------------|
D|---------------------------------|-------------5---7---5-----------|---------------------------------|
A|-7---5---7---5---7---5---7---5---|-----5---7---------------7---5---|-7---5---7---5---7---5---7---5---|
E|-0-------0-------0-------0-------|-7-------------------------------|-0-------0-------0-------0-------|


E|---------------------------------|---------------------|-----------------------------------|
B|---------------------------------|---------------------|-----------------------------------|
G|---------------------------------|---------------------|-----------------------------------|
D|---------------------------------|-5---------7----5----|-------------9----------------9----|
A|-7---5---7---5---7---5---5---5---|-3----5----5----3----|-------------7----------------7----|
E|-0-------0-------0-------7-------|------3--------------|-0---0---0--------0---0---0--------|


E|----------------------------|-----------------------------------|----------------------------|
B|----------------------------|-----------------------------------|----------------------------|
G|----------------------------|-----------------------------------|----------------------------|
D|-------------9----7----7----|-------------9----------------9----|-------------9----5----7----|
A|-------------7----5----5----|-------------7----------------7----|-------------7----3----5----|
E|-0---0---0------------------|-0---0---0--------0---0---0--------|-0---0---0------------------|


E|-----------------------------------|----------------------------|---------------------|
B|-----------------------------------|----------------------------|---------------------|
G|-----------------------------------|----------------------------|---------------------|
D|-------------9----------------9----|-------------9----12---9----|-5---------7----5----|
A|-------------7----------------7----|-------------7----10---7----|-3----5----5----3----|
E|-0---0---0--------0---0---0--------|-0---0---0------------------|------3--------------|


E|-----------------------------------|----------------------------|-----------------------------------|
B|-----------------------------------|----------------------------|-----------------------------------|
G|-----------------------------------|----------------------------|-----------------------------------|
D|-------------9----------------9----|-------------9----7----7----|-------------9----------------9----|
A|-------------7----------------7----|-------------7----5----5----|-------------7----------------7----|
E|-0---0---0--------0---0---0--------|-0---0---0------------------|-0---0---0--------0---0---0--------|


E|----------------------------|-----------------------------------|----------------------------|
B|----------------------------|-----------------------------------|----------------------------|
G|----------------------------|-----------------------------------|----------------------------|
D|-------------9----5----7----|-------------9----------------9----|-------------9----12---9----|
A|-------------7----3----5----|-------------7----------------7----|-------------7----10---7----|
E|-0---0---0------------------|-0---0---0--------0---0---0--------|-0---0---0------------------|


E|---------------------|--------|--------------------|--------|--------------------|
B|---------------------|--------|--------------------|--------|--------------------|
G|---------------------|-9------|-9-----9----9---9---|-7------|-7-----7----7---7---|
D|-5---------7----5----|-9------|-9-----9----9---9---|-7------|-7-----7----7---7---|
A|-3----5----5----3----|-7------|-7-----7----7---7---|-5------|-5-----5----5---5---|
E|------3--------------|--------|--------------------|--------|--------------------|


E|--------|--------------------|--------|-----------------|--------|--------------------|
B|--------|--------------------|--------|-----------------|--------|--------------------|
G|-5------|-5-----5----5---5---|-4------|-4-----4---------|-9------|-9-----9----9---9---|
D|-5------|-5-----5----5---5---|-4------|-4-----4----14---|-9------|-9-----9----9---9---|
A|-3------|-3-----3----3---3---|-2------|-2-----2----14---|-7------|-7-----7----7---7---|
E|--------|--------------------|--------|------------12---|--------|--------------------|


E|--------|--------------------|--------|--------------------|---------------------|
B|--------|--------------------|--------|--------------------|---------------------|
G|-7------|-7-----7----7---7---|-5------|-5-----5----5---5---|-4----5----4---------|
D|-7------|-7-----7----7---7---|-5------|-5-----5----5---5---|-4----5----4----5----|
A|-5------|-5-----5----5---5---|-3------|-3-----3----3---3---|-2----3----2----5----|
E|--------|--------------------|--------|--------------------|----------------3----|


E|---------------------------------|---------------------------------|---------------------------------|
B|---------------------------------|---------------------------------|---------------------------------|
G|---------------------------------|---------------------------------|---------------------------------|
D|---------------------------------|---------------------------------|---------------------------------|
A|-7---5---7---5---7---5---7---5---|-7---5---7---5---7---5---5---5---|-7---5---7---5---7---5---7---5---|
E|-0-------0-------0-------0-------|-0-------0-------0-------7-------|-0-------0-------0-------0-------|


E|---------------------------------|---------------------------------|---------------------------------|
B|---------------------------------|---------------------------------|---------------------------------|
G|---------------------------------|---------------------------------|---------------------------------|
D|-------------5---7---5-----------|---------------------------------|---------------------------------|
A|-----5---7---------------7---5---|-7---5---7---5---7---5---7---5---|-7---5---7---5---7---5---5---5---|
E|-7-------------------------------|-0-------0-------0-------0-------|-0-------0-------0-------7-------|


E|---------------------|---------------------------------|---------------------------------|
B|---------------------|---------------------------------|---------------------------------|
G|---------------------|---------------------------------|---------------------------------|
D|-5---------7----5----|---------------------------------|---------------------------------|
A|-3----5----5----3----|-7---5---7---5---7---5---7---5---|-7---5---7---5---7---5---5---5---|
E|------3--------------|-0-------0-------0-------0-------|-0-------0-------0-------7-------|


E|---------------------------------|---------------------------------|---------------------------------|
B|---------------------------------|---------------------------------|---------------------------------|
G|---------------------------------|---------------------------------|---------------------------------|
D|---------------------------------|-------------5---7---5-----------|---------------------------------|
A|-7---5---7---5---7---5---7---5---|-----5---7---------------7---5---|-7---5---7---5---7---5---7---5---|
E|-0-------0-------0-------0-------|-7-------------------------------|-0-------0-------0-------0-------|


E|---------------------------------|---------------------|-----------------|-----------------------------------------|
B|---------------------------------|---------------------|-----------------|-----------------------------------------|
G|---------------------------------|---------------------|-----------------|-----------------------------------------|
D|---------------------------------|-5---------7----5----|-----------------|-----------------------------------------|
A|-7---5---7---5---7---5---5---5---|-3----5----5----3----|-2---------------|-----------------------------------------|
E|-0-------0-------0-------7-------|------3--------------|-0---------------|-0---0---0---0---0---0---0---0---0---0---|


E|----------------------------------|-----------------------------------------|---------------------------|
B|----------------------------------|-----------------------------------------|---------------------------|
G|---------------------10-9----9----|-----------------------------------------|---------------------10----|
D|---------------------10-9----9----|-----------------------------------------|---------------------10----|
A|---------------------8--7----7----|-----------------------------------------|---------------------8-----|
E|-0---0---0---0---0----------------|-0---0---0---0---0---0---0---0---0---0---|-0---0---0---0---0---------|


E|-----------------------------------------|----------------------------------|-----------------------------------------|
B|-----------------------------------------|----------------------------------|-----------------------------------------|
G|-----------------------------------------|---------------------10-9----9----|-----------------------------------------|
D|-----------------------------------------|---------------------10-9----9----|-----------------------------------------|
A|-----------------------------------------|---------------------8--7----7----|-----------------------------------------|
E|-0---0---0---0---0---0---0---0---0---0---|-0---0---0---0---0----------------|-0---0---0---0---0---0---0---0---0---0---|


E|---------------------------|-----------------------------------------|----------------------------------|
B|---------------------------|-----------------------------------------|----------------------------------|
G|---------------------10----|-----------------------------------------|---------------------10-9----9----|
D|---------------------10----|-----------------------------------------|---------------------10-9----9----|
A|---------------------8-----|-----------------------------------------|---------------------8--7----7----|
E|-0---0---0---0---0---------|-0---0---0---0---0---0---0---0---0---0---|-0---0---0---0---0----------------|


E|-----------------------------------------|---------------------------|-----------------------------------------|
B|-----------------------------------------|---------------------------|-----------------------------------------|
G|-----------------------------------------|---------------------10----|-----------------------------------------|
D|-----------------------------------------|---------------------10----|-----------------------------------------|
A|-----------------------------------------|---------------------8-----|-----------------------------------------|
E|-0---0---0---0---0---0---0---0---0---0---|-0---0---0---0---0---------|-0---0---0---0---0---0---0---0---0---0---|


E|----------------------------------|-----------------------------------------|---------------------------|
B|----------------------------------|-----------------------------------------|---------------------------|
G|---------------------10-9----9----|-----------------------------------------|---------------------10----|
D|---------------------10-9----9----|-----------------------------------------|---------------------10----|
A|---------------------8--7----7----|-----------------------------------------|---------------------8-----|
E|-0---0---0---0---0----------------|-0---0---0---0---0---0---0---0---0---0---|-0---0---0---0---0---------|


E|-----------------------------------------|----------------------------------|-----------------------------------------|
B|-----------------------------------------|----------------------------------|-----------------------------------------|
G|-----------------------------------------|---------------------10-9----9----|-----------------------------------------|
D|-----------------------------------------|---------------------10-9----9----|-----------------------------------------|
A|-----------------------------------------|---------------------8--7----7----|-----------------------------------------|
E|-0---0---0---0---0---0---0---0---0---0---|-0---0---0---0---0----------------|-0---0---0---0---0---0---0---0---0---0---|


E|---------------------------|-----------------------------------------|----------------------------------|
B|---------------------------|-----------------------------------------|----------------------------------|
G|---------------------10----|-----------------------------------------|---------------------10-9----9----|
D|---------------------10----|-----------------------------------------|---------------------10-9----9----|
A|---------------------8-----|-----------------------------------------|---------------------8--7----7----|
E|-0---0---0---0---0---------|-0---0---0---0---0---0---0---0---0---0---|-0---0---0---0---0----------------|


E|-----------------------------------------|---------------------------|-----------------------------------------|
B|-----------------------------------------|---------------------------|-----------------------------------------|
G|-----------------------------------------|---------------------10----|-----------------------------------------|
D|-----------------------------------------|---------------------10----|-----------------------------------------|
A|-----------------------------------------|---------------------8-----|-----------------------------------------|
E|-0---0---0---0---0---0---0---0---0---0---|-0---0---0---0---0---------|-0---0---0---0---0---0---0---0---0---0---|


E|----------------------------------|-----------------------------------------|---------------------------|
B|----------------------------------|-----------------------------------------|---------------------------|
G|---------------------10-9----9----|-----------------------------------------|---------------------10----|
D|---------------------10-9----9----|-----------------------------------------|---------------------10----|
A|---------------------8--7----7----|-----------------------------------------|---------------------8-----|
E|-0---0---0---0---0----------------|-0---0---0---0---0---0---0---0---0---0---|-0---0---0---0---0---------|


E|-----------------------------------------|----------------------------------|-----------------------------------------|
B|-----------------------------------------|----------------------------------|-----------------------------------------|
G|-----------------------------------------|---------------------10-9----9----|-----------------------------------------|
D|-----------------------------------------|---------------------10-9----9----|-----------------------------------------|
A|-----------------------------------------|---------------------8--7----7----|-----------------------------------------|
E|-0---0---0---0---0---0---0---0---0---0---|-0---0---0---0---0----------------|-0---0---0---0---0---0---0---0---0---0---|


E|---------------------------|-----------------------------------------|----------------------------------|
B|---------------------------|-----------------------------------------|----------------------------------|
G|---------------------10----|-----------------------------------------|---------------------10-9----9----|
D|---------------------10----|-----------------------------------------|---------------------10-9----9----|
A|---------------------8-----|-----------------------------------------|---------------------8--7----7----|
E|-0---0---0---0---0---------|-0---0---0---0---0---0---0---0---0---0---|-0---0---0---0---0----------------|


E|-----------------------------------------|---------------------------|-----------------------------------------|
B|-----------------------------------------|---------------------------|-----------------------------------------|
G|-----------------------------------------|---------------------10----|-----------------------------------------|
D|-----------------------------------------|---------------------10----|-----------------------------------------|
A|-----------------------------------------|---------------------8-----|-----------------------------------------|
E|-0---0---0---0---0---0---0---0---0---0---|-0---0---0---0---0---------|-0---0---0---0---0---0---0---0---0---0---|


E|----------------------------------|-----------------------------------------|---------------------------|
B|----------------------------------|-----------------------------------------|---------------------------|
G|---------------------10-9----9----|-----------------------------------------|---------------------10----|
D|---------------------10-9----9----|-----------------------------------------|---------------------10----|
A|---------------------8--7----7----|-----------------------------------------|---------------------8-----|
E|-0---0---0---0---0----------------|-0---0---0---0---0---0---0---0---0---0---|-0---0---0---0---0---------|


E|-----------------------------------------|----------------------------------|-----------------------------------------|
B|-----------------------------------------|----------------------------------|-----------------------------------------|
G|-----------------------------------------|---------------------10-9----9----|-----------------------------------------|
D|-----------------------------------------|---------------------10-9----9----|-----------------------------------------|
A|-----------------------------------------|---------------------8--7----7----|-----------------------------------------|
E|-0---0---0---0---0---0---0---0---0---0---|-0---0---0---0---0----------------|-0---0---0---0---0---0---0---0---0---0---|


E|---------------------------|-----------------------------------------|----------------------------------|
B|---------------------------|-----------------------------------------|----------------------------------|
G|---------------------10----|-----------------------------------------|---------------------10-9----9----|
D|---------------------10----|-----------------------------------------|---------------------10-9----9----|
A|---------------------8-----|-----------------------------------------|---------------------8--7----7----|
E|-0---0---0---0---0---------|-0---0---0---0---0---0---0---0---0---0---|-0---0---0---0---0----------------|


E|-----------------------------------------|---------------------------|---------------------------------|
B|-----------------------------------------|---------------------------|---------------------------------|
G|-----------------------------------------|---------------------10----|---------------------------------|
D|-----------------------------------------|---------------------10----|---------------------------------|
A|-----------------------------------------|---------------------8-----|-7---5---7---5---7---5---7---5---|
E|-0---0---0---0---0---0---0---0---0---0---|-0---0---0---0---0---------|-0-------0-------0-------0-------|


E|---------------------------------|---------------------------------|---------------------------------|
B|---------------------------------|---------------------------------|---------------------------------|
G|---------------------------------|---------------------------------|---------------------------------|
D|---------------------------------|---------------------------------|-------------5---7---5-----------|
A|-7---5---7---5---7---5---5---5---|-7---5---7---5---7---5---7---5---|-----5---7---------------7---5---|
E|-0-------0-------0-------7-------|-0-------0-------0-------0-------|-7-------------------------------|


E|---------------------------------|---------------------------------|---------------------|
B|---------------------------------|---------------------------------|---------------------|
G|---------------------------------|---------------------------------|---------------------|
D|---------------------------------|---------------------------------|-5---------7----5----|
A|-7---5---7---5---7---5---7---5---|-7---5---7---5---7---5---5---5---|-3----5----5----3----|
E|-0-------0-------0-------0-------|-0-------0-------0-------7-------|------3--------------|


E|-----------------|
B|-----------------|
G|-----------------|
D|-----------------|
A|-2---------------|
E|-0---------------|





Track 2: Chris Poland

E|-------------|-----------------------|-------------|------------------------|-------------|
B|-------------|-----------------------|-------------|------------------------|-------------|
G|-4-----5-----|-----------------------|-4-----5-----|------------------------|-4-----5-----|
D|-------------|-----4--5--------5-----|-------------|-------------2----2-----|-------------|
A|-2-----3-----|-2---4--5----2---5-----|-2-----3-----|-------------2----2-----|-2-----3-----|
E|-------------|-0---2--3----0---3-----|-------------|-0---2---3---0----0-----|-------------|


E|-----------------------|-------------|------------------------|-------------|----------------------------------------------------------|
B|-----------------------|-------------|------------------------|-------------|----------------------------------------------------------|
G|-----------------------|-4-----5-----|------------------------|-4-----5-----|----------------------------------------------------------|
D|-----4--5--------5-----|-------------|-------------2----2-----|-------------|-4--5--------------------------5--3-----------------------|
A|-2---4--5----2---5-----|-2-----3-----|-------------2----2-----|-2-----3-----|-4--5----2---------------------------5--3--5--4--3--------|
E|-0---2--3----0---3-----|-------------|-0---2---3---0----0-----|-------------|-2--3----0---3--3--3--3--3--3-----------------------6--5--|


E|-------------|------------------------|---------------------------------|---------------------------------|
B|-------------|------------------------|---------------------------------|---------------------------------|
G|-4-----5-----|------------------------|---------------------------------|---------------------------------|
D|-------------|-------------2----2-----|---------------------------------|---------------------------------|
A|-2-----3-----|-------------2----2-----|-7---5---7---5---7---5---7---5---|-7---5---7---5---7---5---5---5---|
E|-------------|-0---2---3---0----0-----|-0-------0-------0-------0-------|-0-------0-------0-------7-------|


E|--------|--------|--------|--------|--------|--------|--------|--------|--------|
B|--------|--------|--------|--------|--------|--------|--------|--------|--------|
G|--------|--------|--------|--------|--------|--------|--------|--------|--------|
D|--------|--------|--------|--------|--------|--------|--------|--------|--------|
A|--------|--------|--------|--------|--------|--------|--------|--------|--------|
E|--------|--------|--------|--------|--------|--------|--------|--------|--------|


E|--------|--------|--------|--------|--------|--------|--------|--------|--------|
B|--------|--------|--------|--------|--------|--------|--------|--------|--------|
G|--------|--------|--------|--------|--------|--------|--------|--------|--------|
D|--------|--------|--------|--------|--------|--------|--------|--------|--------|
A|--------|--------|--------|--------|--------|--------|--------|--------|--------|
E|--------|--------|--------|--------|--------|--------|--------|--------|--------|


E|--------|--------|--------|--------|--------|--------|--------|--------|--------|
B|--------|--------|--------|--------|--------|--------|--------|--------|--------|
G|--------|--------|--------|--------|--------|--------|--------|--------|--------|
D|--------|--------|--------|--------|--------|--------|--------|--------|--------|
A|--------|--------|--------|--------|--------|--------|--------|--------|--------|
E|--------|--------|--------|--------|--------|--------|--------|--------|--------|


E|--------|--------|--------|--------|--------|--------|--------|--------|--------|
B|--------|--------|--------|--------|--------|--------|--------|--------|--------|
G|--------|--------|--------|--------|--------|--------|--------|--------|--------|
D|--------|--------|--------|--------|--------|--------|--------|--------|--------|
A|--------|--------|--------|--------|--------|--------|--------|--------|--------|
E|--------|--------|--------|--------|--------|--------|--------|--------|--------|


E|--------|--------|--------|--------|--------|--------|--------|--------|--------|
B|--------|--------|--------|--------|--------|--------|--------|--------|--------|
G|--------|--------|--------|--------|--------|--------|--------|--------|--------|
D|--------|--------|--------|--------|--------|--------|--------|--------|--------|
A|--------|--------|--------|--------|--------|--------|--------|--------|--------|
E|--------|--------|--------|--------|--------|--------|--------|--------|--------|


E|--------|--------|--------|--------|--------|--------|--------|--------|--------|
B|--------|--------|--------|--------|--------|--------|--------|--------|--------|
G|--------|--------|--------|--------|--------|--------|--------|--------|--------|
D|--------|--------|--------|--------|--------|--------|--------|--------|--------|
A|--------|--------|--------|--------|--------|--------|--------|--------|--------|
E|--------|--------|--------|--------|--------|--------|--------|--------|--------|


E|--------|--------|--------|--------|--------|--------|--------|--------|--------|
B|--------|--------|--------|--------|--------|--------|--------|--------|--------|
G|--------|--------|--------|--------|--------|--------|--------|--------|--------|
D|--------|--------|--------|--------|--------|--------|--------|--------|--------|
A|--------|--------|--------|--------|--------|--------|--------|--------|--------|
E|--------|--------|--------|--------|--------|--------|--------|--------|--------|


E|--------|--------|--------|--------|--------|--------|--------|--------|--------|
B|--------|--------|--------|--------|--------|--------|--------|--------|--------|
G|--------|--------|--------|--------|--------|--------|--------|--------|--------|
D|--------|--------|--------|--------|--------|--------|--------|--------|--------|
A|--------|--------|--------|--------|--------|--------|--------|--------|--------|
E|--------|--------|--------|--------|--------|--------|--------|--------|--------|


E|--------|--------|--------|--------|--------|--------|--------|--------|--------|
B|--------|--------|--------|--------|--------|--------|--------|--------|--------|
G|--------|--------|--------|--------|--------|--------|--------|--------|--------|
D|--------|--------|--------|--------|--------|--------|--------|--------|--------|
A|--------|--------|--------|--------|--------|--------|--------|--------|--------|
E|--------|--------|--------|--------|--------|--------|--------|--------|--------|


E|--------|--------|--------|--------|--------|--------|--------|--------|--------|
B|--------|--------|--------|--------|--------|--------|--------|--------|--------|
G|--------|--------|--------|--------|--------|--------|--------|--------|--------|
D|--------|--------|--------|--------|--------|--------|--------|--------|--------|
A|--------|--------|--------|--------|--------|--------|--------|--------|--------|
E|--------|--------|--------|--------|--------|--------|--------|--------|--------|


E|--------|--------|--------|--------|--------|--------|--------|--------|--------|
B|--------|--------|--------|--------|--------|--------|--------|--------|--------|
G|--------|--------|--------|--------|--------|--------|--------|--------|--------|
D|--------|--------|--------|--------|--------|--------|--------|--------|--------|
A|--------|--------|--------|--------|--------|--------|--------|--------|--------|
E|--------|--------|--------|--------|--------|--------|--------|--------|--------|


E|--------|--------|--------|--------|--------|--------|--------|--------|--------|
B|--------|--------|--------|--------|--------|--------|--------|--------|--------|
G|--------|--------|--------|--------|--------|--------|--------|--------|--------|
D|--------|--------|--------|--------|--------|--------|--------|--------|--------|
A|--------|--------|--------|--------|--------|--------|--------|--------|--------|
E|--------|--------|--------|--------|--------|--------|--------|--------|--------|


E|--------|--------|--------|--------|--------|--------|--------|--------|--------|
B|--------|--------|--------|--------|--------|--------|--------|--------|--------|
G|--------|--------|--------|--------|--------|--------|--------|--------|--------|
D|--------|--------|--------|--------|--------|--------|--------|--------|--------|
A|--------|--------|--------|--------|--------|--------|--------|--------|--------|
E|--------|--------|--------|--------|--------|--------|--------|--------|--------|


E|--------|--------|--------|--------|--------|--------|--------|--------|--------|
B|--------|--------|--------|--------|--------|--------|--------|--------|--------|
G|--------|--------|--------|--------|--------|--------|--------|--------|--------|
D|--------|--------|--------|--------|--------|--------|--------|--------|--------|
A|--------|--------|--------|--------|--------|--------|--------|--------|--------|
E|--------|--------|--------|--------|--------|--------|--------|--------|--------|


E|--------|--------|--------|--------|--------|--------|--------|--------|--------|
B|--------|--------|--------|--------|--------|--------|--------|--------|--------|
G|--------|--------|--------|--------|--------|--------|--------|--------|--------|
D|--------|--------|--------|--------|--------|--------|--------|--------|--------|
A|--------|--------|--------|--------|--------|--------|--------|--------|--------|
E|--------|--------|--------|--------|--------|--------|--------|--------|--------|


E|--------|--------|--------|--------|--------|--------|--------|--------|--------|
B|--------|--------|--------|--------|--------|--------|--------|--------|--------|
G|--------|--------|--------|--------|--------|--------|--------|--------|--------|
D|--------|--------|--------|--------|--------|--------|--------|--------|--------|
A|--------|--------|--------|--------|--------|--------|--------|--------|--------|
E|--------|--------|--------|--------|--------|--------|--------|--------|--------|


E|--------|--------|--------|--------|--------|--------|--------|--------|--------|
B|--------|--------|--------|--------|--------|--------|--------|--------|--------|
G|--------|--------|--------|--------|--------|--------|--------|--------|--------|
D|--------|--------|--------|--------|--------|--------|--------|--------|--------|
A|--------|--------|--------|--------|--------|--------|--------|--------|--------|
E|--------|--------|--------|--------|--------|--------|--------|--------|--------|


E|--------|--------|--------|--------|--------|--------|--------|--------|--------|
B|--------|--------|--------|--------|--------|--------|--------|--------|--------|
G|--------|--------|--------|--------|--------|--------|--------|--------|--------|
D|--------|--------|--------|--------|--------|--------|--------|--------|--------|
A|--------|--------|--------|--------|--------|--------|--------|--------|--------|
E|--------|--------|--------|--------|--------|--------|--------|--------|--------|


E|--------|--------|--------|--------|--------|--------|--------|--------|--------|
B|--------|--------|--------|--------|--------|--------|--------|--------|--------|
G|--------|--------|--------|--------|--------|--------|--------|--------|--------|
D|--------|--------|--------|--------|--------|--------|--------|--------|--------|
A|--------|--------|--------|--------|--------|--------|--------|--------|--------|
E|--------|--------|--------|--------|--------|--------|--------|--------|--------|


E|--------|--------|--------|--------|--------|--------|--------|--------|--------|
B|--------|--------|--------|--------|--------|--------|--------|--------|--------|
G|--------|--------|--------|--------|--------|--------|--------|--------|--------|
D|--------|--------|--------|--------|--------|--------|--------|--------|--------|
A|--------|--------|--------|--------|--------|--------|--------|--------|--------|
E|--------|--------|--------|--------|--------|--------|--------|--------|--------|


E|--------|--------|--------|--------|--------|--------|--------|--------|--------|
B|--------|--------|--------|--------|--------|--------|--------|--------|--------|
G|--------|--------|--------|--------|--------|--------|--------|--------|--------|
D|--------|--------|--------|--------|--------|--------|--------|--------|--------|
A|--------|--------|--------|--------|--------|--------|--------|--------|--------|
E|--------|--------|--------|--------|--------|--------|--------|--------|--------|


E|--------|--------|--------|--------|--------|--------|--------|--------|--------|
B|--------|--------|--------|--------|--------|--------|--------|--------|--------|
G|--------|--------|--------|--------|--------|--------|--------|--------|--------|
D|--------|--------|--------|--------|--------|--------|--------|--------|--------|
A|--------|--------|--------|--------|--------|--------|--------|--------|--------|
E|--------|--------|--------|--------|--------|--------|--------|--------|--------|


E|--------|--------|--------|--------|--------|--------|--------|--------|--------|
B|--------|--------|--------|--------|--------|--------|--------|--------|--------|
G|--------|--------|--------|--------|--------|--------|--------|--------|--------|
D|--------|--------|--------|--------|--------|--------|--------|--------|--------|
A|--------|--------|--------|--------|--------|--------|--------|--------|--------|
E|--------|--------|--------|--------|--------|--------|--------|--------|--------|


E|--------|--------|--------|--------|--------|--------|--------|--------|--------|
B|--------|--------|--------|--------|--------|--------|--------|--------|--------|
G|--------|--------|--------|--------|--------|--------|--------|--------|--------|
D|--------|--------|--------|--------|--------|--------|--------|--------|--------|
A|--------|--------|--------|--------|--------|--------|--------|--------|--------|
E|--------|--------|--------|--------|--------|--------|--------|--------|--------|


E|--------|--------|--------|--------|--------|--------|--------|--------|--------|
B|--------|--------|--------|--------|--------|--------|--------|--------|--------|
G|--------|--------|--------|--------|--------|--------|--------|--------|--------|
D|--------|--------|--------|--------|--------|--------|--------|--------|--------|
A|--------|--------|--------|--------|--------|--------|--------|--------|--------|
E|--------|--------|--------|--------|--------|--------|--------|--------|--------|


E|--------|--------|--------|--------|--------|--------|--------|--------|--------|
B|--------|--------|--------|--------|--------|--------|--------|--------|--------|
G|--------|--------|--------|--------|--------|--------|--------|--------|--------|
D|--------|--------|--------|--------|--------|--------|--------|--------|--------|
A|--------|--------|--------|--------|--------|--------|--------|--------|--------|
E|--------|--------|--------|--------|--------|--------|--------|--------|--------|


E|--------|--------|--------|--------|--------|--------|--------|--------|--------|
B|--------|--------|--------|--------|--------|--------|--------|--------|--------|
G|--------|--------|--------|--------|--------|--------|--------|--------|--------|
D|--------|--------|--------|--------|--------|--------|--------|--------|--------|
A|--------|--------|--------|--------|--------|--------|--------|--------|--------|
E|--------|--------|--------|--------|--------|--------|--------|--------|--------|


E|--------|--------|--------|--------|--------|
B|--------|--------|--------|--------|--------|
G|--------|--------|--------|--------|--------|
D|--------|--------|--------|--------|--------|
A|--------|--------|--------|--------|--------|
E|--------|--------|--------|--------|--------|





Track 3: Dave Mustaine

E|--------|--------|--------|--------|--------|--------|--------|--------|--------|
B|--------|--------|--------|--------|--------|--------|--------|--------|--------|
G|--------|--------|--------|--------|--------|--------|--------|--------|--------|
D|--------|--------|--------|--------|--------|--------|--------|--------|--------|
A|--------|--------|--------|--------|--------|--------|--------|--------|--------|
E|--------|--------|--------|--------|--------|--------|--------|--------|--------|


E|--------|--------|--------|--------|--------|--------|--------|--------|--------|
B|--------|--------|--------|--------|--------|--------|--------|--------|--------|
G|--------|--------|--------|--------|--------|--------|--------|--------|--------|
D|--------|--------|--------|--------|--------|--------|--------|--------|--------|
A|--------|--------|--------|--------|--------|--------|--------|--------|--------|
E|--------|--------|--------|--------|--------|--------|--------|--------|--------|


E|--------|---------------------------------|---------------------------------|--------|
B|--------|---------------------------------|---------------------------------|--------|
G|--------|---------------------------------|---------------------------------|--------|
D|--------|---------------------------------|---------------------------------|--------|
A|--------|-7---5---7---5---7---5---7---5---|-7---5---7---5---7---5---5---5---|--------|
E|--------|-0-------0-------0-------0-------|-0-------0-------0-------7-------|--------|


E|--------|--------|--------|--------|--------|--------|--------|--------|--------|
B|--------|--------|--------|--------|--------|--------|--------|--------|--------|
G|--------|--------|--------|--------|--------|--------|--------|--------|--------|
D|--------|--------|--------|--------|--------|--------|--------|--------|--------|
A|--------|--------|--------|--------|--------|--------|--------|--------|--------|
E|--------|--------|--------|--------|--------|--------|--------|--------|--------|


E|--------|--------|--------|--------|--------|--------|--------|--------|--------|
B|--------|--------|--------|--------|--------|--------|--------|--------|--------|
G|--------|--------|--------|--------|--------|--------|--------|--------|--------|
D|--------|--------|--------|--------|--------|--------|--------|--------|--------|
A|--------|--------|--------|--------|--------|--------|--------|--------|--------|
E|--------|--------|--------|--------|--------|--------|--------|--------|--------|


E|--------|--------|--------|--------|--------|--------|--------|--------|--------|
B|--------|--------|--------|--------|--------|--------|--------|--------|--------|
G|--------|--------|--------|--------|--------|--------|--------|--------|--------|
D|--------|--------|--------|--------|--------|--------|--------|--------|--------|
A|--------|--------|--------|--------|--------|--------|--------|--------|--------|
E|--------|--------|--------|--------|--------|--------|--------|--------|--------|


E|--------|--------|--------|--------|--------|--------|--------|--------|--------|
B|--------|--------|--------|--------|--------|--------|--------|--------|--------|
G|--------|--------|--------|--------|--------|--------|--------|--------|--------|
D|--------|--------|--------|--------|--------|--------|--------|--------|--------|
A|--------|--------|--------|--------|--------|--------|--------|--------|--------|
E|--------|--------|--------|--------|--------|--------|--------|--------|--------|


E|--------|--------|--------|--------|--------|--------|--------|--------|--------|
B|--------|--------|--------|--------|--------|--------|--------|--------|--------|
G|--------|--------|--------|--------|--------|--------|--------|--------|--------|
D|--------|--------|--------|--------|--------|--------|--------|--------|--------|
A|--------|--------|--------|--------|--------|--------|--------|--------|--------|
E|--------|--------|--------|--------|--------|--------|--------|--------|--------|


E|--------|--------|--------|--------|--------|--------|--------|--------|--------|
B|--------|--------|--------|--------|--------|--------|--------|--------|--------|
G|--------|--------|--------|--------|--------|--------|--------|--------|--------|
D|--------|--------|--------|--------|--------|--------|--------|--------|--------|
A|--------|--------|--------|--------|--------|--------|--------|--------|--------|
E|--------|--------|--------|--------|--------|--------|--------|--------|--------|


E|--------|--------|--------|--------|--------|--------|--------|--------|--------|
B|--------|--------|--------|--------|--------|--------|--------|--------|--------|
G|--------|--------|--------|--------|--------|--------|--------|--------|--------|
D|--------|--------|--------|--------|--------|--------|--------|--------|--------|
A|--------|--------|--------|--------|--------|--------|--------|--------|--------|
E|--------|--------|--------|--------|--------|--------|--------|--------|--------|


E|--------|--------|--------|--------|--------|--------|--------|--------|--------|
B|--------|--------|--------|--------|--------|--------|--------|--------|--------|
G|--------|--------|--------|--------|--------|--------|--------|--------|--------|
D|--------|--------|--------|--------|--------|--------|--------|--------|--------|
A|--------|--------|--------|--------|--------|--------|--------|--------|--------|
E|--------|--------|--------|--------|--------|--------|--------|--------|--------|


E|--------|--------|--------|--------|--------|--------|--------|--------|--------|
B|--------|--------|--------|--------|--------|--------|--------|--------|--------|
G|--------|--------|--------|--------|--------|--------|--------|--------|--------|
D|--------|--------|--------|--------|--------|--------|--------|--------|--------|
A|--------|--------|--------|--------|--------|--------|--------|--------|--------|
E|--------|--------|--------|--------|--------|--------|--------|--------|--------|


E|--------|--------|--------|--------|--------|--------|--------|--------|--------|
B|--------|--------|--------|--------|--------|--------|--------|--------|--------|
G|--------|--------|--------|--------|--------|--------|--------|--------|--------|
D|--------|--------|--------|--------|--------|--------|--------|--------|--------|
A|--------|--------|--------|--------|--------|--------|--------|--------|--------|
E|--------|--------|--------|--------|--------|--------|--------|--------|--------|


E|--------|--------|--------|--------|--------|--------|--------|--------|--------|
B|--------|--------|--------|--------|--------|--------|--------|--------|--------|
G|--------|--------|--------|--------|--------|--------|--------|--------|--------|
D|--------|--------|--------|--------|--------|--------|--------|--------|--------|
A|--------|--------|--------|--------|--------|--------|--------|--------|--------|
E|--------|--------|--------|--------|--------|--------|--------|--------|--------|


E|--------|--------|--------|--------|--------|--------|--------|--------|--------|
B|--------|--------|--------|--------|--------|--------|--------|--------|--------|
G|--------|--------|--------|--------|--------|--------|--------|--------|--------|
D|--------|--------|--------|--------|--------|--------|--------|--------|--------|
A|--------|--------|--------|--------|--------|--------|--------|--------|--------|
E|--------|--------|--------|--------|--------|--------|--------|--------|--------|


E|--------|--------|--------|--------|--------|--------|--------|--------|--------|
B|--------|--------|--------|--------|--------|--------|--------|--------|--------|
G|--------|--------|--------|--------|--------|--------|--------|--------|--------|
D|--------|--------|--------|--------|--------|--------|--------|--------|--------|
A|--------|--------|--------|--------|--------|--------|--------|--------|--------|
E|--------|--------|--------|--------|--------|--------|--------|--------|--------|


E|--------|--------|--------|--------|--------|--------|--------|--------|--------|
B|--------|--------|--------|--------|--------|--------|--------|--------|--------|
G|--------|--------|--------|--------|--------|--------|--------|--------|--------|
D|--------|--------|--------|--------|--------|--------|--------|--------|--------|
A|--------|--------|--------|--------|--------|--------|--------|--------|--------|
E|--------|--------|--------|--------|--------|--------|--------|--------|--------|


E|--------|--------|--------|--------|--------|--------|--------|--------|--------|
B|--------|--------|--------|--------|--------|--------|--------|--------|--------|
G|--------|--------|--------|--------|--------|--------|--------|--------|--------|
D|--------|--------|--------|--------|--------|--------|--------|--------|--------|
A|--------|--------|--------|--------|--------|--------|--------|--------|--------|
E|--------|--------|--------|--------|--------|--------|--------|--------|--------|


E|--------|--------|--------|--------|--------|--------|--------|--------|--------|
B|--------|--------|--------|--------|--------|--------|--------|--------|--------|
G|--------|--------|--------|--------|--------|--------|--------|--------|--------|
D|--------|--------|--------|--------|--------|--------|--------|--------|--------|
A|--------|--------|--------|--------|--------|--------|--------|--------|--------|
E|--------|--------|--------|--------|--------|--------|--------|--------|--------|


E|--------|--------|--------|--------|--------|--------|--------|--------|--------|
B|--------|--------|--------|--------|--------|--------|--------|--------|--------|
G|--------|--------|--------|--------|--------|--------|--------|--------|--------|
D|--------|--------|--------|--------|--------|--------|--------|--------|--------|
A|--------|--------|--------|--------|--------|--------|--------|--------|--------|
E|--------|--------|--------|--------|--------|--------|--------|--------|--------|


E|--------|--------|--------|--------|--------|--------|--------|--------|--------|
B|--------|--------|--------|--------|--------|--------|--------|--------|--------|
G|--------|--------|--------|--------|--------|--------|--------|--------|--------|
D|--------|--------|--------|--------|--------|--------|--------|--------|--------|
A|--------|--------|--------|--------|--------|--------|--------|--------|--------|
E|--------|--------|--------|--------|--------|--------|--------|--------|--------|


E|--------|--------|--------|--------|--------|--------|--------|--------|--------|
B|--------|--------|--------|--------|--------|--------|--------|--------|--------|
G|--------|--------|--------|--------|--------|--------|--------|--------|--------|
D|--------|--------|--------|--------|--------|--------|--------|--------|--------|
A|--------|--------|--------|--------|--------|--------|--------|--------|--------|
E|--------|--------|--------|--------|--------|--------|--------|--------|--------|


E|--------|--------|--------|--------|--------|--------|--------|--------|--------|
B|--------|--------|--------|--------|--------|--------|--------|--------|--------|
G|--------|--------|--------|--------|--------|--------|--------|--------|--------|
D|--------|--------|--------|--------|--------|--------|--------|--------|--------|
A|--------|--------|--------|--------|--------|--------|--------|--------|--------|
E|--------|--------|--------|--------|--------|--------|--------|--------|--------|


E|--------|--------|--------|--------|--------|--------|--------|--------|--------|
B|--------|--------|--------|--------|--------|--------|--------|--------|--------|
G|--------|--------|--------|--------|--------|--------|--------|--------|--------|
D|--------|--------|--------|--------|--------|--------|--------|--------|--------|
A|--------|--------|--------|--------|--------|--------|--------|--------|--------|
E|--------|--------|--------|--------|--------|--------|--------|--------|--------|


E|--------|--------|--------|--------|--------|--------|--------|--------|--------|
B|--------|--------|--------|--------|--------|--------|--------|--------|--------|
G|--------|--------|--------|--------|--------|--------|--------|--------|--------|
D|--------|--------|--------|--------|--------|--------|--------|--------|--------|
A|--------|--------|--------|--------|--------|--------|--------|--------|--------|
E|--------|--------|--------|--------|--------|--------|--------|--------|--------|


E|--------|--------|--------|--------|--------|--------|--------|--------|--------|
B|--------|--------|--------|--------|--------|--------|--------|--------|--------|
G|--------|--------|--------|--------|--------|--------|--------|--------|--------|
D|--------|--------|--------|--------|--------|--------|--------|--------|--------|
A|--------|--------|--------|--------|--------|--------|--------|--------|--------|
E|--------|--------|--------|--------|--------|--------|--------|--------|--------|


E|--------|--------|--------|--------|--------|--------|--------|--------|--------|
B|--------|--------|--------|--------|--------|--------|--------|--------|--------|
G|--------|--------|--------|--------|--------|--------|--------|--------|--------|
D|--------|--------|--------|--------|--------|--------|--------|--------|--------|
A|--------|--------|--------|--------|--------|--------|--------|--------|--------|
E|--------|--------|--------|--------|--------|--------|--------|--------|--------|


E|--------|--------|--------|--------|--------|--------|--------|--------|--------|
B|--------|--------|--------|--------|--------|--------|--------|--------|--------|
G|--------|--------|--------|--------|--------|--------|--------|--------|--------|
D|--------|--------|--------|--------|--------|--------|--------|--------|--------|
A|--------|--------|--------|--------|--------|--------|--------|--------|--------|
E|--------|--------|--------|--------|--------|--------|--------|--------|--------|


E|--------|--------|--------|--------|--------|--------|--------|--------|--------|
B|--------|--------|--------|--------|--------|--------|--------|--------|--------|
G|--------|--------|--------|--------|--------|--------|--------|--------|--------|
D|--------|--------|--------|--------|--------|--------|--------|--------|--------|
A|--------|--------|--------|--------|--------|--------|--------|--------|--------|
E|--------|--------|--------|--------|--------|--------|--------|--------|--------|


E|--------|--------|--------|--------|--------|--------|
B|--------|--------|--------|--------|--------|--------|
G|--------|--------|--------|--------|--------|--------|
D|--------|--------|--------|--------|--------|--------|
A|--------|--------|--------|--------|--------|--------|
E|--------|--------|--------|--------|--------|--------|





Track 4: Dave Mustaine - Solo

E|--------|--------|--------|--------|--------|--------|--------|--------|--------|
B|--------|--------|--------|--------|--------|--------|--------|--------|--------|
G|--------|--------|--------|--------|--------|--------|--------|--------|--------|
D|--------|--------|--------|--------|--------|--------|--------|--------|--------|
A|--------|--------|--------|--------|--------|--------|--------|--------|--------|
E|--------|--------|--------|--------|--------|--------|--------|--------|--------|


E|--------|--------|--------|--------|--------|--------|--------|--------|--------|
B|--------|--------|--------|--------|--------|--------|--------|--------|--------|
G|--------|--------|--------|--------|--------|--------|--------|--------|--------|
D|--------|--------|--------|--------|--------|--------|--------|--------|--------|
A|--------|--------|--------|--------|--------|--------|--------|--------|--------|
E|--------|--------|--------|--------|--------|--------|--------|--------|--------|


E|--------|--------|--------|--------|--------|--------|--------|--------|--------|
B|--------|--------|--------|--------|--------|--------|--------|--------|--------|
G|--------|--------|--------|--------|--------|--------|--------|--------|--------|
D|--------|--------|--------|--------|--------|--------|--------|--------|--------|
A|--------|--------|--------|--------|--------|--------|--------|--------|--------|
E|--------|--------|--------|--------|--------|--------|--------|--------|--------|


E|--------|--------|--------|--------|--------|--------|--------|--------|--------|
B|--------|--------|--------|--------|--------|--------|--------|--------|--------|
G|--------|--------|--------|--------|--------|--------|--------|--------|--------|
D|--------|--------|--------|--------|--------|--------|--------|--------|--------|
A|--------|--------|--------|--------|--------|--------|--------|--------|--------|
E|--------|--------|--------|--------|--------|--------|--------|--------|--------|


E|--------|--------|--------|--------|--------|--------|--------|--------|--------|
B|--------|--------|--------|--------|--------|--------|--------|--------|--------|
G|--------|--------|--------|--------|--------|--------|--------|--------|--------|
D|--------|--------|--------|--------|--------|--------|--------|--------|--------|
A|--------|--------|--------|--------|--------|--------|--------|--------|--------|
E|--------|--------|--------|--------|--------|--------|--------|--------|--------|


E|--------|--------|--------|--------|--------|--------|--------|--------|--------|
B|--------|--------|--------|--------|--------|--------|--------|--------|--------|
G|--------|--------|--------|--------|--------|--------|--------|--------|--------|
D|--------|--------|--------|--------|--------|--------|--------|--------|--------|
A|--------|--------|--------|--------|--------|--------|--------|--------|--------|
E|--------|--------|--------|--------|--------|--------|--------|--------|--------|


E|--------|--------|--------|--------|--------|--------|--------|--------|--------|
B|--------|--------|--------|--------|--------|--------|--------|--------|--------|
G|--------|--------|--------|--------|--------|--------|--------|--------|--------|
D|--------|--------|--------|--------|--------|--------|--------|--------|--------|
A|--------|--------|--------|--------|--------|--------|--------|--------|--------|
E|--------|--------|--------|--------|--------|--------|--------|--------|--------|


E|--------|--------|--------|--------|--------|--------|--------|--------|--------|
B|--------|--------|--------|--------|--------|--------|--------|--------|--------|
G|--------|--------|--------|--------|--------|--------|--------|--------|--------|
D|--------|--------|--------|--------|--------|--------|--------|--------|--------|
A|--------|--------|--------|--------|--------|--------|--------|--------|--------|
E|--------|--------|--------|--------|--------|--------|--------|--------|--------|


E|--------|--------|--------|--------|--------|--------|--------|--------|--------|
B|--------|--------|--------|--------|--------|--------|--------|--------|--------|
G|--------|--------|--------|--------|--------|--------|--------|--------|--------|
D|--------|--------|--------|--------|--------|--------|--------|--------|--------|
A|--------|--------|--------|--------|--------|--------|--------|--------|--------|
E|--------|--------|--------|--------|--------|--------|--------|--------|--------|


E|--------|--------|--------|--------|--------|--------|--------|--------|--------|
B|--------|--------|--------|--------|--------|--------|--------|--------|--------|
G|--------|--------|--------|--------|--------|--------|--------|--------|--------|
D|--------|--------|--------|--------|--------|--------|--------|--------|--------|
A|--------|--------|--------|--------|--------|--------|--------|--------|--------|
E|--------|--------|--------|--------|--------|--------|--------|--------|--------|


E|--------|--------|--------|--------|--------|--------|--------|--------|--------|
B|--------|--------|--------|--------|--------|--------|--------|--------|--------|
G|--------|--------|--------|--------|--------|--------|--------|--------|--------|
D|--------|--------|--------|--------|--------|--------|--------|--------|--------|
A|--------|--------|--------|--------|--------|--------|--------|--------|--------|
E|--------|--------|--------|--------|--------|--------|--------|--------|--------|


E|--------|--------|--------|--------|--------|--------|--------|--------|--------|
B|--------|--------|--------|--------|--------|--------|--------|--------|--------|
G|--------|--------|--------|--------|--------|--------|--------|--------|--------|
D|--------|--------|--------|--------|--------|--------|--------|--------|--------|
A|--------|--------|--------|--------|--------|--------|--------|--------|--------|
E|--------|--------|--------|--------|--------|--------|--------|--------|--------|


E|--------|--------|--------|--------|--------|--------|--------|--------|--------|
B|--------|--------|--------|--------|--------|--------|--------|--------|--------|
G|--------|--------|--------|--------|--------|--------|--------|--------|--------|
D|--------|--------|--------|--------|--------|--------|--------|--------|--------|
A|--------|--------|--------|--------|--------|--------|--------|--------|--------|
E|--------|--------|--------|--------|--------|--------|--------|--------|--------|


E|--------|--------|--------|--------|--------|--------|--------|--------|--------|
B|--------|--------|--------|--------|--------|--------|--------|--------|--------|
G|--------|--------|--------|--------|--------|--------|--------|--------|--------|
D|--------|--------|--------|--------|--------|--------|--------|--------|--------|
A|--------|--------|--------|--------|--------|--------|--------|--------|--------|
E|--------|--------|--------|--------|--------|--------|--------|--------|--------|


E|--------|--------|--------|--------|--------|--------|--------|--------|--------|
B|--------|--------|--------|--------|--------|--------|--------|--------|--------|
G|--------|--------|--------|--------|--------|--------|--------|--------|--------|
D|--------|--------|--------|--------|--------|--------|--------|--------|--------|
A|--------|--------|--------|--------|--------|--------|--------|--------|--------|
E|--------|--------|--------|--------|--------|--------|--------|--------|--------|


E|--------|--------|--------|--------|--------|--------|--------|--------|--------|
B|--------|--------|--------|--------|--------|--------|--------|--------|--------|
G|--------|--------|--------|--------|--------|--------|--------|--------|--------|
D|--------|--------|--------|--------|--------|--------|--------|--------|--------|
A|--------|--------|--------|--------|--------|--------|--------|--------|--------|
E|--------|--------|--------|--------|--------|--------|--------|--------|--------|


E|--------|--------|--------|--------|--------|--------|--------|--------|--------|
B|--------|--------|--------|--------|--------|--------|--------|--------|--------|
G|--------|--------|--------|--------|--------|--------|--------|--------|--------|
D|--------|--------|--------|--------|--------|--------|--------|--------|--------|
A|--------|--------|--------|--------|--------|--------|--------|--------|--------|
E|--------|--------|--------|--------|--------|--------|--------|--------|--------|


E|--------|--------|--------|--------|--------|--------|--------|--------|--------|
B|--------|--------|--------|--------|--------|--------|--------|--------|--------|
G|--------|--------|--------|--------|--------|--------|--------|--------|--------|
D|--------|--------|--------|--------|--------|--------|--------|--------|--------|
A|--------|--------|--------|--------|--------|--------|--------|--------|--------|
E|--------|--------|--------|--------|--------|--------|--------|--------|--------|


E|--------|--------|--------|--------|--------|--------|--------|--------|--------|
B|--------|--------|--------|--------|--------|--------|--------|--------|--------|
G|--------|--------|--------|--------|--------|--------|--------|--------|--------|
D|--------|--------|--------|--------|--------|--------|--------|--------|--------|
A|--------|--------|--------|--------|--------|--------|--------|--------|--------|
E|--------|--------|--------|--------|--------|--------|--------|--------|--------|


E|--------|--------|--------|--------|--------|--------|--------|--------|--------|
B|--------|--------|--------|--------|--------|--------|--------|--------|--------|
G|--------|--------|--------|--------|--------|--------|--------|--------|--------|
D|--------|--------|--------|--------|--------|--------|--------|--------|--------|
A|--------|--------|--------|--------|--------|--------|--------|--------|--------|
E|--------|--------|--------|--------|--------|--------|--------|--------|--------|


E|--------|--------|--------|--------|--------|--------|--------|--------|--------|
B|--------|--------|--------|--------|--------|--------|--------|--------|--------|
G|--------|--------|--------|--------|--------|--------|--------|--------|--------|
D|--------|--------|--------|--------|--------|--------|--------|--------|--------|
A|--------|--------|--------|--------|--------|--------|--------|--------|--------|
E|--------|--------|--------|--------|--------|--------|--------|--------|--------|


E|--------|--------|--------|--------|--------|--------|--------|--------|--------|
B|--------|--------|--------|--------|--------|--------|--------|--------|--------|
G|--------|--------|--------|--------|--------|--------|--------|--------|--------|
D|--------|--------|--------|--------|--------|--------|--------|--------|--------|
A|--------|--------|--------|--------|--------|--------|--------|--------|--------|
E|--------|--------|--------|--------|--------|--------|--------|--------|--------|


E|--------|--------|--------|--------|--------|--------|--------|--------|--------|
B|--------|--------|--------|--------|--------|--------|--------|--------|--------|
G|--------|--------|--------|--------|--------|--------|--------|--------|--------|
D|--------|--------|--------|--------|--------|--------|--------|--------|--------|
A|--------|--------|--------|--------|--------|--------|--------|--------|--------|
E|--------|--------|--------|--------|--------|--------|--------|--------|--------|


E|--------|--------|--------|--------|--------|--------|--------|--------|--------|
B|--------|--------|--------|--------|--------|--------|--------|--------|--------|
G|--------|--------|--------|--------|--------|--------|--------|--------|--------|
D|--------|--------|--------|--------|--------|--------|--------|--------|--------|
A|--------|--------|--------|--------|--------|--------|--------|--------|--------|
E|--------|--------|--------|--------|--------|--------|--------|--------|--------|


E|--------|--------|--------|--------|--------|--------|-------------------------------|
B|--------|--------|--------|--------|--------|--------|-------------------------------|
G|--------|--------|--------|--------|--------|--------|--------------------------14---|
D|--------|--------|--------|--------|--------|--------|-----------14--------13--------|
A|--------|--------|--------|--------|--------|--------|------13--------12-------------|
E|--------|--------|--------|--------|--------|--------|-12----------------------------|


E|--------------------------14---|-15--12------15--17--12--15--12------------------|
B|-----------14--------13--------|---------15----------------------15--17--12--15--|
G|------13--------12-------------|-------------------------------------------------|
D|-12----------------------------|-------------------------------------------------|
A|-------------------------------|-------------------------------------------------|
E|-------------------------------|-------------------------------------------------|


E|-12--15--12--15--17--12--15--12--------------12--|-15--12--15--17--15--12--------------------------|
B|---------------------------------15--17--12------|-------------------------17--15--12--17--15--12--|
G|-------------------------------------------------|-------------------------------------------------|
D|-------------------------------------------------|-------------------------------------------------|
A|-------------------------------------------------|-------------------------------------------------|
E|-------------------------------------------------|-------------------------------------------------|


E|-------------------------------------------------|-------------------------------------------------|
B|-15--17--15--12----------------------------------|---------15--12----------------------------------|
G|-----------------16--15--15--14--12------12--14--|-15--16----------16--15--14--12--14--15--14--12--|
D|-------------------------------------14----------|-------------------------------------------------|
A|-------------------------------------------------|-------------------------------------------------|
E|-------------------------------------------------|-------------------------------------------------|


E|-------------------------------------------------|------12---------------12----------|
B|-------------------------------------------------|----------15--12-----------15--12--|
G|-----12------------------------------------------|-14---------------14---------------|
D|-14------14--13--12--14--13--12------------------|-----------------------------------|
A|---------------------------------14--13--12--13--|-----------------------------------|
E|-------------------------------------------------|-----------------------------------|


E|------12---------------12----------|------12---------------12----------|------12--------------------------|
B|----------15--12-----------15--12--|----------15--12-----------15--12--|----------15--12------------------|
G|-14---------------14---------------|-14---------------14---------------|-14---------------15--12--14--12--|
D|-----------------------------------|-----------------------------------|----------------------------------|
A|-----------------------------------|-----------------------------------|----------------------------------|
E|-----------------------------------|-----------------------------------|----------------------------------|


E|-------------------------------------------------|---------------------------------------------|
B|-------------------------12----------------------|---------------------------------------------|
G|-----12--14--12--14--15------12--14--15--14--12--|---------------------------------------------|
D|-14----------------------------------------------|-14--12------12--14--14--14--12------12------|
A|-------------------------------------------------|---------14----------------------14------14--|
E|-------------------------------------------------|---------------------------------------------|


E|-----------------------------------|-24--22--19--19--19--19--24--22--19--19--19--19--|
B|-----------------------------------|-------------------------------------------------|
G|-----------------------------------|-------------------------------------------------|
D|-----------------------------------|-------------------------------------------------|
A|-13--12--13--14--13--12------------|-------------------------------------------------|
E|-------------------------15--12----|-------------------------------------------------|


E|-24--22--19--19--19--19--24--22--19-------|-19--22--24-------19--22--24--22--19--19--|
B|-------------------------------------22---|-------------22---------------------------|
G|------------------------------------------|------------------------------------------|
D|------------------------------------------|------------------------------------------|
A|------------------------------------------|------------------------------------------|
E|------------------------------------------|------------------------------------------|


E|-24--22--19-------19--22--24--22--19--|------19--22--24--22--19-------|-19--19--24--22--19-------19--22--|
B|-------------22-----------------------|-22-----------------------22---|---------------------22-----------|
G|--------------------------------------|-------------------------------|----------------------------------|
D|--------------------------------------|-------------------------------|----------------------------------|
A|--------------------------------------|-------------------------------|----------------------------------|
E|--------------------------------------|-------------------------------|----------------------------------|


E|------15--12------12--15--12--15--12--12--|-15--12--12--12--15--12--17--12------12--17--12--|
B|-17-----------12--------------------------|---------------------------------15--------------|
G|------------------------------------------|-------------------------------------------------|
D|------------------------------------------|-------------------------------------------------|
A|------------------------------------------|-------------------------------------------------|
E|------------------------------------------|-------------------------------------------------|


E|-15--12------------------------------------------|-------------------------------------------------|
B|---------15--12------15--12--15--12----------15--|-12--15--12------12--15--12--17--12------12--17--|
G|-----------------15------------------15--14------|-------------15----------------------15----------|
D|-------------------------------------------------|-------------------------------------------------|
A|-------------------------------------------------|-------------------------------------------------|
E|-------------------------------------------------|-------------------------------------------------|


E|-------------------------------------------------|-------------------------12--12--15--12--15--12--|
B|-12------12--15--12--17--12------12--17--12--15--|-12------15--12--12--15--------------------------|
G|-----15----------------------15------------------|-----15------------------------------------------|
D|-------------------------------------------------|-------------------------------------------------|
A|-------------------------------------------------|-------------------------------------------------|
E|-------------------------------------------------|-------------------------------------------------|


E|-17--15--12--18----------13--15--17--18--17--15--|-15--17--15------17--18--20--18--17-------|
B|-----------------15--17--------------------------|-------------15----------------------20---|
G|-------------------------------------------------|------------------------------------------|
D|-------------------------------------------------|------------------------------------------|
A|-------------------------------------------------|------------------------------------------|
E|-------------------------------------------------|------------------------------------------|


E|-20--------------20--22--20--18------18--22--|-22---22--22--22--22--22--22--|-24----24--24--24--24--|
B|-----17--20--18------------------20----------|------------------------------|-----------------------|
G|---------------------------------------------|------------------------------|-----------------------|
D|---------------------------------------------|------------------------------|-----------------------|
A|---------------------------------------------|------------------------------|-----------------------|
E|---------------------------------------------|------------------------------|-----------------------|


E|-24----24--24----24--|-24--24--24--24--24--24--24---|--------|--------|--------|
B|---------------------|------------------------------|--------|--------|--------|
G|---------------------|------------------------------|--------|--------|--------|
D|---------------------|------------------------------|--------|--------|--------|
A|---------------------|------------------------------|--------|--------|--------|
E|---------------------|------------------------------|--------|--------|--------|


E|--------|--------|--------|
B|--------|--------|--------|
G|--------|--------|--------|
D|--------|--------|--------|
A|--------|--------|--------|
E|--------|--------|--------|





Track 5: Untitled

G|--------|--------|--------|--------|--------|--------|--------|--------|--------|
D|--------|--------|--------|--------|--------|--------|--------|--------|--------|
A|--------|--------|--------|--------|--------|--------|--------|--------|--------|
E|--------|--------|--------|--------|--------|--------|--------|--------|--------|


G|--------|--------|--------|--------|--------|--------|--------|--------|--------|
D|--------|--------|--------|--------|--------|--------|--------|--------|--------|
A|--------|--------|--------|--------|--------|--------|--------|--------|--------|
E|--------|--------|--------|--------|--------|--------|--------|--------|--------|


G|--------|--------|--------|--------|--------|--------|--------|--------|--------|
D|--------|--------|--------|--------|--------|--------|--------|--------|--------|
A|--------|--------|--------|--------|--------|--------|--------|--------|--------|
E|--------|--------|--------|--------|--------|--------|--------|--------|--------|


G|--------|--------|--------|--------|--------|--------|--------|--------|--------|
D|--------|--------|--------|--------|--------|--------|--------|--------|--------|
A|--------|--------|--------|--------|--------|--------|--------|--------|--------|
E|--------|--------|--------|--------|--------|--------|--------|--------|--------|


G|--------|--------|--------|--------|--------|--------|--------|--------|--------|
D|--------|--------|--------|--------|--------|--------|--------|--------|--------|
A|--------|--------|--------|--------|--------|--------|--------|--------|--------|
E|--------|--------|--------|--------|--------|--------|--------|--------|--------|


G|--------|--------|--------|--------|--------|--------|--------|--------|--------|
D|--------|--------|--------|--------|--------|--------|--------|--------|--------|
A|--------|--------|--------|--------|--------|--------|--------|--------|--------|
E|--------|--------|--------|--------|--------|--------|--------|--------|--------|


G|--------|--------|--------|--------|--------|--------|--------|--------|--------|
D|--------|--------|--------|--------|--------|--------|--------|--------|--------|
A|--------|--------|--------|--------|--------|--------|--------|--------|--------|
E|--------|--------|--------|--------|--------|--------|--------|--------|--------|


G|--------|--------|--------|--------|--------|--------|--------|--------|--------|
D|--------|--------|--------|--------|--------|--------|--------|--------|--------|
A|--------|--------|--------|--------|--------|--------|--------|--------|--------|
E|--------|--------|--------|--------|--------|--------|--------|--------|--------|


G|--------|--------|--------|--------|--------|--------|--------|--------|--------|
D|--------|--------|--------|--------|--------|--------|--------|--------|--------|
A|--------|--------|--------|--------|--------|--------|--------|--------|--------|
E|--------|--------|--------|--------|--------|--------|--------|--------|--------|


G|--------|--------|--------|--------|--------|--------|--------|--------|--------|
D|--------|--------|--------|--------|--------|--------|--------|--------|--------|
A|--------|--------|--------|--------|--------|--------|--------|--------|--------|
E|--------|--------|--------|--------|--------|--------|--------|--------|--------|


G|--------|--------|--------|--------|--------|--------|--------|--------|--------|
D|--------|--------|--------|--------|--------|--------|--------|--------|--------|
A|--------|--------|--------|--------|--------|--------|--------|--------|--------|
E|--------|--------|--------|--------|--------|--------|--------|--------|--------|


G|--------|--------|--------|--------|--------|--------|--------|--------|--------|
D|--------|--------|--------|--------|--------|--------|--------|--------|--------|
A|--------|--------|--------|--------|--------|--------|--------|--------|--------|
E|--------|--------|--------|--------|--------|--------|--------|--------|--------|


G|--------|--------|--------|--------|--------|--------|--------|--------|--------|
D|--------|--------|--------|--------|--------|--------|--------|--------|--------|
A|--------|--------|--------|--------|--------|--------|--------|--------|--------|
E|--------|--------|--------|--------|--------|--------|--------|--------|--------|


G|--------|--------|--------|--------|--------|--------|--------|--------|--------|
D|--------|--------|--------|--------|--------|--------|--------|--------|--------|
A|--------|--------|--------|--------|--------|--------|--------|--------|--------|
E|--------|--------|--------|--------|--------|--------|--------|--------|--------|


G|--------|--------|--------|--------|--------|--------|--------|--------|--------|
D|--------|--------|--------|--------|--------|--------|--------|--------|--------|
A|--------|--------|--------|--------|--------|--------|--------|--------|--------|
E|--------|--------|--------|--------|--------|--------|--------|--------|--------|


G|--------|--------|--------|--------|--------|--------|--------|--------|--------|
D|--------|--------|--------|--------|--------|--------|--------|--------|--------|
A|--------|--------|--------|--------|--------|--------|--------|--------|--------|
E|--------|--------|--------|--------|--------|--------|--------|--------|--------|


G|--------|--------|--------|--------|--------|--------|--------|--------|--------|
D|--------|--------|--------|--------|--------|--------|--------|--------|--------|
A|--------|--------|--------|--------|--------|--------|--------|--------|--------|
E|--------|--------|--------|--------|--------|--------|--------|--------|--------|


G|--------|--------|--------|--------|--------|--------|--------|--------|--------|
D|--------|--------|--------|--------|--------|--------|--------|--------|--------|
A|--------|--------|--------|--------|--------|--------|--------|--------|--------|
E|--------|--------|--------|--------|--------|--------|--------|--------|--------|


G|--------|--------|--------|--------|--------|--------|--------|--------|--------|
D|--------|--------|--------|--------|--------|--------|--------|--------|--------|
A|--------|--------|--------|--------|--------|--------|--------|--------|--------|
E|--------|--------|--------|--------|--------|--------|--------|--------|--------|


G|--------|--------|--------|--------|--------|--------|--------|--------|--------|
D|--------|--------|--------|--------|--------|--------|--------|--------|--------|
A|--------|--------|--------|--------|--------|--------|--------|--------|--------|
E|--------|--------|--------|--------|--------|--------|--------|--------|--------|


G|--------|--------|--------|--------|--------|--------|--------|--------|--------|
D|--------|--------|--------|--------|--------|--------|--------|--------|--------|
A|--------|--------|--------|--------|--------|--------|--------|--------|--------|
E|--------|--------|--------|--------|--------|--------|--------|--------|--------|


G|--------|--------|--------|--------|--------|--------|--------|--------|--------|
D|--------|--------|--------|--------|--------|--------|--------|--------|--------|
A|--------|--------|--------|--------|--------|--------|--------|--------|--------|
E|--------|--------|--------|--------|--------|--------|--------|--------|--------|


G|--------|--------|--------|--------|--------|--------|--------|--------|--------|
D|--------|--------|--------|--------|--------|--------|--------|--------|--------|
A|--------|--------|--------|--------|--------|--------|--------|--------|--------|
E|--------|--------|--------|--------|--------|--------|--------|--------|--------|


G|--------|--------|--------|--------|--------|--------|--------|--------|--------|
D|--------|--------|--------|--------|--------|--------|--------|--------|--------|
A|--------|--------|--------|--------|--------|--------|--------|--------|--------|
E|--------|--------|--------|--------|--------|--------|--------|--------|--------|


G|--------|--------|--------|--------|--------|--------|--------|--------|--------|
D|--------|--------|--------|--------|--------|--------|--------|--------|--------|
A|--------|--------|--------|--------|--------|--------|--------|--------|--------|
E|--------|--------|--------|--------|--------|--------|--------|--------|--------|


G|--------|--------|--------|--------|--------|--------|--------|--------|--------|
D|--------|--------|--------|--------|--------|--------|--------|--------|--------|
A|--------|--------|--------|--------|--------|--------|--------|--------|--------|
E|--------|--------|--------|--------|--------|--------|--------|--------|--------|


G|--------|--------|--------|--------|--------|--------|--------|--------|--------|
D|--------|--------|--------|--------|--------|--------|--------|--------|--------|
A|--------|--------|--------|--------|--------|--------|--------|--------|--------|
E|--------|--------|--------|--------|--------|--------|--------|--------|--------|


G|--------|--------|--------|--------|--------|--------|--------|--------|--------|
D|--------|--------|--------|--------|--------|--------|--------|--------|--------|
A|--------|--------|--------|--------|--------|--------|--------|--------|--------|
E|--------|--------|--------|--------|--------|--------|--------|--------|--------|


G|--------|--------|--------|--------|--------|--------|--------|--------|--------|
D|--------|--------|--------|--------|--------|--------|--------|--------|--------|
A|--------|--------|--------|--------|--------|--------|--------|--------|--------|
E|--------|--------|--------|--------|--------|--------|--------|--------|--------|


G|--------|
D|--------|
A|--------|
E|--------|