Menu:

 

Search:

 

megadeth - lucretia:

 



Title: Lucretia
Artist: 
Album: Rust in Piece
Author: Dave Mustaine & Dave Ellefson


Track 1: Mustaine

E|-5--------4--------7-----5--------4--------7-----|-5--------4--------7-----5--------4--------7-----|
B|----5--------5--------------5--------5-----------|----5--------5--------------5--------5-----------|
G|-------6--------6-----6--------6--------6-----6--|-------6--------6-----6--------6--------6-----6--|
D|-------------------------------------------------|-------------------------------------------------|
A|-------------------------------------------------|-------------------------------------------------|
E|-------------------------------------------------|-------------------------------------------------|


E|-5--------4--------7-----5--------4--------7-----|-5--------4--------7-----5--------4--------7-----|
B|----5--------5--------------5--------5-----------|----5--------5--------------5--------5-----------|
G|-------6--------6-----6--------6--------6-----6--|-------6--------6-----6--------6--------6-----6--|
D|-------------------------------------------------|-------------------------------------------------|
A|-------------------------------------------------|-------------------------------------------------|
E|-------------------------------------------------|-------------------------------------------------|


E|-5--------4--------------------------------------|-----------------------------------------------|
B|----5--------5-----5-----------------------------|-----------------------------------------------|
G|-------6--------6-----6-----------------6-----9--|-8-----------------7---7--------------------7--|
D|-------------------------7--------6--7-----9-----|----9-----------7------------------7--8--9-----|
A|----------------------------6--7-----------------|-------9--7--9------------7--8--9--------------|
E|-------------------------------------------------|-----------------------------------------------|


E|-5--------4--------------------------------------|-----------------------------------------------|
B|----5--------5-----5-----------------------------|-----------------------------------------------|
G|-------6--------6-----6-----------------6-----9--|-8-----------------7---7-----------------------|
D|-------------------------7--------6--7-----9-----|----9-----------7------------------9--8--7-----|
A|----------------------------6--7-----------------|-------9--7--9------------7--8--9-----------9--|
E|-------------------------------------------------|-----------------------------------------------|


E|-5--------4--------------------------------------|-----------------------------------------------|
B|----5--------5-----5-----------------------------|-----------------------------------------------|
G|-------6--------6-----6-----------------6-----9--|-8-----------------7---7--------------------7--|
D|-------------------------7--------6--7-----9-----|----9-----------7------------------7--8--9-----|
A|----------------------------6--7-----------------|-------9--7--9------------7--8--9--------------|
E|-------------------------------------------------|-----------------------------------------------|


E|-5--------4--------------------------------------|-----------------------------------------------|
B|----5--------5-----5-----------------------------|-----------------------------------------------|
G|-------6--------6-----6-----------------6-----9--|-8-----------------7---7-----------------------|
D|-------------------------7--------6--7-----9-----|----9-----------7------------------9--8--7-----|
A|----------------------------6--7-----------------|-------9--7--9------------7--8--9-----------9--|
E|-------------------------------------------------|-----------------------------------------------|


E|-----------------------------------------------|-------------------------------------------|
B|-------------------------------------------2---|-------------------------------------------|
G|-------------------------------------------2---|----------------------------4--------------|
D|-------------------------4--3--2-----2--4------|----------------------------4--------------|
A|-4-----------4--------------------4------------|-4-----------4-----------4--2-------5---4--|
E|-2--2--2--2--2--2--2--2------------------------|-2--2--2--2--2--2--2--2--2-------3--3---2--|


E|-------------------------------------------------|---------------------------------------------|
B|-------------------------------------------------|---------------------------------------------|
G|-------------------------------------------------|---------------------------------------------|
D|----------------------4--3--2-----4--3--2--------|---------------------------------------------|
A|----------4--------------------4-----------4--4--|----------4---2--0--2--3--2--0--2--0--5---4--|
E|-2--2--2--2--2--2--2--------------------------2--|-2--2--2--2---------------------------3---2--|


E|-----------------------------------------------|-------------------------------------------|
B|----------------------------------------2------|-------------------------------------------|
G|----------------------------------2--4--2------|-------------------------4-----------------|
D|----------------------4--3--2-----2--4---------|-------------------------4-----------------|
A|----------4--------------------4------------4--|----------4-----------4--2-------5---4-----|
E|-2--2--2--2--2--2--2------------------------2--|-2--2--2--2--2--2--2--2-------3--3---2--2--|


E|-------------------------------------------------|---------------------------------------------|
B|-------------------------------------------------|---------------------------------------------|
G|-------------------------------4-----------------|---------------------------------------------|
D|-------------------4--3--2-----4--3--2-----------|---------------------------------------------|
A|-------4--------------------4-----------4--4-----|-------4---2--0--2--3--2--0--2--0--5---4-----|
E|-2--2--2--2--2--2--------------------------2--2--|-2--2--2---------------------------3---2--2--|


E|-----------------------------------------------|-------------------------------------------|
B|-------------------------------------2---------|-------------------------------------------|
G|-------------------------------2--4--2---------|----------------------4--------------------|
D|-------------------4--3--2-----2--4------------|----------------------4--------------------|
A|-------4--------------------4------------4-----|-------4-----------4--2-------5---4--------|
E|-2--2--2--2--2--2------------------------2--2--|-2--2--2--2--2--2--2-------3--3---2--2--2--|


E|-------------------------------------------------|---------------------------------------------|
B|-------------------------------------------------|---------------------------------------------|
G|----------------------------4--------------------|---------------------------------------------|
D|----------------4--3--2-----4--3--2--------------|---------------------------------------------|
A|----4--------------------4-----------4--4--------|----4---2--0--2--3--2--0--2--0--5---2--4--4--|
E|-2--2--2--2--2--------------------------2--2--2--|-2--2---------------------------3---0--2--2--|


E|-----------------------------------------|-----------------------------------------|
B|-----------------------------------------|-----------------------------------------|
G|-----------------------------------------|-----------------------------------------|
D|-----------------------------------------|-----------------------------------------|
A|-4------2--4--4--4------2---5---2--4--4--|-4------2--4--4--4------2---5---2--4--4--|
E|-2------0--2--2--2------0---3---0--2--2--|-2------0--2--2--2------0---3---0--2--2--|


E|-----------------------------------------|------------------------------------5--------|
B|-----------------------------------------|---------------------------------------5-----|
G|-----------------------------------------|------------------------------------------6--|
D|-----------------------------------------|--------------------4--------2---2-----------|
A|-4------2--4--4--4------2---5---2--4--4--|-4-----0--4------1--------1------------------|
E|-2------0--2--2--2------0---3---0--2--2--|-2--------2---2--------2---------------------|


E|-4--------7-----5--------4--------7-----5--------|-4--------7-----5--------4--------7-----5--------|
B|----5--------------5--------5--------------5-----|----5--------------5--------5--------------5-----|
G|-------6-----6--------6--------6-----6--------6--|-------6-----6--------6--------6-----6--------6--|
D|-------------------------------------------------|-------------------------------------------------|
A|-------------------------------------------------|-------------------------------------------------|
E|-------------------------------------------------|-------------------------------------------------|


E|-4-----------------------------------------------|--------------------------------------5--------|
B|----5-----5--------------------------------------|-----------------------------------------5-----|
G|-------6-----6-----------------6-----9--8--------|----------7---7--------------------7--------6--|
D|----------------7--------6--7-----9--------9-----|-------7------------------7--8--9--------------|
A|-------------------6--7-----------------------9--|-7--9------------7--8--9-----------------------|
E|-------------------------------------------------|-----------------------------------------------|


E|-4-----------------------------------------------|-----------------------------------------------|
B|----5-----5--------------------------------------|-----------------------------------------------|
G|-------6-----6-----------------6-----9--8--------|----------7---7--------------------------------|
D|----------------7--------6--7-----9--------9-----|-------7------------------9--8--7--------------|
A|-------------------6--7-----------------------9--|-7--9------------7--8--9-----------9--4--------|
E|-------------------------------------------------|--------------------------------------2--2--2--|


E|-----------------------------------------------|-------------------------------------------|
B|----------------------------------2------------|-------------------------------------------|
G|----------------------------------2------------|-------------------4-----------------------|
D|----------------4--3--2-----2--4---------------|-------------------4-----------------------|
A|----4--------------------4------------4--------|----4-----------4--2-------5---4-----------|
E|-2--2--2--2--2------------------------2--2--2--|-2--2--2--2--2--2-------3--3---2--2--2--2--|


E|-------------------------------------------------|---------------------------------------------|
B|-------------------------------------------------|---------------------------------------------|
G|-------------------------------------------------|---------------------------------------------|
D|-------------4--3--2-----4--3--2-----------------|---------------------------------------------|
A|-4--------------------4-----------4--4-----------|-4---2--0--2--3--2--0--2--0--5---4-----------|
E|-2--2--2--2--------------------------2--2--2--2--|-2---------------------------3---2--2--2--2--|


E|-----------------------------------------------|-------------------------------------------|
B|-------------------------------2---------------|-------------------------------------------|
G|-------------------------2--4--2---------------|----------------4--------------------------|
D|-------------4--3--2-----2--4------------------|----------------4--------------------------|
A|-4--------------------4------------4-----------|-4-----------4--2-------5---4-----------4--|
E|-2--2--2--2------------------------2--2--2--2--|-2--2--2--2--2-------3--3---2--2--2--2--2--|


E|-------------------------------------------------|-----------------------------------------------|
B|-------------------------------------------------|-----------------------------------------------|
G|----------------------4--------------------------|-----------------------------------------------|
D|----------4--3--2-----4--3--2--------------------|-----------------------------------------------|
A|-------------------4-----------4--4-----------4--|----2--0--2--3--2--0--2--0--5---4-----------4--|
E|-2--2--2--------------------------2--2--2--2--2--|----------------------------3---2--2--2--2--2--|


E|-----------------------------------------------|-------------------------------------------|
B|----------------------------2------------------|-------------------------------------------|
G|----------------------2--4--2------------------|-------------4-----------------------------|
D|----------4--3--2-----2--4---------------------|-------------4-----------------------------|
A|-------------------4------------4-----------4--|----------4--2-------5---4-----------4-----|
E|-2--2--2------------------------2--2--2--2--2--|-2--2--2--2-------3--3---2--2--2--2--2--2--|


E|-----------------------------------------------|---------------------------------------------|
B|-----------------------------------------------|---------------------------------------------|
G|-------------------4---------------------------|---------------------------------------------|
D|-------4--3--2-----4--3--2---------------------|---------------------------------------------|
A|----------------4-----------4--4-----------4---|-2--0--2--3--2--0--2--0--5---2--4--4--4------|
E|-2--2--------------------------2--2--2--2--2---|-------------------------3---0--2--2--2------|


E|-----------------------------------------|-----------------------------------------|
B|-----------------------------------------|-----------------------------------------|
G|-----------------------------------------|-----------------------------------------|
D|-----------------------------------------|-----------------------------------------|
A|-2--4--4--4------2---5---2--4--4--4------|-2--4--4--4------2---5---2--4--4--4------|
E|-0--2--2--2------0---3---0--2--2--2------|-0--2--2--2------0---3---0--2--2--2------|


E|-------------------------------------------|-------------------------------------------|
B|-------------------------------------------|-------------------------------------------|
G|-------------------------------------------|-------------------------------------------|
D|-------------------------------------------|-----------4--------2----------4--------2--|
A|-2--4--4--4------2---5---2--4--4--4-----0--|-4------1--------1----------1--------1-----|
E|-0--2--2--2------0---3---0--2--2--2--------|-2---2--------2----------2--------2--------|


E|--------------------------------------------------|--------------------------------------------------|
B|--------------------------------------------------|--------------------------------------------------|
G|--------------------------------------------------|--------------------------------------------------|
D|--------------------------------------6--------4--|--------------------------------------7--------4--|
A|-2--3--4-----3-----2-----0-2-0-----3--------3-----|-4--5--6-----5-----4-----3-4-3-----4--------4-----|
E|----------5-----4-----3---------4--------4--------|----------7-----6-----5---------5--------5--------|


E|-------------------------------------------------|-------------------------------------------------|
B|-------------------------------------------------|-------------------------------------------------|
G|-------------------------------------------------|-------------------------------------------------|
D|----------------4--------------------9--------7--|-------6-----------------------------4--------2--|
A|----4--7-----4--------4--7--5-----6--------6-----|----6--------5-----4-----3--------4--------4-----|
E|-5--------5--------5-----------7--------7--------|-7--------7-----6-----6-----5--2--------2--------|


E|---------------------------------------------|---------------------------------------------|
B|---------------------------------------------|---------------------------------------------|
G|---------------------------------------------|-------------------9--8----------7--------5--|
D|-------4--------2----------------2--------0--|-------2-----9--9--9--8-------7--------7-----|
A|----4--------4-----4--3-------2--------2-----|----2--------7--7--7--6----5--------5--------|
E|-2--------2--------2--1----0--------0--------|-0--------0--0--0----------------------------|


E|---------------------------------------------|---------------------------------------------|
B|---------------------------------------------|---------------------------------------------|
G|-------7--------5-----2----------4--------2--|-------------6-----6-------------------------|
D|----7--------7--------2-------4--------4-----|-4--4--6--6--------6--5----------4--------2--|
A|-5--------5--------5--0----2--------2--------|-2--2--4--------4--4--5-------4--------4-----|
E|---------------------------------------------|----------------------3----2--------2--------|


E|---------------------------------------------|---------------------------------------------|
B|---------------------------------------------|---------------------------------------------|
G|---------------------------------------------|-------------------9--8----------7--------5--|
D|-------4--------2----------------2--------0--|-------2-----9--9--9--8-------7--------7-----|
A|----4--------4-----4--3-------2--------2-----|----2--------7--7--7--6----5--------5--------|
E|-2--------2--------2--1----0--------0--------|-0--------0--0--0----------------------------|


E|---------------------------------------------|---------------------------------------------|
B|---------------------------------------------|---------------------------------------------|
G|-------7--------5-----2----------4--------2--|-------------6-----6-------------------------|
D|----7--------7--------2-------4--------4-----|-4--4--6--6--------6--5----------4--------2--|
A|-5--------5--------5--0----2--------2--------|-2--2--4--------4--4--5-------4--------4-----|
E|---------------------------------------------|----------------------3----2--------2--------|


E|---------------------------------------------|---------------------------------------------|
B|---------------------------------------------|---------------------------------------------|
G|---------------------------------------------|-------------------9--8----------7--------5--|
D|-------4--------2----------------2--------0--|-------2-----9--9--9--8-------7--------7-----|
A|----4--------4-----4--3-------2--------2-----|----2--------7--7--7--6----5--------5--------|
E|-2--------2--------2--1----0--------0--------|-0--------0--0--0----------------------------|


E|---------------------------------------------|---------------------------------------------|
B|---------------------------------------------|---------------------------------------------|
G|-------7--------5-----2----------4--------2--|-------------6-----6-------------------------|
D|----7--------7--------2-------4--------4-----|-4--4--6--6--------6--5----------4--------2--|
A|-5--------5--------5--0----2--------2--------|-2--2--4--------4--4--5-------4--------4-----|
E|---------------------------------------------|----------------------3----2--------2--------|


E|---------------------------------------------|---------------------------------------------|
B|---------------------------------------------|---------------------------------------------|
G|---------------------------------------------|-------------------9--8----------7--------5--|
D|-------4--------2----------------2--------0--|-------2-----9--9--9--8-------7--------7-----|
A|----4--------4-----4--3-------2--------2-----|----2--------7--7--7--6----5--------5--------|
E|-2--------2--------2--1----0--------0--------|-0--------0--0--0----------------------------|


E|---------------------------------------------|---------------------------------------------|
B|---------------------------------------------|---------------------------------------------|
G|-------7--------5-----2----------4--------2--|-------------6-----6-------------------------|
D|----7--------7--------2-------4--------4-----|-4--4--6--6--------6--5----------------------|
A|-5--------5--------5--0----2--------2--------|-2--2--4--------4--4--5----4-----------4-----|
E|---------------------------------------------|----------------------3----2--2--2--2--2--2--|


E|-----------------------------------------------|-------------------------------------------------|
B|-------------------------2---------------------|-------------------------------------------------|
G|-------------------------2---------------------|-------------------------------------------------|
D|-------4--3--2-----2--4------------------------|-------4--3--2-----4--3--2-----------------------|
A|----------------4------------4-----------4-----|----------------4-----------4--4-----------4-----|
E|-2--2------------------------2--2--2--2--2--2--|-2--2--------------------------2--2--2--2--2--2--|


E|-----------------------------------------------|-------------------------------------------|
B|-------------------------2---------------------|-------------------------------------------|
G|-------------------------2---------------------|----------4--------------------------------|
D|-------4--3--2-----2--4------------------------|----------4--------------------------------|
A|----------------4------------4-----------4-----|-------4--2-------5---4-----------4--------|
E|-2--2------------------------2--2--2--2--2--2--|-2--2--2-------3--3---2--2--2--2--2--2--2--|


E|-----------------------------------------------|-------------------------------------------------|
B|----------------------2------------------------|-------------------------------------------------|
G|----------------------2------------------------|-------------------------------------------------|
D|----4--3--2-----2--4---------------------------|----4--3--2-----4--3--2--------------------------|
A|-------------4------------4-----------4--------|-------------4-----------4--4-----------4--------|
E|-2------------------------2--2--2--2--2--2--2--|-2--------------------------2--2--2--2--2--2--2--|


E|-----------------------------------------------|-----------------------------------------------|
B|-----------------------------------------------|-----------------------------------------------|
G|----------------4------------------------------|-----------------------------------------------|
D|----4--3--2-----4--3--2------------------------|-----------------------------------------------|
A|-------------4-----------4--4-----------4---2--|-0--2--3--2--0--2--0--5---4-----------4--------|
E|-2--------------------------2--2--2--2--2------|----------------------3---2--2--2--2--2--2--2--|


E|-----------------------------------------------|-------------------------------------------------|
B|----------------------2------------------------|-------------------------------------------------|
G|----------------------2------------------------|-------------------------------------------------|
D|----4--3--2-----2--4---------------------------|----4--3--2-----4--3--2--------------------------|
A|-------------4------------4-----------4--------|-------------4-----------4--4-----------4--------|
E|-2------------------------2--2--2--2--2--2--2--|-2--------------------------2--2--2--2--2--2--2--|


E|-----------------------------------------------|-------------------------------------------|
B|----------------------2------------------------|-------------------------------------------|
G|----------------------2------------------------|-------4-----------------------------------|
D|----4--3--2-----2--4---------------------------|-------4-----------------------------------|
A|-------------4------------4-----------4--------|----4--2-------5---4-----------4-----------|
E|-2------------------------2--2--2--2--2--2--2--|-2--2-------3--3---2--2--2--2--2--2--2--2--|


E|-----------------------------------------------|-------------------------------------------------|
B|-------------------2---------------------------|-------------------------------------------------|
G|-------------------2---------------------------|-------------------------------------------------|
D|-4--3--2-----2--4------------------------------|-4--3--2-----4--3--2-----------------------------|
A|----------4------------4-----------4-----------|----------4-----------4--4-----------4-----------|
E|-----------------------2--2--2--2--2--2--2--2--|-------------------------2--2--2--2--2--2--2--2--|


E|---------------------------------------------|--------|-----------------------------|
B|-------------------2-------------------------|--------|-----------------------------|
G|-------------------2-------------------------|--------|-----------------------------|
D|-4--3--2-----2--4----------------------------|--------|-----------------------------|
A|----------4------------4-----------4---2--0--|--------|-------2--4--4--4------2--4--|
E|-----------------------2--2--2--2--2---------|--------|-------0--2--2--2------0--2--|


E|-----------------------------------------|-----------------------------------------|
B|-----------------------------------------|-----------------------------------------|
G|-----------------------------------------|-----------------------------------------|
D|-----------------------------------------|-----------------------------------------|
A|-4--4------2---5---2--4--4--4------2--4--|-4--4------2---5---2--4--4--4-----0--4---|
E|-2--2------0---3---0--2--2--2------0--2--|-2--2------0---3---0--2--2--2--------2---|


E|-----------------------------|-----------------------------------------|-----------------------------------------|
B|-----------------------------|-----------------------------------------|-----------------------------------------|
G|-----------------------------|-----------------------------------------|-----------------------------------------|
D|-----------------------------|-----------------------------------------|-----------------------------------------|
A|-------7--9------------7--9--|-----------7---10--7--9------------7--9--|-----------7---10--7--9------------7--9--|
E|-------------7--8------------|-9--10-------------------7--8------------|-9--10-------------------7--8------------|


E|-------------------------------------------|-------------------------|
B|-------------------------------------------|-------------------------|
G|-------------------------------------------|-------------------------|
D|-------------------------------------------|-------------------------|
A|-----------7---10--7--9-----9--7-----7--9--|-9------5--4-------------|
E|-9--10-------------------9--------9--------|-----0--3--2-------------|





Track 2: Solo Gtr.I (Friedman)

E|--------|--------|--------|--------|--------|--------|--------|--------|--------|
B|--------|--------|--------|--------|--------|--------|--------|--------|--------|
G|--------|--------|--------|--------|--------|--------|--------|--------|--------|
D|--------|--------|--------|--------|--------|--------|--------|--------|--------|
A|--------|--------|--------|--------|--------|--------|--------|--------|--------|
E|--------|--------|--------|--------|--------|--------|--------|--------|--------|


E|--------|--------|--------|--------|--------|--------|--------|--------|--------|
B|--------|--------|--------|--------|--------|--------|--------|--------|--------|
G|--------|--------|--------|--------|--------|--------|--------|--------|--------|
D|--------|--------|--------|--------|--------|--------|--------|--------|--------|
A|--------|--------|--------|--------|--------|--------|--------|--------|--------|
E|--------|--------|--------|--------|--------|--------|--------|--------|--------|


E|--------|--------|--------|--------|--------|--------|--------|--------|--------|
B|--------|--------|--------|--------|--------|--------|--------|--------|--------|
G|--------|--------|--------|--------|--------|--------|--------|--------|--------|
D|--------|--------|--------|--------|--------|--------|--------|--------|--------|
A|--------|--------|--------|--------|--------|--------|--------|--------|--------|
E|--------|--------|--------|--------|--------|--------|--------|--------|--------|


E|--------|--------|--------|--------|--------|--------|--------|--------|--------|
B|--------|--------|--------|--------|--------|--------|--------|--------|--------|
G|--------|--------|--------|--------|--------|--------|--------|--------|--------|
D|--------|--------|--------|--------|--------|--------|--------|--------|--------|
A|--------|--------|--------|--------|--------|--------|--------|--------|--------|
E|--------|--------|--------|--------|--------|--------|--------|--------|--------|


E|--------|--------|--------|--------|--------|--------|--------|--------|--------|
B|--------|--------|--------|--------|--------|--------|--------|--------|--------|
G|--------|--------|--------|--------|--------|--------|--------|--------|--------|
D|--------|--------|--------|--------|--------|--------|--------|--------|--------|
A|--------|--------|--------|--------|--------|--------|--------|--------|--------|
E|--------|--------|--------|--------|--------|--------|--------|--------|--------|


E|--------|--------|--------|--------|--------|--------|--------|--------|---------------------------|
B|--------|--------|--------|--------|--------|--------|--------|--------|---------------------------|
G|--------|--------|--------|--------|--------|--------|--------|--------|-----------4--6--7--6--6---|
D|--------|--------|--------|--------|--------|--------|--------|--------|---------------------------|
A|--------|--------|--------|--------|--------|--------|--------|--------|---------------------------|
E|--------|--------|--------|--------|--------|--------|--------|--------|---------------------------|


E|-------------5--9--8--5--------------------------|------------------------------------------|
B|-------7--9--------------9--7--------------------|------------------------------------------|
G|-5--6--------------------------6--5--------------|------------------------------------------|
D|-------------------------------------7--6--6--9--|-7--6--6---6--6--7-6-7-6------------7--9--|
A|-------------------------------------------------|-------------------------9--7--9----------|
E|-------------------------------------------------|------------------------------------------|


E|----------------------14-----------------|-------------------------5--2-----9--6-----|
B|------------------------1714-------------|----16-16---16-16--16-2--------2--------7--|
G|-----------14-16-------------16-14-16-16-|-14----------------------------------------|
D|--------16-------16----------------------|-------------------------------------------|
A|-9---9-----------------------------------|-------------------------------------------|
E|-----------------------------------------|-------------------------------------------|


E|----9-5-9-5----14-------------12-------------------|----------8--10-7------------------14----10-------|
B|------------7-----14-------------12----------------|-------------------8--8-7-------------12-------12-|
G|-6-------------------14-------------13-------------|-5--7--4------------------9--8--7-----------11----|
D|------------------------16-14----------14-9--------|--------------------------------------------------|
A|---------------------------------------------7--5--|--------------------------------------------------|
E|---------------------------------------------------|--------------------------------------------------|


E|----------------7--10-14-17-14--------------------------------|-------------------13-17--17-16-16----|
B|----7--------7-----------------15-----------------------12-12-|----12-12----12-15--------------------|
G|-7--------7-----------------------14-11----11--------11-------|----------13--------------------------|
D|-------9--------------------------------12-----9--12----------|--------------------------------------|
A|--------------------------------------------------------------|--------------------------------------|
E|--------------------------------------------------------------|--------------------------------------|


E|-------16--17--16--14-16----16--16-16-|-16-16-16-16--19-19---19---1918--|-----18-18-----------------------------------------|
B|-------------------------15-----------|---------------------------------|-----------19-19-19--17-19-19--1917-19-17----17-19-|
G|--------------------------------------|---------------------------------|------------------------------------------18-------|
D|--------------------------------------|---------------------------------|---------------------------------------------------|
A|--------------------------------------|---------------------------------|---------------------------------------------------|
E|--------------------------------------|---------------------------------|---------------------------------------------------|


E|---------------------------------------------14----|-------14----------------------17-17-1714---14----|
B|-161716--1617-151614--14------------------------17-|----17----17-14--------------------------17----17-|
G|-------18-----------17--171614-16--16-16--16-------|----------------16-16-14-16-14--------------------|
D|---------------------------------------------------|--------------------------------------------------|
A|---------------------------------------------------|--------------------------------------------------|
E|---------------------------------------------------|--------------------------------------------------|


E|-------------------------------------------|----------------------------14-16191614--1416--16---14|
B|-1714---14---------------------------------|----------------------14-17------------15----14---15--|
G|-----17----17-16-14-16-16-14-16-14---------|----------------14-16---------------------------------|
D|-------------------------------------16-14-|----15-15-15-16---------------------------------------|
A|-------------------------------------------|-16---------------------------------------------------|
E|-------------------------------------------|------------------------------------------------------|


E|-1914--1419-16---------------------------|--------|--------|--------|--------|--------|
B|-----15--------18-------------17---------|--------|--------|--------|--------|--------|
G|------------------19-16----14-16---------|--------|--------|--------|--------|--------|
D|------------------------18---------------|--------|--------|--------|--------|--------|
A|-----------------------------------------|--------|--------|--------|--------|--------|
E|-----------------------------------------|--------|--------|--------|--------|--------|


E|--------|--------|--------|--------|--------|--------|--------|--------|--------|
B|--------|--------|--------|--------|--------|--------|--------|--------|--------|
G|--------|--------|--------|--------|--------|--------|--------|--------|--------|
D|--------|--------|--------|--------|--------|--------|--------|--------|--------|
A|--------|--------|--------|--------|--------|--------|--------|--------|--------|
E|--------|--------|--------|--------|--------|--------|--------|--------|--------|


E|--------|--------|--------|--------|--------|--------|--------|--------|--------|
B|--------|--------|--------|--------|--------|--------|--------|--------|--------|
G|--------|--------|--------|--------|--------|--------|--------|--------|--------|
D|--------|--------|--------|--------|--------|--------|--------|--------|--------|
A|--------|--------|--------|--------|--------|--------|--------|--------|--------|
E|--------|--------|--------|--------|--------|--------|--------|--------|--------|


E|--------|
B|--------|
G|--------|
D|--------|
A|--------|
E|--------|





Track 3: Solo (Mustaine)

E|--------|--------|--------|--------|--------|--------|--------|--------|--------|
B|--------|--------|--------|--------|--------|--------|--------|--------|--------|
G|--------|--------|--------|--------|--------|--------|--------|--------|--------|
D|--------|--------|--------|--------|--------|--------|--------|--------|--------|
A|--------|--------|--------|--------|--------|--------|--------|--------|--------|
E|--------|--------|--------|--------|--------|--------|--------|--------|--------|


E|--------|--------|--------|--------|--------|--------|--------|--------|--------|
B|--------|--------|--------|--------|--------|--------|--------|--------|--------|
G|--------|--------|--------|--------|--------|--------|--------|--------|--------|
D|--------|--------|--------|--------|--------|--------|--------|--------|--------|
A|--------|--------|--------|--------|--------|--------|--------|--------|--------|
E|--------|--------|--------|--------|--------|--------|--------|--------|--------|


E|--------|--------|--------|--------|--------|--------|--------|--------|--------|
B|--------|--------|--------|--------|--------|--------|--------|--------|--------|
G|--------|--------|--------|--------|--------|--------|--------|--------|--------|
D|--------|--------|--------|--------|--------|--------|--------|--------|--------|
A|--------|--------|--------|--------|--------|--------|--------|--------|--------|
E|--------|--------|--------|--------|--------|--------|--------|--------|--------|


E|--------|--------|--------|--------|--------|--------|--------|--------|--------|
B|--------|--------|--------|--------|--------|--------|--------|--------|--------|
G|--------|--------|--------|--------|--------|--------|--------|--------|--------|
D|--------|--------|--------|--------|--------|--------|--------|--------|--------|
A|--------|--------|--------|--------|--------|--------|--------|--------|--------|
E|--------|--------|--------|--------|--------|--------|--------|--------|--------|


E|--------|--------|--------|--------|--------|--------|--------|--------|--------|
B|--------|--------|--------|--------|--------|--------|--------|--------|--------|
G|--------|--------|--------|--------|--------|--------|--------|--------|--------|
D|--------|--------|--------|--------|--------|--------|--------|--------|--------|
A|--------|--------|--------|--------|--------|--------|--------|--------|--------|
E|--------|--------|--------|--------|--------|--------|--------|--------|--------|


E|--------|--------|--------|--------|--------|--------|--------|--------|--------|
B|--------|--------|--------|--------|--------|--------|--------|--------|--------|
G|--------|--------|--------|--------|--------|--------|--------|--------|--------|
D|--------|--------|--------|--------|--------|--------|--------|--------|--------|
A|--------|--------|--------|--------|--------|--------|--------|--------|--------|
E|--------|--------|--------|--------|--------|--------|--------|--------|--------|


E|--------|--------|--------|--------|--------|--------|--------|--------|--------|
B|--------|--------|--------|--------|--------|--------|--------|--------|--------|
G|--------|--------|--------|--------|--------|--------|--------|--------|--------|
D|--------|--------|--------|--------|--------|--------|--------|--------|--------|
A|--------|--------|--------|--------|--------|--------|--------|--------|--------|
E|--------|--------|--------|--------|--------|--------|--------|--------|--------|


E|--------|--------|--------|--------|--------|--------|-----------19-----19-19--|
B|--------|--------|--------|--------|--------|--------|-----------17------------|
G|--------|--------|--------|--------|--------|--------|-----------16------------|
D|--------|--------|--------|--------|--------|--------|-------------------------|
A|--------|--------|--------|--------|--------|--------|-------------------------|
E|--------|--------|--------|--------|--------|--------|-------------------------|


E|----19-19--19-19-19-19-19---19-19-17-17-14-14-14----|-14---1414---------------------------------------------|
B|-----------19-19-19-19-19---19-19----------------17-|----17-----17-14-17-14-14----------------14---14-------|
G|----------------------------------------------------|--------------------------17-16-14-16-14-14---14-------|
D|----------------------------------------------------|-------------------------------------------------16-14-|
A|----------------------------------------------------|-------------------------------------------------------|
E|----------------------------------------------------|-------------------------------------------------------|


E|-----------------------------17--14-------------|------------------------------------|
B|-------16-16-16-16---------------14---14-17-----|----------14-14-17-17--17-----------|
G|-------16-16-16-16-16-16-16--------17----17-1614|----14-16-----------------4----4----|
D|------------------------------------------------|-16---------------------------------|
A|-16-14------------------------------------------|------------------------------------|
E|------------------------------------------------|------------------------------------|


E|----------------------------------------------------------|--------------------------------------------------------------|
B|----------------------------------------------------------|--------------------------------------------------------------|
G|-4--4---4---4--4--4--4---4--4--4--2--------------------2--|--------------------------------------------------------------|
D|-------------------------------------4--0--4--4--3--2-----|-3--2--3--2--2-----4--------------------------------------2-3-|
A|----------------------------------------------------------|----------------4-----4--5--2-0-2--3-0----2-3-2-0-0-2-3-4-----|
E|----------------------------------------------------------|---------------------------------------2----------------------|


E|------------------------------------------------------------------|----------------------------------------------|
B|------------------------------------------------------------------|----------------------------------------------|
G|------------2--4--4-2----4-2-0-4-2-0-4--2-4-2-0-4-2-0-4-2-2-4-2-0-|---4-2-0--4-2-4-0-4--4---4--------------------|
D|-2---2-3-4------------4-------------------------------------------|----------------------------------------------|
A|---4--------------------------------------------------------------|----------------------------------------------|
E|------------------------------------------------------------------|-----------------------------2---2--4--5---6--|


E|-------------------------------------------------|----------------14----17-19-21--21-21-21---|
B|-------------------------------------------------|----------14-17----14----------------------|
G|-------------------------------------------------|-14-16-17----------------------------------|
D|----------------------------------------14-15-16-|-------------------------------------------|
A|----------------------------12-14-15-16----------|-------------------------------------------|
E|-7--7--8--9--10-11-12-13-14----------------------|-------------------------------------------|


E|-21-19-181918----------------------------------------------------|-------------------------------------------------------------|
B|-------------20-19--17192019171817-------------------------------|-------------------------------------------------------------|
G|----------------------------------1918-1616181816151615----------|-------------------------------------------------------------|
D|-------------------------------------------------------1717161416|---171614-1614-----------------------------------------1417--|
A|-----------------------------------------------------------------|--------------1716141315131413--------------13-16131516------|
E|-----------------------------------------------------------------|------------------------------15-121412-1415-----------------|


E|--------------------------------------------------------|-------------------------1924--24---24---24|
B|--------------------------------------------------1720--|--------------17-20171920------------------|
G|-----------------------1518------------1518151718-------|-151815-17-18------------------------------|
D|------------1417141617-------141714-17------------------|-------------------------------------------|
A|-131613-1516--------------------------------------------|-------------------------------------------|
E|--------------------------------------------------------|-------------------------------------------|


E|-24--24--24--24--24--24--24----|--------|--------|--------|--------|--------|--------|
B|-------------------------------|--------|--------|--------|--------|--------|--------|
G|-------------------------------|--------|--------|--------|--------|--------|--------|
D|-------------------------------|--------|--------|--------|--------|--------|--------|
A|-------------------------------|--------|--------|--------|--------|--------|--------|
E|-------------------------------|--------|--------|--------|--------|--------|--------|


E|--------|--------|--------|
B|--------|--------|--------|
G|--------|--------|--------|
D|--------|--------|--------|
A|--------|--------|--------|
E|--------|--------|--------|





Track 4: Scrapes

E|--------|--------|--------|--------|--------|--------|--------|--------|--------|
B|--------|--------|--------|--------|--------|--------|--------|--------|--------|
G|--------|--------|--------|--------|--------|--------|--------|--------|--------|
D|--------|--------|--------|--------|--------|--------|--------|--------|--------|
A|--------|--------|--------|--------|--------|--------|--------|--------|--------|
E|--------|--------|--------|--------|--------|--------|--------|--------|--------|


E|--------|--------|--------|--------|--------|--------|--------|--------|--------|
B|--------|--------|--------|--------|--------|--------|--------|--------|--------|
G|--------|--------|--------|--------|--------|--------|--------|--------|--------|
D|--------|--------|--------|--------|--------|--------|--------|--------|--------|
A|--------|--------|--------|--------|--------|--------|--------|--------|--------|
E|--------|--------|--------|--------|--------|--------|--------|--------|--------|


E|--------|--------|--------|--------|--------|--------|--------|--------|--------|
B|--------|--------|--------|--------|--------|--------|--------|--------|--------|
G|--------|--------|--------|--------|--------|--------|--------|--------|--------|
D|--------|--------|--------|--------|--------|--------|--------|--------|--------|
A|--------|--------|--------|--------|--------|--------|--------|--------|--------|
E|--------|--------|--------|--------|--------|--------|--------|--------|--------|


E|--------|--------|--------|--------|--------|--------|--------|--------|--------|
B|--------|--------|--------|--------|--------|--------|--------|--------|--------|
G|--------|--------|--------|--------|--------|--------|--------|--------|--------|
D|--------|--------|--------|--------|--------|--------|--------|--------|--------|
A|--------|--------|--------|--------|--------|--------|--------|--------|--------|
E|--------|--------|--------|--------|--------|--------|--------|--------|--------|


E|--------|--------|--------|--------|--------|--------|--------|--------|--------|
B|--------|--------|--------|--------|--------|--------|--------|--------|--------|
G|--------|--------|--------|--------|--------|--------|--------|--------|--------|
D|--------|--------|--------|--------|--------|--------|--------|--------|--------|
A|--------|--------|--------|--------|--------|--------|--------|--------|--------|
E|--------|--------|--------|--------|--------|--------|--------|--------|--------|


E|--------|--------|--------|--------|--------|--------|--------|--------|--------|
B|--------|--------|--------|--------|--------|--------|--------|--------|--------|
G|--------|--------|--------|--------|--------|--------|--------|--------|--------|
D|--------|--------|--------|--------|--------|--------|--------|--------|--------|
A|--------|--------|--------|--------|--------|--------|--------|--------|--------|
E|--------|--------|--------|--------|--------|--------|--------|--------|--------|


E|--------|--------|--------|--------|--------|--------|--------|--------|--------|
B|--------|--------|--------|--------|--------|--------|--------|--------|--------|
G|--------|--------|--------|--------|--------|--------|--------|--------|--------|
D|--------|--------|--------|--------|--------|--------|--------|--------|--------|
A|--------|--------|--------|--------|--------|--------|--------|--------|--------|
E|--------|--------|--------|--------|--------|--------|--------|--------|--------|


E|--------|--------|--------|--------|--------|--------|--------|--------|--------|
B|--------|--------|--------|--------|--------|--------|--------|--------|--------|
G|--------|--------|--------|--------|--------|--------|--------|--------|--------|
D|--------|--------|--------|--------|--------|--------|--------|--------|--------|
A|--------|--------|--------|--------|--------|--------|--------|--------|--------|
E|--------|--------|--------|--------|--------|--------|--------|--------|--------|


E|--------|--------|--------|--------|--------|--------|--------|--------|--------|
B|--------|--------|--------|--------|--------|--------|--------|--------|--------|
G|--------|--------|--------|--------|--------|--------|--------|--------|--------|
D|--------|--------|--------|--------|--------|--------|--------|--------|--------|
A|--------|--------|--------|--------|--------|--------|--------|--------|--------|
E|--------|--------|--------|--------|--------|--------|--------|--------|--------|


E|--------|--------|--------|--------|-----------------|--------|--------|--------|
B|--------|--------|--------|--------|-----------------|--------|--------|--------|
G|--------|--------|--------|--------|-----------------|--------|--------|--------|
D|--------|--------|--------|--------|-16---6----------|--------|--------|--------|
A|--------|--------|--------|--------|-17---7----------|--------|--------|--------|
E|--------|--------|--------|--------|-19---9----------|--------|--------|--------|


E|-----------------|--------|--------|--------|--------|
B|-----------------|--------|--------|--------|--------|
G|-----------------|--------|--------|--------|--------|
D|-19----5---------|--------|--------|--------|--------|
A|-21----5---------|--------|--------|--------|--------|
E|-22----5---------|--------|--------|--------|--------|





Track 5: Mustaine

E|--------|--------|--------|--------|--------|--------|--------|--------|--------|
B|--------|--------|--------|--------|--------|--------|--------|--------|--------|
G|--------|--------|--------|--------|--------|--------|--------|--------|--------|
D|--------|--------|--------|--------|--------|--------|--------|--------|--------|
A|--------|--------|--------|--------|--------|--------|--------|--------|--------|
E|--------|--------|--------|--------|--------|--------|--------|--------|--------|


E|--------|--------|--------|--------|--------|--------|--------|--------|--------|
B|--------|--------|--------|--------|--------|--------|--------|--------|--------|
G|--------|--------|--------|--------|--------|--------|--------|--------|--------|
D|--------|--------|--------|--------|--------|--------|--------|--------|--------|
A|--------|--------|--------|--------|--------|--------|--------|--------|--------|
E|--------|--------|--------|--------|--------|--------|--------|--------|--------|


E|--------|--------|--------|--------|--------|--------|--------|--------|--------|
B|--------|--------|--------|--------|--------|--------|--------|--------|--------|
G|--------|--------|--------|--------|--------|--------|--------|--------|--------|
D|--------|--------|--------|--------|--------|--------|--------|--------|--------|
A|--------|--------|--------|--------|--------|--------|--------|--------|--------|
E|--------|--------|--------|--------|--------|--------|--------|--------|--------|


E|--------|--------|--------|--------|--------|--------|--------|--------|--------|
B|--------|--------|--------|--------|--------|--------|--------|--------|--------|
G|--------|--------|--------|--------|--------|--------|--------|--------|--------|
D|--------|--------|--------|--------|--------|--------|--------|--------|--------|
A|--------|--------|--------|--------|--------|--------|--------|--------|--------|
E|--------|--------|--------|--------|--------|--------|--------|--------|--------|


E|--------|--------|--------|--------|--------|--------|--------|--------|--------|
B|--------|--------|--------|--------|--------|--------|--------|--------|--------|
G|--------|--------|--------|--------|--------|--------|--------|--------|--------|
D|--------|--------|--------|--------|--------|--------|--------|--------|--------|
A|--------|--------|--------|--------|--------|--------|--------|--------|--------|
E|--------|--------|--------|--------|--------|--------|--------|--------|--------|


E|--------|--------|--------|--------|--------|--------|--------|--------|--------|
B|--------|--------|--------|--------|--------|--------|--------|--------|--------|
G|--------|--------|--------|--------|--------|--------|--------|--------|--------|
D|--------|--------|--------|--------|--------|--------|--------|--------|--------|
A|--------|--------|--------|--------|--------|--------|--------|--------|--------|
E|--------|--------|--------|--------|--------|--------|--------|--------|--------|


E|--------|--------|--------|--------|--------|--------|--------|--------|--------|
B|--------|--------|--------|--------|--------|--------|--------|--------|--------|
G|--------|--------|--------|--------|--------|--------|--------|--------|--------|
D|--------|--------|--------|--------|--------|--------|--------|--------|--------|
A|--------|--------|--------|--------|--------|--------|--------|--------|--------|
E|--------|--------|--------|--------|--------|--------|--------|--------|--------|


E|--------|--------|--------|--------|--------|--------|--------|--------|--------|
B|--------|--------|--------|--------|--------|--------|--------|--------|--------|
G|--------|--------|--------|--------|--------|--------|--------|--------|--------|
D|--------|--------|--------|--------|--------|--------|--------|--------|--------|
A|--------|--------|--------|--------|--------|--------|--------|--------|--------|
E|--------|--------|--------|--------|--------|--------|--------|--------|--------|


E|--------|--------|--------|--------|--------|--------|--------|--------|--------|
B|--------|--------|--------|--------|--------|--------|--------|--------|--------|
G|--------|--------|--------|--------|--------|--------|--------|--------|--------|
D|--------|--------|--------|--------|--------|--------|--------|--------|--------|
A|--------|--------|--------|--------|--------|--------|--------|--------|--------|
E|--------|--------|--------|--------|--------|--------|--------|--------|--------|


E|--------|--------|--------|--------|---------------------------------------------|
B|--------|--------|--------|--------|---------------------------------------------|
G|--------|--------|--------|--------|---------------------------------------------|
D|--------|--------|--------|--------|---------------------------------------------|
A|--------|--------|--------|--------|-2--3--2--0--2--0--5---2--4--4--4------2--4--|
E|--------|--------|--------|--------|-------------------3---0--2--2--2------0--2--|


E|-------------------------|--------|--------|--------|--------|--------|--------|
B|-------------------------|--------|--------|--------|--------|--------|--------|
G|-------------------------|--------|--------|--------|--------|--------|--------|
D|-------------------------|--------|--------|--------|--------|--------|--------|
A|-4--4------2---5---------|--------|--------|--------|--------|--------|--------|
E|-2--2------0---3---------|--------|--------|--------|--------|--------|--------|


E|--------|
B|--------|
G|--------|
D|--------|
A|--------|
E|--------|





Track 6: Friedman

E|--------|--------|--------|--------|--------|--------|--------|--------|--------|
B|--------|--------|--------|--------|--------|--------|--------|--------|--------|
G|--------|--------|--------|--------|--------|--------|--------|--------|--------|
D|--------|--------|--------|--------|--------|--------|--------|--------|--------|
A|--------|--------|--------|--------|--------|--------|--------|--------|--------|
E|--------|--------|--------|--------|--------|--------|--------|--------|--------|


E|--------|--------|--------|--------|--------|--------|--------|--------|--------|
B|--------|--------|--------|--------|--------|--------|--------|--------|--------|
G|--------|--------|--------|--------|--------|--------|--------|--------|--------|
D|--------|--------|--------|--------|--------|--------|--------|--------|--------|
A|--------|--------|--------|--------|--------|--------|--------|--------|--------|
E|--------|--------|--------|--------|--------|--------|--------|--------|--------|


E|--------|--------|--------|--------|--------|--------|--------|--------|--------|
B|--------|--------|--------|--------|--------|--------|--------|--------|--------|
G|--------|--------|--------|--------|--------|--------|--------|--------|--------|
D|--------|--------|--------|--------|--------|--------|--------|--------|--------|
A|--------|--------|--------|--------|--------|--------|--------|--------|--------|
E|--------|--------|--------|--------|--------|--------|--------|--------|--------|


E|--------|--------|--------|--------|--------|--------|--------|--------|--------|
B|--------|--------|--------|--------|--------|--------|--------|--------|--------|
G|--------|--------|--------|--------|--------|--------|--------|--------|--------|
D|--------|--------|--------|--------|--------|--------|--------|--------|--------|
A|--------|--------|--------|--------|--------|--------|--------|--------|--------|
E|--------|--------|--------|--------|--------|--------|--------|--------|--------|


E|--------|--------|--------|--------|--------|--------|--------|--------|--------|
B|--------|--------|--------|--------|--------|--------|--------|--------|--------|
G|--------|--------|--------|--------|--------|--------|--------|--------|--------|
D|--------|--------|--------|--------|--------|--------|--------|--------|--------|
A|--------|--------|--------|--------|--------|--------|--------|--------|--------|
E|--------|--------|--------|--------|--------|--------|--------|--------|--------|


E|--------|--------|--------|--------|--------|--------|--------|--------|--------|
B|--------|--------|--------|--------|--------|--------|--------|--------|--------|
G|--------|--------|--------|--------|--------|--------|--------|--------|--------|
D|--------|--------|--------|--------|--------|--------|--------|--------|--------|
A|--------|--------|--------|--------|--------|--------|--------|--------|--------|
E|--------|--------|--------|--------|--------|--------|--------|--------|--------|


E|--------|--------|--------|--------|--------|--------|--------|--------|--------|
B|--------|--------|--------|--------|--------|--------|--------|--------|--------|
G|--------|--------|--------|--------|--------|--------|--------|--------|--------|
D|--------|--------|--------|--------|--------|--------|--------|--------|--------|
A|--------|--------|--------|--------|--------|--------|--------|--------|--------|
E|--------|--------|--------|--------|--------|--------|--------|--------|--------|


E|--------|--------|--------|--------|--------|--------|--------|--------|--------|
B|--------|--------|--------|--------|--------|--------|--------|--------|--------|
G|--------|--------|--------|--------|--------|--------|--------|--------|--------|
D|--------|--------|--------|--------|--------|--------|--------|--------|--------|
A|--------|--------|--------|--------|--------|--------|--------|--------|--------|
E|--------|--------|--------|--------|--------|--------|--------|--------|--------|


E|--------|--------|--------|--------|--------|--------|--------|--------|--------|
B|--------|--------|--------|--------|--------|--------|--------|--------|--------|
G|--------|--------|--------|--------|--------|--------|--------|--------|--------|
D|--------|--------|--------|--------|--------|--------|--------|--------|--------|
A|--------|--------|--------|--------|--------|--------|--------|--------|--------|
E|--------|--------|--------|--------|--------|--------|--------|--------|--------|


E|--------|--------|--------|--------|--------|--------|--------|--------|-----------------------------|
B|--------|--------|--------|--------|--------|--------|--------|--------|-----------------------------|
G|--------|--------|--------|--------|--------|--------|--------|--------|-----------------------------|
D|--------|--------|--------|--------|--------|--------|--------|--------|-------7--9------------9--11-|
A|--------|--------|--------|--------|--------|--------|--------|--------|-------------9--10-----------|
E|--------|--------|--------|--------|--------|--------|--------|--------|-----------------------------|


E|-------------------------------------------|-------------------------------------------|
B|-------------------------------------------|-------------------------------------------|
G|-------------------------------------------|-------------------------------------------|
D|-----------9---12-9--9--11-----------9--11-|-----------9---12-9--9--11-----------9--11-|
A|-9--10-------------------------------------|-11-12-------------------------------------|
E|---------------------------11-12-----------|---------------------------11-12-----------|


E|---------------------------------------------|-------------------------|
B|---------------------------------------------|-------------------------|
G|---------------------------------------------|-------------------------|
D|-----------9---12-9--------------------------|-------------------------|
A|-11-12---------------7--9-----9--7-----7--9--|-9------5--4-------------|
E|---------------------------9--------9--------|-----0--3--2-------------|





Track 7: Ellefson

G|---------------------------|---------------------------|---------------------------|
D|---------------------------|---------------------------|---------------------------|
A|---------------------------|---------------------------|---------------------------|
E|-2--------0---2--------0---|-2--------0---2--------0---|-2--------0---2--------0---|


G|---------------------------|--------|-------------------------------|-2----1--1-----------------------|
D|---------------------------|--------|----------------------------0--|-------------2---2-----------2---|
A|-----------------------7---|-9------|-9-----9-----------0--1--2-----|--------------------4----0-------|
E|-2--------0---2------------|--------|----------0--1--2--------------|---------------------------------|


G|-----------------------------4--3--2-----|-2--------1--------------------------------------|
D|-1-----------0---0--2--3--4-----------4--|-------------------2-----------------------2-----|
A|-----------------------------------------|----------------------------4--------------------|
E|------2--2-------------------------------|----2--2-----2--2-----2--2-----2--4--5--2-----2--|


G|-----------------------------------------------|-2--------1--------------------------------------|
D|-1--------4--------0---0--------------------0--|-------------------2-----------------------2-----|
A|-----------------------------------0--1--2-----|----------------------------4--------------------|
E|----2--2-----2--2---------0--1--2--------------|----2--2-----2--2-----2--2-----2--4--5--2-----2--|


G|-----------------------------------4--3--2-----|-----------------------------------------------|
D|-1--------4--------0---0--2--3--4-----------4--|-------------------------4--3--2---------------|
A|-----------------------------------------------|----------------------------------4--------0---|
E|----2--2-----2--2------------------------------|-2--2--2--2--2--2--2--2--------------0--2------|


G|-------------------------------------------|-------------------------------------------------|
D|-------------------------------------------|----------------------4--3--2-----7--6--5--4-----|
A|----------------------------2--------------|-------------------------------4-----------------|
E|-2--2--2--2--2--2--2--2--2-------3--3---2--|-2--2--2--2--2--2--2--------------------------2--|


G|-----------------------------------------------|-----------------------------------------------|
D|-----------------------------------------------|----------------------4--3--2------------------|
A|----------------2--0--2--3--2--0--2--0---------|-------------------------------4--------0------|
E|-2--2--2--2--2--------------------------3---2--|-2--2--2--2--2--2--2--------------0--2------2--|


G|-------------------------------------------|-------------------------------------------------|
D|-------------------------------------------|-------------------4--3--2-----7--6--5--4--------|
A|-------------------------2-----------------|----------------------------4--------------------|
E|-2--2--2--2--2--2--2--2-------3--3---2--2--|-2--2--2--2--2--2--------------------------2--2--|


G|-----------------------------------------------|-----------------------------------------------|
D|-----------------------------------------------|-------------------4--3--2---------------------|
A|-------------2--0--2--3--2--0--2--0------------|----------------------------4--------0---------|
E|-2--2--2--2--------------------------3---2--2--|-2--2--2--2--2--2--------------0--2------2--2--|


G|-------------------------------------------|-------------------------------------------------|
D|-------------------------------------------|----------------4--3--2-----7--6--5--4-----------|
A|----------------------2--------------------|-------------------------4-----------------------|
E|-2--2--2--2--2--2--2-------3--3---2--2--2--|-2--2--2--2--2--------------------------2--2--2--|


G|-----------------------------------------------|-----------------------------------------|
D|-----------------------------------------------|-----------------------------------------|
A|----------2--0--2--3--2--0--2--0---------------|-----------------------------------------|
E|-2--2--2--------------------------3---0--2--2--|-2------0--2--2--2------0---3---0--2--2--|


G|-----------------------------------------|-----------------------------------------|
D|-----------------------------------------|-----------------------------------------|
A|-----------------------------------------|-----------------------------------------|
E|-2------0--2--2--2------0---3---0--2--2--|-2------0--2--2--2------0---3---0--2--2--|


G|-------------------------|------------------------------|------------------------------|
D|-------------------------|------------------------------|------------------------------|
A|-------0-----------------|------------------------------|---------------------7---9----|
E|-2--------2---------2----|--------0---2--------0---2----|--------0---2-----------------|


G|----------------|---------------------------------2--------|-1-----------------------------------------------|
D|----------------|------------------------------0-----------|----------2-----------------------2-----1--------|
A|-----------9----|---------9-----------0--1--2--------------|-------------------4--------0--------------------|
E|----------------|------------0--1--2-----------------2--2--|----2--2-----2--2-----2--2-----2-----2-----2--2--|


G|--------------------------4--3--2--------------|-----------------------------------------------|
D|-4--------0---0--2--3--4-----------4-----------|----------------4--3--2------------------------|
A|-----------------------------------------------|-------------------------4--------0------------|
E|----2--2------------------------------2--2--2--|-2--2--2--2--2--------------0--2------2--2--2--|


G|-------------------------------------------|-------------------------------------------------|
D|-------------------------------------------|-------------4--3--2-----7--6--5--4--------------|
A|-------------------2-----------------------|----------------------4--------------------------|
E|-2--2--2--2--2--2-------3--3---2--2--2--2--|-2--2--2--2--------------------------2--2--2--2--|


G|-----------------------------------------------|-----------------------------------------------|
D|-----------------------------------------------|-------------4--3--2---------------------------|
A|-------2--0--2--3--2--0--2--0------------------|----------------------4--------0---------------|
E|-2--2--------------------------3---2--2--2--2--|-2--2--2--2--------------0--2------2--2--2--2--|


G|-------------------------------------------|-------------------------------------------------|
D|-------------------------------------------|----------4--3--2-----7--6--5--4-----------------|
A|----------------2--------------------------|-------------------4-----------------------------|
E|-2--2--2--2--2-------3--3---2--2--2--2--2--|-2--2--2--------------------------2--2--2--2--2--|


G|-----------------------------------------------|-----------------------------------------------|
D|-----------------------------------------------|----------4--3--2------------------------------|
A|----2--0--2--3--2--0--2--0---------------------|-------------------4--------0------------------|
E|-2--------------------------3---2--2--2--2--2--|-2--2--2--------------0--2------2--2--2--2--2--|


G|-------------------------------------------|-------------------------------------------------|
D|-------------------------------------------|-------4--3--2-----7--6--5--4--------------------|
A|-------------2-----------------------------|----------------4--------------------------------|
E|-2--2--2--2-------3--3---2--2--2--2--2--2--|-2--2--------------------------2--2--2--2--2--2--|


G|---------------------------------------------|-----------------------------------------|
D|---------------------------------------------|-----------------------------------------|
A|-2--0--2--3--2--0--2--0----------------------|-----------------------------------------|
E|-------------------------3---0--2--2--2------|-0--2--2--2------0---3---0--2--2--2------|


G|-----------------------------------------|-------------------------------------------|
D|-----------------------------------------|-------------------------------------------|
A|-----------------------------------------|----------------------------------------0--|
E|-0--2--2--2------0---3---0--2--2--2------|-0--2--2--2------0---3---0--2--2--2--------|


G|------------------------------|------------------------------------------------|
D|------------------------------|------------------------------------------------|
A|--------------9---------------|-2--3--4-----3-----2-----0--2--0----------------|
E|-2----------------2----2--2---|----------5-----4-----3-----------4--4---4--4---|


G|-------------------------------------------|-------------------------------------------|
D|-------------------------------------------|-------------------------------------------|
A|-4--5--6-----5-----4-----3-----------------|-------------------------------------------|
E|----------7-----6-----5-----4--5----5--5---|-5--5--5--5--5--5--5---7--5--7---7--7--7---|


G|-------------------------------------------------|---------------------------------------------|
D|-------------------------------------------------|---------------------------------------------|
A|-------------5-----4-----3-----------------------|---------------------------------------------|
E|-7--7-----7-----6-----6-----5--2--2-----2--2-----|-2--2-----2-----2-----1----0--0-----0--0-----|


G|---------------------------------------------|---------------------------------------------|
D|---------------------------------------------|---------------------------------------------|
A|-------------------7--6----5--5-----5--5-----|-5--5-----5-----5--5--0----2--2-----2--2--0--|
E|-0--0-----0-----0----------------------------|---------------------------------------------|


G|---------------------------------------------|---------------------------------------------|
D|---------------------------------------------|---------------------------------------------|
A|----2--4--4--4--4--4-------------------------|---------------------------------------------|
E|----------------------3----2--2-----2--2-----|-2--2-----2-----2-----1----0--0-----0--0-----|


G|---------------------------------------------|---------------------------------------------|
D|---------------------------------------------|---------------------------------------------|
A|-------------------7--6----5--5-----5--5-----|-5--5-----5-----5--5--0----2--2-----2--2--0--|
E|-0--0-----0-----0----------------------------|---------------------------------------------|


G|---------------------------------------------|---------------------------------------------|
D|---------------------------------4--------2--|-------4--------2----------------2--------0--|
A|----2--4--4--4--4--4----------4--------4-----|----4--------4----------------2--------2-----|
E|----------------------3----2--------2--------|-2--------2--------2--1----0--------0--------|


G|---------------------------------7--------5--|-------7--------5----------------4--------2--|
D|-------2--------0-------------7--------7-----|----7--------7----------------4--------4-----|
A|----2--------2-----7--6----5--------5--------|-5--------5--------5--0----2--------2--------|
E|-0--------0----------------------------------|---------------------------------------------|


G|-------------6-------------------------------|---------------------------------------------|
D|----------6----------------------4--------2--|-------4--------2----------------2--------0--|
A|-2--3--4--------4--4----------4--------4-----|----4--------4----------------2--------2-----|
E|----------------------3----2--------2--------|-2--------2--------2--1----0--------0--------|


G|---------------------------------7--------5--|-------7--------5----------------4--------2--|
D|-------2--------0-------------7--------7-----|----7--------7----------------4--------4-----|
A|----2--------2-----7--6----5--------5--------|-5--------5--------5--0----2--------2--------|
E|-0--------0----------------------------------|---------------------------------------------|


G|-------------6-------------------------------|-----------------------------------------------|
D|----------6----------------------------------|-------4--3--2---------------------------------|
A|-2--3--4--------4--4-------------------------|----------------4--------0---------------------|
E|----------------------3----2--2--2--2--2--2--|-2--2--------------0--2------2--2--2--2--2--2--|


G|-------------------------------------------------|-----------------------------------------------|
D|-------4--3--2-----7--6--5--4--------------------|-------4--3--2---------------------------------|
A|----------------4--------------------------------|----------------4--------0---------------------|
E|-2--2--------------------------2--2--2--2--2--2--|-2--2--------------0--2------2--2--2--2--2--2--|


G|-------------------------------------------|-----------------------------------------------|
D|-------------------------------------------|----4--3--2------------------------------------|
A|----------2--------------------------------|-------------4--------0------------------------|
E|-2--2--2-------3--3---2--2--2--2--2--2--2--|-2--------------0--2------2--2--2--2--2--2--2--|


G|-------------------------------------------------|-----------------------------------------------|
D|----4--3--2-----7--6--5--4-----------------------|----4--3--2------------------------------------|
A|-------------4-----------------------------------|-------------4------------------------------2--|
E|-2--------------------------2--2--2--2--2--2--2--|-2--------------0--2--0---2--2--2--2--2--2-----|


G|-----------------------------------------------|-----------------------------------------------|
D|-----------------------------------------------|----4--3--2------------------------------------|
A|-0--2--3--2--0--2--0---------------------------|-------------4--------0------------------------|
E|----------------------3---2--2--2--2--2--2--2--|-2--------------0--2------2--2--2--2--2--2--2--|


G|-------------------------------------------------|-----------------------------------------------|
D|----4--3--2-----7--6--5--4-----------------------|----4--3--2------------------------------------|
A|-------------4-----------------------------------|-------------4--------0------------------------|
E|-2--------------------------2--2--2--2--2--2--2--|-2--------------0--2------2--2--2--2--2--2--2--|


G|-------------------------------------------|-----------------------------------------------|
D|-------------------------------------------|-4--3--2---------------------------------------|
A|-------2-----------------------------------|----------4--------0---------------------------|
E|-2--2-------3--3---2--2--2--2--2--2--2--2--|-------------0--2------2--2--2--2--2--2--2--2--|


G|-------------------------------------------------|-----------------------------------------------|
D|-4--3--2-----7--6--5--4--------------------------|-4--3--2---------------------------------------|
A|----------4--------------------------------------|----------4------------------------------2--0--|
E|-------------------------2--2--2--2--2--2--2--2--|-------------0--2--0---2--2--2--2--2--2--------|


G|---------------------------------------------|-----------------------------------------|
D|---------------------------------------------|-----------------------------------------|
A|-2--3--2--0--2--0----------------------------|-----------------------------------------|
E|-------------------3---0--2--2--2------0--2--|-2--2------0---3---0--2--2--2------0--2--|


G|-----------------------------------------|-----------------------------------------|
D|-----------------------------------------|-----------------------------------------|
A|-----------------------------------------|----------------------------------0------|
E|-2--2------0---3---0--2--2--2------0--2--|-2--2------0---3---0--2--2--2--------2---|


G|------------------------------------|-----------------------------------------|-----------------------------------------|
D|------------------------------------|-----------------------------------------|-----------------------------------------|
A|--------------7--9------------7--9--|-----------7---10--7--9------------7--9--|-----------7---10--7--9------------7--9--|
E|----------12--------7--8------------|-9--10-------------------7--8------------|-9--10-------------------7--8------------|


G|-------------------------------------------|-----------------------|
D|-------------------------------------------|-----------------------|
A|-----------7---10--7--9-----9--7-----7--9--|-9---------------------|
E|-9--10-------------------9--------9--------|------3--2-------------|