Menu:

 

Search:

 

megadeth - i know jack:

 



Title: I Know Jack
Artist: 
Album: The System Has Failed
Author: Dave Mustaine


Track 1: Guitar 1

E|-5---3---0---------------3---0---0---------------|-5---3---0---------------3---0---0---------------|
B|-------------5---3---0---------------5---3---0---|-------------5---3---0---------------5---3---0---|
G|-------------------------------------------------|-------------------------------------------------|
D|-------------------------------------------------|-------------------------------------------------|
A|-------------------------------------------------|-------------------------------------------------|
E|-------------------------------------------------|-------------------------------------------------|


E|-5---3---0---------------3---0---0---------------|-5---3---0---------------3---0---0---------------|
B|-------------5---3---0---------------5---3---0---|-------------5---3---0---------------5---3---0---|
G|-------------------------------------------------|-------------------------------------------------|
D|-------------------------------------------------|-------------------------------------------------|
A|-------------------------------------------------|-------------------------------------------------|
E|-------------------------------------------------|-------------------------------------------------|


E|-5---3---0---------------3---0---0---------------|-5---3---0---------------3---0---0---------------|
B|-------------5---3---0---------------5---3---0---|-------------5---3---0---------------5---3---0---|
G|-------------------------------------------------|-------------------------------------------------|
D|-------------------------------------------------|-------------------------------------------------|
A|-------------------------------------------------|-------------------------------------------------|
E|-------------------------------------------------|-------------------------------------------------|


E|-5---3---0---------------3---0---0---------------|-5---3---0---------------3---0---0---------------|
B|-------------5---3---0---------------5---3---0---|-------------5---3---0---------------5---3---0---|
G|-------------------------------------------------|-------------------------------------------------|
D|-------------------------------------------------|-------------------------------------------------|
A|-------------------------------------------------|-------------------------------------------------|
E|-------------------------------------------------|-------------------------------------------------|


E|-5---3---0---------------3---0---0---------------|-5---3---0---------------5---3---0---------------|
B|-------------5---3---0---------------5---3---0---|-------------0---3---5---------------0---3---5---|
G|-------------------------------------------------|-------------------------------------------------|
D|-------------------------------------------------|-------------------------------------------------|
A|-------------------------------------------------|-------------------------------------------------|
E|-------------------------------------------------|-------------------------------------------------|


E|-5---3---0---------------3---0---0---------------|-5---3---0---------------3---0---0---------------|
B|-------------5---3---0---------------5---3---0---|-------------5---3---0---------------5---3---0---|
G|-------------------------------------------------|-------------------------------------------------|
D|-------------------------------------------------|-------------------------------------------------|
A|-------------------------------------------------|-------------------------------------------------|
E|-------------------------------------------------|-------------------------------------------------|


E|-5---3---0---------------3---0---0---------------|-5---3---0---------------3---0---0---------------|
B|-------------5---3---0---------------5---3---0---|-------------5---3---0---------------5---3---0---|
G|-------------------------------------------------|-------------------------------------------------|
D|-------------------------------------------------|-------------------------------------------------|
A|-------------------------------------------------|-------------------------------------------------|
E|-------------------------------------------------|-------------------------------------------------|


E|-5---3---0---------------3---0---0---------------|-5---3---0---------------3---0---0---------------|
B|-------------5---3---0---------------5---3---0---|-------------5---3---0---------------5---3---0---|
G|-------------------------------------------------|-------------------------------------------------|
D|-------------------------------------------------|-------------------------------------------------|
A|-------------------------------------------------|-------------------------------------------------|
E|-------------------------------------------------|-------------------------------------------------|


E|-5---3---0---------------3---0---0---------------|-5---3---0---------------5---3---0---------------|
B|-------------5---3---0---------------5---3---0---|-------------0---3---5---------------0---3---5---|
G|-------------------------------------------------|-------------------------------------------------|
D|-------------------------------------------------|-------------------------------------------------|
A|-------------------------------------------------|-------------------------------------------------|
E|-------------------------------------------------|-------------------------------------------------|


E|-5---3---0---------------3---0---0---------------|-5---3---0---------------3---0---0---------------|
B|-------------5---3---0---------------5---3---0---|-------------5---3---0---------------5---3---0---|
G|-------------------------------------------------|-------------------------------------------------|
D|-------------------------------------------------|-------------------------------------------------|
A|-------------------------------------------------|-------------------------------------------------|
E|-------------------------------------------------|-------------------------------------------------|


E|-5---3---0---------------3---0---0---------------|-5---3---0---------------3---0---0---------------|
B|-------------5---3---0---------------5---3---0---|-------------5---3---0---------------5---3---0---|
G|-------------------------------------------------|-------------------------------------------------|
D|-------------------------------------------------|-------------------------------------------------|
A|-------------------------------------------------|-------------------------------------------------|
E|-------------------------------------------------|-------------------------------------------------|


E|-5---3---0---------------3---0---0---------------|-------------|
B|-------------5---3---0---------------5---3---0---|-5-----5-----|
G|-------------------------------------------------|-------------|
D|-------------------------------------------------|-------------|
A|-------------------------------------------------|-------------|
E|-------------------------------------------------|-------------|





Track 2: Guitar 2

E|--------|--------|--------|--------|---------------------------------------------|
B|--------|--------|--------|--------|---------------------------------------------|
G|--------|--------|--------|--------|---------------------------------------------|
D|--------|--------|--------|--------|---------------------------------------------|
A|--------|--------|--------|--------|---------------------------------------------|
E|--------|--------|--------|--------|-0---0---0---0---0---0---0---0---0---2---3---|


E|---------------------------------------------|---------------------------------------------|
B|---------------------------------------------|---------------------------------------------|
G|---------------------------------------------|---------------------------------------------|
D|---------------------------------------------|---------------------------------------------|
A|---------------------------------------------|---------------------------------------------|
E|-0---0---0---0---0---0---0---0---0---2---3---|-0---0---0---0---0---0---0---0---0---2---3---|


E|---------------------------------------------|---------------------------------------------|
B|---------------------------------------------|---------------------------------------------|
G|---------------------------------------------|---------------------------------------------|
D|---------------------------------------------|---------------------------------------------|
A|---------------------------------------------|---------------------------------------------|
E|-0---0---0---0---0---0---0---0---0---2---3---|-3---3---3---3---3---3---3---3---3---3---3---|


E|---------------------------------------------|---------------------------------------------|
B|---------------------------------------------|---------------------------------------------|
G|---------------------------------------------|---------------------------------------------|
D|---------------------------------------------|---------------------------------------------|
A|---------------------------------------------|---------------------------------------------|
E|-2---2---2---2---2---1---1---1---1---1---1---|-0---0---0---0---0---0---0---0---0---2---3---|


E|---------------------------------------------|----------------------------------------------|
B|---------------------------------------------|----------------------------------------------|
G|---------------------------------------------|----------------------------------------------|
D|---------------------------------------------|----------------------------------------------|
A|---------------------------------------------|----------------------------------------------|
E|-0---0---0---0---0---0---0---0---0---2---3---|-0----0---0---0---0---0---0---0---0---2---3---|


E|----------------------------------------------|----------------------------------------------|
B|----------------------------------------------|----------------------------------------------|
G|----------------------------------------------|----------------------------------------------|
D|----------------------------------------------|----------------------------------------------|
A|----------------------------------------------|----------------------------------------------|
E|-0----0---0---0---0---0---0---0---0---2---3---|-0----0---0---0---0---0---0---0---0---2---3---|


E|----------------------------------------------|----------------------------------------------|
B|----------------------------------------------|----------------------------------------------|
G|----------------------------------------------|----------------------------------------------|
D|----------------------------------------------|----------------------------------------------|
A|----------------------------------------------|----------------------------------------------|
E|-0----0---0---0---0---0---0---0---0---2---3---|-3----3---3---3---3---3---3---3---3---3---3---|


E|----------------------------------------------|----------------------------------------------|
B|----------------------------------------------|----------------------------------------------|
G|----------------------------------------------|----------------------------------------------|
D|----------------------------------------------|----------------------------------------------|
A|----------------------------------------------|----------------------------------------------|
E|-2----2---2---2---2---1---1---1---1---1---1---|-0----0---0---0---0---0---0---0---0---2---3---|


E|----------------------------------------------|----------------------------------------------|
B|----------------------------------------------|----------------------------------------------|
G|----------------------------------------------|----------------------------------------------|
D|----------------------------------------------|----------------------------------------------|
A|----------------------------------------------|----------------------------------------------|
E|-0----0---0---0---0---0---0---0---0---2---3---|-0----0---0---0---0---0---0---0---0---2---3---|


E|----------------------------------------------|----------------------------------------------|
B|----------------------------------------------|----------------------------------------------|
G|----------------------------------------------|----------------------------------------------|
D|----------------------------------------------|----------------------------------------------|
A|----------------------------------------------|----------------------------------------------|
E|-0----0---0---0---0---0---0---0---0---2---3---|-0----0---0---0---0---0---0---0---0---2---3---|


E|-------------|
B|-------------|
G|-------------|
D|-9-----9-----|
A|-7-----7-----|
E|-------------|





Track 3: Guitar 3

E|--------|--------|--------|--------|--------|--------|--------|--------|--------|
B|--------|--------|--------|--------|--------|--------|--------|--------|--------|
G|--------|--------|--------|--------|--------|--------|--------|--------|--------|
D|--------|--------|--------|--------|--------|--------|--------|--------|--------|
A|--------|--------|--------|--------|--------|--------|--------|--------|--------|
E|--------|--------|--------|--------|--------|--------|--------|--------|--------|


E|--------|--------|--------|-8---7---0---------------7---0---0---------------|-8---7---0---------------7---0---0---------------|
B|--------|--------|--------|-------------8---7---0---------------8---7---0---|-------------8---7---0---------------8---7---0---|
G|--------|--------|--------|-------------------------------------------------|-------------------------------------------------|
D|--------|--------|--------|-------------------------------------------------|-------------------------------------------------|
A|--------|--------|--------|-------------------------------------------------|-------------------------------------------------|
E|--------|--------|--------|-------------------------------------------------|-------------------------------------------------|


E|-8---7---0---------------7---0---0---------------|-8---7---0---------------7---0---0---------------|
B|-------------8---7---0---------------8---7---0---|-------------8---7---0---------------8---7---0---|
G|-------------------------------------------------|-------------------------------------------------|
D|-------------------------------------------------|-------------------------------------------------|
A|-------------------------------------------------|-------------------------------------------------|
E|-------------------------------------------------|-------------------------------------------------|


E|-8---7---0---------------8---7---0---------------|-10--8---0---------------10--8---0---------------|
B|-------------0---7---8---------------0---7---8---|-------------0---8---10--------------0---10--8---|
G|-------------------------------------------------|-------------------------------------------------|
D|-------------------------------------------------|-------------------------------------------------|
A|-------------------------------------------------|-------------------------------------------------|
E|-------------------------------------------------|-------------------------------------------------|


E|-8---7---0---------------7---0---0---------------|-8---7---0---------------7---0---0---------------|
B|-------------8---7---0---------------8---7---0---|-------------8---7---0---------------8---7---0---|
G|-------------------------------------------------|-------------------------------------------------|
D|-------------------------------------------------|-------------------------------------------------|
A|-------------------------------------------------|-------------------------------------------------|
E|-------------------------------------------------|-------------------------------------------------|


E|-8---7---0---------------7---0---0---------------|-8---7---0---------------7---0---0---------------|
B|-------------8---7---0---------------8---7---0---|-------------8---7---0---------------8---7---0---|
G|-------------------------------------------------|-------------------------------------------------|
D|-------------------------------------------------|-------------------------------------------------|
A|-------------------------------------------------|-------------------------------------------------|
E|-------------------------------------------------|-------------------------------------------------|


E|-8---7---0---------------7---0---0---------------|-------------|
B|-------------8---7---0---------------8---7---0---|-5-----5-----|
G|-------------------------------------------------|-------------|
D|-------------------------------------------------|-------------|
A|-------------------------------------------------|-------------|
E|-------------------------------------------------|-------------|





Track 4: Untitled

G|--------|--------|--------|--------|---------------------------------------------|
D|--------|--------|--------|--------|---------------------------------------------|
A|--------|--------|--------|--------|---------------------------------------------|
E|--------|--------|--------|--------|-0---0---0---0---0---0---0---0---0---2---3---|


G|---------------------------------------------|---------------------------------------------|
D|---------------------------------------------|---------------------------------------------|
A|---------------------------------------------|---------------------------------------------|
E|-0---0---0---0---0---0---0---0---0---2---3---|-0---0---0---0---0---0---0---0---0---2---3---|


G|---------------------------------------------|---------------------------------------------|
D|---------------------------------------------|---------------------------------------------|
A|---------------------------------------------|---------------------------------------------|
E|-0---0---0---0---0---0---0---0---0---2---3---|-3---3---3---3---3---3---3---3---3---3---3---|


G|---------------------------------------------|---------------------------------------------|
D|---------------------------------------------|---------------------------------------------|
A|---------------------------------------------|---------------------------------------------|
E|-2---2---2---2---2---1---1---1---1---1---1---|-0---0---0---0---0---0---0---0---0---2---3---|


G|---------------------------------------------|----------------------------------------------|
D|---------------------------------------------|----------------------------------------------|
A|---------------------------------------------|----------------------------------------------|
E|-0---0---0---0---0---0---0---0---0---2---3---|-0----0---0---0---0---0---0---0---0---2---3---|


G|----------------------------------------------|----------------------------------------------|
D|----------------------------------------------|----------------------------------------------|
A|----------------------------------------------|----------------------------------------------|
E|-0----0---0---0---0---0---0---0---0---2---3---|-0----0---0---0---0---0---0---0---0---2---3---|


G|----------------------------------------------|----------------------------------------------|
D|----------------------------------------------|----------------------------------------------|
A|----------------------------------------------|----------------------------------------------|
E|-0----0---0---0---0---0---0---0---0---2---3---|-3----3---3---3---3---3---3---3---3---3---3---|


G|----------------------------------------------|----------------------------------------------|
D|----------------------------------------------|----------------------------------------------|
A|----------------------------------------------|----------------------------------------------|
E|-2----2---2---2---2---1---1---1---1---1---1---|-0----0---0---0---0---0---0---0---0---2---3---|


G|----------------------------------------------|----------------------------------------------|
D|----------------------------------------------|----------------------------------------------|
A|----------------------------------------------|----------------------------------------------|
E|-0----0---0---0---0---0---0---0---0---2---3---|-0----0---0---0---0---0---0---0---0---2---3---|


G|----------------------------------------------|----------------------------------------------|
D|----------------------------------------------|----------------------------------------------|
A|----------------------------------------------|----------------------------------------------|
E|-0----0---0---0---0---0---0---0---0---2---3---|-0----0---0---0---0---0---0---0---0---2---3---|


G|-------------|
D|-------------|
A|-7-----7-----|
E|-------------|