Menu:

 

Search:

 

megadeth - hook in mouth:

 



/---------------------------------------------------------------------------
/ The following is the author's own interpretation of the song, to be used -
/ for studying or private use only, removal of any part of this ten line   -
/ header is illegal!!!  Removal of the transcribers name or anything       -
/ relevant to the transcriber is also illegal, as so is the removal of the -
/ place inwhich the tab was downloaded. Publishing as well as printing of  -
/ the tab is illegal without permission of the transcriber and copyright   -
/ owner of the song. Failure to apply to these laws result will in legal   -
/ action from the appropriate parties.                                     -
/---------------------------------------------------------------------------

downloaded from Displacer's Tablature Site at
        http://www.dsrmusic.com/metaltab
join the death/black tab emailing list by filling out the free
subscription form at http://www.dsrmusic.com/metaltab/join.htm

Artist: Megadeth 
Album: So far, so good... so what!
Song: Hook in Mouth


Transcribed by: Lee Metcalfe
Source: http://www.nebula.on.ca/heer/fivemagics/index.html
        http://megadeth.rockmetal.art.pl





Standard Tuning

Intro:
------

e---|--------------------------------|--------------------------------|
B---|--------------------------------|--------------------------------|
G---|--------------------------------|--------------------------------|
D---|--------------------------------|--------------------------------|
A---|----8---5---7-------8---7---5---|----8---5---7-------8---7---5---|
E---|----6---3---5-------6---5---3---|----6---3---5-------6---5---3---|

Verse 1:
--------

|--------------------------------|
|--------------------------------|
|--------------------------------|
|--------------------------------|
|2-------------------------------|
|0-------------------------------|

Bass & Drums for a while, about 30 bars.

|--------------------------------|
|--------------------------------|
|--------------------------------|
|--------------------------------|
|----8---5---7-------8---7---5---|
|----6---3---5-------6---5---3---|


||--------------------------------|--------------------------------|
||--------------------------------|--------------------------------|
||--------------------------------|--------------------------------|
||--------------------------------|--------------------------------|
||8-----------7---------------5---|--------------------------------|
||6---0---0---5---0---0---0---3---|0---0---0---0---0---0---0---0---|
      .   .       .   .   .        .   .   .   .   .   .   .   .

                                                             Play 4x
|--------------------------------|--------------------------------||
|--------------------------------|--------------------------------||
|--------------------------------|--------------------------------||
|--------------------------------|--------------------------------||
|8-----------7---------------5---|----8---5---7-------8---7---5---||
|6---0---0---5---0---0---0---3---|----6---3---5-------6---5---3---||
     .   .       .   .   .

Bridge:
-------
                             Play 4x
||--------------------------------||
||--------------------------------||
||--------------------------------||
||--------------------------------||
||----8---5---7-------8---7---5---||
||----6---3---5-------6---5---3---||


||--------------------------------|--------------------------------|
||--------------------------------|--------------------------------|
||--------------------------------|--------------------------------|
||--------------------------------|--------------------------------|
||0h1---------1h2-----------------|2h3---------3h4-----------------|
||----0-0-0-0-----0-0-0-0-0-0-0-0-|----0-0-0-0-----0-0-0-0-0-0-0-0-|
      . . . .     . . . . . . . .      . . . .     . . . . . . . .

                                                             Play 3x
|--------------------------------|--------------------------------||
|--------------------------------|--------------------------------||
|9-------------------------------|--------------------------------||
|9-------------------------------|--------------------------------||
|7-------------------------------|--------------------------------||
|--------------------------------|--------------------------------||

|--------------------------------|--------------------------------|
|--------------------------------|--------------------------------|
|--------------------------------|--------------------------------|
|--------------------------------|--------------------------------|
|0h1---------1h2-----------------|2h3---------3h4-----------------|
|----0-0-0-0-----0-0-0-0-0-0-0-0-|----0-0-0-0-----0-0-0-0-0-0-0-0-|
     . . . .     . . . . . . . .      . . . .     . . . . . . . .

|--------------------------------|--------------------------------|
|--------------------------------|--------------------------------|
|9---9-------9-------------------|--------------------------------|
|9---9-------9-------10------9---|----5-------2---3---------------|
|7---7-------7-------10------9---|----5-------2---3---------------|
|--------------------8-------7---|----3-------0---1---------------|

|--------------------------------|--------------------------------|
|--------------------------------|--------------------------------|
|--------------------------------|--------------------------------|
|--------------------------------|--------------------------------|
|--------------------------------|--------------------------------|
|--------------------------------|--------------------------------|

Interlude:
----------

Double time

Half mute throughout.

(Guitar1)------------------------|--------------------------------|
|--------------------------------|--------------------------------|
|--------------------------------|--------------------------------|
|--------------------------------|----7---------------------------|
|7---9---10--9---10--9---7---9---|10------10--9---10--9---7---9---|
|--------------------------------|--------------------------------|

|--------------------------------|--------------------------------|
|--------------------------------|--------------------------------|
|--------------------------------|7-------------------------------|
|--------------------------------|----9---10--7---9-------7-------|
|7---9---10--9---10--9---7---9---|--------------------10------9---|
|--------------------------------|--------------------------------|

|--------------------------------|--------------------------------|
|--------------------------------|--------------------------------|
|--------------------------------|--------------------------------|
|--------------------------------|----7---------------------------|
|7---9---10--9---10--9---7---9---|10------10--9---10--9---7---9---|
|--------------------------------|--------------------------------|

|--------------------------------|--------------------------------|
|--------------------------------|----10--------------------------|
|------------------------9---11--|12------12--11--12--10--9---10--|
|------------7---9---10----------|--------------------------------|
|7---9---10----------------------|--------------------------------|
|--------------------------------|--------------------------------|

|--------------------------------|--------------------------------|
|--------------------------------|----10--------------------------|
|9---10--12--10--12--10--9---10--|12------12--11--12--10--9---10--|
|--------------------------------|--------------------------------|
|--------------------------------|--------------------------------|
|--------------------------------|--------------------------------|

|--------10----------------------|--------------------------------|
|12--13------13--12--10--12--13--|12--10--12------10--------------|
|--------------------------------|------------12------11--12--9---|
|--------------------------------|--------------------------------|
|--------------------------------|--------------------------------|
|--------------------------------|--------------------------------|

|--------------------------------|--------------------------------|
|--------------------------------|----10--------------------------|
|9---10--12--10--12--10--9---10--|12------12--11--12--10--9---10--|
|--------------------------------|--------------------------------|
|--------------------------------|--------------------------------|
|--------------------------------|--------------------------------|

|--------------------------------|--------------------------------|
|--------------------------------|--------------------------------|
|12--11--12--9---11--9---11--7---|9---7---------------------------|
|--------------------------------|--------10--9---7---------------|
|--------------------------------|--------------------10--9---7---|
|--------------------------------|--------------------------------|

Tapping Solo: (Guitar 2 is spaced out for clear reading)
-------------

(Guitar1)------------------------|
|--------------------------------|
|--------------------------------|
|--------------------------------|
|7--\----------------------------|
|--------------------------------|
|
|                                    ___3___  ___3___
|                                    |  T  |  |  T  |
|T P  P   T P  P   T P  P   T P  P   T P  P   T P  P
|19-15-12-20-15-12-19-15-12-20-15-12-19-15-12-20-15-12-|
|------------------------------------------------------|
|------------------------------------------------------|
|------------------------------------------------------|
|------------------------------------------------------|
|------------------------------------------------------|
                                     ___3___  ___3___
                                     |  T  |  |  T  |
 T P  P   T P  P   T P  P   T P  P   T P  P   T P  P
|18-14-12-19-14-12-18-14-12-19-14-12-18-14-12-19-14-12-|
|------------------------------------------------------|
|------------------------------------------------------|
|------------------------------------------------------|
|------------------------------------------------------|
|------------------------------------------------------|
                                     ___3___  ___3___
                                     |  T  |  |  T  |
 T P  P   T P  P   T P  P   T P  P   T P  P   T P  P
|17-13-10-18-13-10-17-13-10-18-13-10-17-13-10-18-13-10-|
|------------------------------------------------------|
|------------------------------------------------------|
|------------------------------------------------------|
|------------------------------------------------------|
|------------------------------------------------------|
                                     ___3___  ___3___
                                     |  T  |  |  T  |
 T P  P   T P  P   T P  P   T P  P   T P  P   T P  P
|16-12-10-17-12-10-16-12-10-17-12-10-16-12-10-17-12-10-|
|------------------------------------------------------|
|------------------------------------------------------|
|------------------------------------------------------|
|------------------------------------------------------|
|------------------------------------------------------|
                                     ___3___  ___3___
                                     |  T  |  |  T  |
 T P  P   T P  P   T P  P   T P  P   T P  P   T P  P
|15-11--8-16-11--8-15-11--8-16-11--8-15-11--8-16-11--8-|
|------------------------------------------------------|
|------------------------------------------------------|
|------------------------------------------------------|
|------------------------------------------------------|
|------------------------------------------------------|
                                     ___3___  ___3___
                                     |  T  |  |  T  |
 T P  P   T P  P   T P  P   T P  P   T P  P   T P  P
|14-10--8-15-10--8-14-10--8-15-10--8-14-10--8-15-10--8-|
|------------------------------------------------------|
|------------------------------------------------------|
|------------------------------------------------------|
|------------------------------------------------------|
|------------------------------------------------------|
                                     ___3___  ___3___
                                     |  T  |  |  T  |
 T P  P   T P  P   T P  P   T P  P   T P  P   T P  P
|13--9--6-14--9--6-13--9--6-14--9--6-13--9--6-14--9--6-|
|------------------------------------------------------|
|------------------------------------------------------|
|------------------------------------------------------|
|------------------------------------------------------|
|------------------------------------------------------|

                                     ___3___  ___3___
                                     |  T  |  |  T  |
 T P  P   T P  P   T P  P   T P  P   T P  P   T P  P
|12--8--6-13--8--6-12--8--6-13--8--6-12--8--6-13--8--6-|
|------------------------------------------------------|
|------------------------------------------------------|
|------------------------------------------------------|
|------------------------------------------------------|
|------------------------------------------------------|

Chorus:
-------

|--------------------------------|--------------------------------|
|--------------------------------|--------------------------------|
|12------------------------------|10------------------------------|
|12------------------------------|10------------------------------|
|10------------------------------|8-------------------------------|
|--------------------------------|--------------------------------|

|--------------------------------|--------------------------------|
|--------------------------------|--------------------------------|
|9-------------------------------|--------------------------------|
|9-------------------------------|--------------------------------|
|7-------------------------------|----------------5-h-7---7-h-8---|
|--------------------------------|--------------------------------|

|--------------------------------|--------------------------------|
|--------------------------------|--------------------------------|
|12------------------------------|10------------------------------|
|12------------------------------|10----------------------10------|
|10------------------------------|8---------------10------8-------|
|--------------------------------|----------------8---------------|

|--------------------------------|--------------------------------|
|--------------------------------|--------------------------------|
|9-------------------------------|--------------------------------|
|9-------------------------------|----10------9-------5-------2---|
|7-------------------------------|----10------9-------5-------2---|
|--------------------------------|----8-------7-------3-------0---|

|--------------------------------|--------------------------------|
|--------------------------------|--------------------------------|
|12------------------------------|10------------------------------|
|12------------------------------|10------------------------------|
|10------------------------------|8-------------------------------|
|--------------------------------|--------------------------------|

|--------------------------------|--------------------------------|
|--------------------------------|--------------------------------|
|9-------------------------------|--------------------------------|
|9-------------------------------|--------------------------------|
|7-------------------------------|----------------5-h-7---7-h-8---|
|--------------------------------|--------------------------------|

|--------------------------------|--------------------------------|
|--------------------------------|--------------------------------|
|12------------------------------|10------------------------------|
|12------------------------------|10----------------------10------|
|10------------------------------|8---------------10------8-------|
|--------------------------------|----------------8---------------|

|--------------------------------|--------------------------------|
|--------------------------------|--------------------------------|
|9---9-------9-------------------|--------------------------------|
|9---9-------9-------10------9---|----5-------2---3---------------|
|7---7-------7-------10------9---|----5-------2---3---------------|
|--------------------8-------7---|----3-------0---1---------------|

*******************************************************************

(Here's the structure for the rest of the song...)

Interlude:
----------

Tapping Solo:
-------------

Chorus: Play 2x
-------

*******************************************************************

Verse 2:
--------

|--------------------------------|
|--------------------------------|
|--------------------------------|
|(3)-----------------------------|
|(3)-----------------------------|
|(1)-----------------------------|

Bass & Drums for half a while , about 14 bars.

|--------------------------------|
|--------------------------------|
|--------------------------------|
|--------------------------------|
|----8---5---7-------8---7---5---|
|----6---3---5-------6---5---3---|


||--------------------------------|--------------------------------|
||--------------------------------|--------------------------------|
||--------------------------------|--------------------------------|
||--------------------------------|--------------------------------|
||8-----------7---------------5---|--------------------------------|
||6---0---0---5---0---0---0---3---|0---0---0---0---0---0---0---0---|
      .   .       .   .   .        .   .   .   .   .   .   .   .

                                                             Play 4x
|--------------------------------|--------------------------------||
|--------------------------------|--------------------------------||
|--------------------------------|--------------------------------||
|--------------------------------|--------------------------------||
|8-----------7---------------5---|----8---5---7-------8---7---5---||
|6---0---0---5---0---0---0---3---|----6---3---5-------6---5---3---||
     .   .       .   .   .

Out:
----
                             Play 4x
||--------------------------------||---------------|
||--------------------------------||---------------|
||--------------------------------||---------------|
||--------------------------------||---------------|
||----8---5---7-------8---7---5---||2--------------|
||----6---3---5-------6---5---3---||0--------------|