Menu:

 

Search:

 

megadeth - holy wars the punishment due:

 



Title: Holy Wars...The Punishment Due
Artist: 
Album: Rust In Peace
Author: Dave Mustaine


Track 1: Untitled

E|--------------|-----------------------------------------|-------------------|-----------------------------------------|
B|--------------|-----------------------------------------|-------------------|-----------------------------------------|
G|--------------|-----------------------------------------|-------------------|-----------------------------------------|
D|--------------|-----------------------------------------|-------------------|-----------------------------------------|
A|--------5--6--|-7---------------------------------------|-2-----2-----5--6--|-7-----------------------------3---------|
E|--------------|-----5--6--7---7--6--5---5--5--3---3--3--|-0-----0-----------|-----5--6--7---7--6--5---5--5--3---3--3--|


E|------------------|-----------------------------------------|-----------------------------------------|
B|------------------|-----------------------------------------|-----------------------------------------|
G|------------------|-----------------------------------------|-----------------------------------------|
D|------------------|-----------------------------------2--3--|-4---------------------------------------|
A|-4----------5--6--|-7---------------------------------------|-----3--4--5---5--4--3---3--3--2---5--6--|
E|-2----------------|-----5--6--7---7--6--5---5--5--3---------|-----------------------------------------|


E|-----------------------------------------|---------------------------------------------|
B|-----------------------------------------|---------------------------------------------|
G|-----------------------------------------|---------------------------------------------|
D|-----------------------------------------|---------------------------------------------|
A|-7---------------------------------5--6--|-7-------------10-7--------------------------|
E|-----5--6--7---7--6--5---5--5--3---------|-----0--0--0---------0--0--0--0--0--0--0--0--|


E|-------------------------------------------|-----------------------------------------------|
B|-------------------------------------------|-----------------------------------------------|
G|-------------------------------------------|-----------------------------------------------|
D|-------------------------------------------|-----------------------------------------------|
A|-5--7------------5--7--------------7---8---|-5--7------------10-7--------------------------|
E|-------0--0--0---------0--0--0--0--5---6---|-------0--0--0---------0--0--0--0--0--0--0--0--|


E|-------------------------------------------|-----------------------------------------------|
B|-------------------------------------------|-----------------------------------------------|
G|-------------------------------------------|-----------------------------------------------|
D|-----------------------------------10------|-----------------------------------------------|
A|-5--7------------5--7--------------8---9---|-5--7------------10-7--------------------------|
E|-------0--0--0---------0--0--0--0------7---|-------0--0--0---------0--0--0--0--0--0--0--0--|


E|-------------------------------------------|-----------------------------------------------|
B|-------------------------------------------|-----------------------------------------------|
G|-------------------------------------------|-----------------------------------------------|
D|-----------------------------------4-------|-----------------------------------------------|
A|-5--7------------5--7--------------2---5---|-5--7------------10-7-----------------------9--|
E|-------0--0--0---------0--0--0--0------3---|-------0--0--0---------0--0--0--0--0--0--0--7--|


E|---------------------------------------|-----------------|-----------------------------|
B|---------------------------------------|-----------------|-----------------------------|
G|---------------------------------------|-----------------|-----------------------------|
D|---------------------------------------|-4-----4---------|-4------------4--------------|
A|-9---------------8---8---------7---5---|-2-----2---------|-2------------2----5----4----|
E|-7---0--0--0--0--6---6---0--0--5---3---|-------------2---|-------------------3----2----|


E|---------------------------------------------|-------------------------------------------|
B|---------------------------------------------|-------------------------------------------|
G|---------------------------------------------|-------------------------------------------|
D|---------------------------------------------|-------------------------------------------|
A|-7-------------10-7--------------------------|-5--7------------5--7--------------7---8---|
E|-----0--0--0---------0--0--0--0--0--0--0--0--|-------0--0--0---------0--0--0--0--5---6---|


E|-----------------------------------------------|-------------------------------------------|
B|-----------------------------------------------|-------------------------------------------|
G|-----------------------------------------------|-------------------------------------------|
D|-----------------------------------------------|-----------------------------------10------|
A|-5--7------------10-7--------------------------|-5--7------------5--7--------------8---9---|
E|-------0--0--0---------0--0--0--0--0--0--0--0--|-------0--0--0---------0--0--0--0------7---|


E|-----------------------------------------------|-------------------------------------------|
B|-----------------------------------------------|-------------------------------------------|
G|-----------------------------------------------|-------------------------------------------|
D|-----------------------------------------------|-----------------------------------4-------|
A|-5--7------------10-7--------------------------|-5--7------------5--7--------------2---5---|
E|-------0--0--0---------0--0--0--0--0--0--0--0--|-------0--0--0---------0--0--0--0------3---|


E|-----------------------------------------------|---------------------------------------|
B|-----------------------------------------------|---------------------------------------|
G|-----------------------------------------------|---------------------------------------|
D|-----------------------------------------------|---------------------------------------|
A|-5--7------------10-7--------------------------|---------------------------------------|
E|-------0--0--0---------0--0--0--0--0--0--0--7--|-7---0--0--0--0--6---6---0--0--5---3---|


E|-----------------------------------------------|---------------------------------------|
B|-----------------------------------------------|---------------------------------------|
G|-----------------------------------------------|---------------------------------------|
D|-----------------------------------------------|---------------------------------------|
A|-5--7------------10-7-----------------------6--|-6---------------5---5---------4-------|
E|-------0--0--0---------0--0--0--0--0--0--0-----|-----0--0--0--0----------0--0------5---|


E|-----------------------------------------------|---------------------------------------|
B|-----------------------------------------------|---------------------------------------|
G|-----------------------------------------------|---------------------------------------|
D|-----------------------------------------------|---------------------------------------|
A|-5--7------------10-7-----------------------9--|-9---------------8---8---------7-------|
E|-------0--0--0---------0--0--0--0--0--0--0-----|-----0--0--0--0----------0--0------8---|


E|-----------------------------------------------|----------------------------------|
B|-----------------------------------------------|----------------------------------|
G|-----------------------------------------------|----------------------------------|
D|--------------------------------------------9--|-9---------------8---8----7-------|
A|-5--7------------10-7--------------------------|--------------7---------------8---|
E|-------0--0--0---------0--0--0--0--0--0--0-----|-----0--0--0----------------------|


E|-------------------------------|--------------------------|--------|-------------|
B|-------------------------------|--------------------------|--------|-------------|
G|------7-------------------7----|------9-------------------|--------|-------------|
D|-5---------5---------5---------|-7-------------------9----|--------|-------------|
A|----------------7--------------|-----------7----6---------|-7------|-7------9----|
E|-------------------------------|--------------------------|--------|-------------|


E|-------------------------------|-------------------------------|--------|-------------|
B|-------------------------------|-------------------------------|--------|-------------|
G|------7-------------------7----|-----------8--------------7----|--------|-------------|
D|-5---------5---------5---------|------4--------------3---------|--------|-------------|
A|----------------7--------------|-6--------------5--------------|-7------|-7------9----|
E|-------------------------------|-------------------------------|--------|-------------|


E|-------------------------------|--------------------------|--------|-------------|
B|-------------------------------|--------------------------|--------|-------------|
G|------7-------------------7----|------9-------------------|--------|-------------|
D|-5---------5---------5---------|-7-------------------9----|--------|-------------|
A|----------------7--------------|-----------7----6---------|-7------|-7------9----|
E|-------------------------------|--------------------------|--------|-------------|


E|-------------------------------|-------------------------------|--------------------|
B|-------------------------------|-------------------------------|--------------------|
G|------7-------------------7----|-----------8--------------7----|--------------------|
D|-5---------5---------5---------|------4--------------3---------|--------------------|
A|----------------7--------------|-6--------------5--------------|-5--7----7----7-----|
E|-------------------------------|-------------------------------|--------------------|


E|------------------------|---------------------------------|---------------------------------|
B|------------------------|---------------------------------|---------------------------------|
G|------------------------|---------------------------------|---------------------------------|
D|------------------------|---------------------------------|---------------------------------|
A|-7-----7---7----5---7---|-4---5-------4-----------4---5---|---------5---4-----------4---5---|
E|----------------3---5---|-2---3---0---2---0---0---2---3---|-0---0---3---2---0---0---2---3---|


E|-----------------------------------------------|-------------------------------------------|
B|-----------------------------------------------|-------------------------------------------|
G|-----------------------------------------------|-------------------------------------------|
D|-----------------------------------------------|-------------------------------------------|
A|-5--7------------10-7--------------------------|-5--7------------5--7--------------5---0---|
E|-------0--0--0---------0--0--0--0--0--0--0--0--|-------0--0--0---------0--0--0--0--3---0---|


E|---------------------------------|---------------------------------|-----------------------------------------------|
B|---------------------------------|---------------------------------|-----------------------------------------------|
G|---------------------------------|---------------------------------|-----------------------------------------------|
D|---------------------------------|---------------------------------|-----------------------------------------------|
A|-1---2-------1-----------1---2---|---------2---1-----------1---2---|-5--7------------10-7--------------------------|
E|-2---3---0---2---0---0---2---3---|-0---0---3---2---0---0---2---3---|-------0--0--0---------0--0--0--0--0--0--0--0--|


E|-------------------------------------------|---------------------------------|---------------------------------|
B|-------------------------------------------|---------------------------------|---------------------------------|
G|-------------------------------------------|---------------------------------|---------------------------------|
D|-------------------------------------------|---------------------------------|---------------------------------|
A|-5--7------------5--7--------------5---7---|-4---5-------4-----------4---5---|---------5---4-----------4---5---|
E|-------0--0--0---------0--0--0--0--3---5---|-2---3---0---2---0---0---2---3---|-0---0---3---2---0---0---2---3---|


E|-----------------------------------------------|-------------------------------------------|
B|-----------------------------------------------|-------------------------------------------|
G|-----------------------------------------------|-------------------------------------------|
D|-----------------------------------------------|-------------------------------------------|
A|-5--7------------10-7--------------------------|-5--7------------5--7--------------5---0---|
E|-------0--0--0---------0--0--0--0--0--0--0--0--|-------0--0--0---------0--0--0--0--3---0---|


E|---------------------------------|-------------------------------------|-------------------------------------|
B|---------------------------------|-------------------------------------|-------------------------------------|
G|---------------------------------|-------------------------------------|---------------4-------3-------------|
D|---------------------------------|-------------------------------------|---------------5-------4-------------|
A|-1---2-------1-----------4---5---|---------5---4--------------------5--|-7-----------------------------5--6--|
E|-2---3---0---2---0---0---2---3---|-0---0---3---2---0---0---5--7--8-----|-----0--0--0-------------------------|


E|-----------------------------------|-------------------------------------|---------------------------------|
B|-----------------------------------|-------------------------------------|---------------------------------|
G|-----------------------------------|-------------------------------------|---------------------------------|
D|-----------------------------------|-------------------------------------|---------------------------------|
A|-7---------------------------5--6--|-7-------------7-------6-------5--6--|-7-----------1---1-------1---2---|
E|-----0---0---6---6---7---6---------|-----0--0--0---3-------2-------------|-----0---0---2---2---0---2---3---|


E|---------------------------------|---------------------------------|-------------------------------------|
B|---------------------------------|---------------------------------|-------------------------------------|
G|---------------------------------|---------------------------------|-------------------------------------|
D|---------------------------------|---------------------------------|-------------------------------------|
A|-4-----------4---4-------2---4---|-5-----------5---5---------------|-----------------5---5---3-----------|
E|-5---0---0---5---5---0---3---5---|-6---0---0---6---6---5---3---5---|-3--0--0--0--0---6---6---5---3---5---|


E|---------------------------------------|-------------------------------------|-----------------------------------|
B|---------------------------------------|-------------------------------------|-----------------------------------|
G|---------------------------------------|---------------4-------3-------------|-----------------------------------|
D|---------------------------------------|---------------5-------4-------------|-----------------------------------|
A|-----------------8---8---7-------5--6--|-7-----------------------------5--6--|-7---------------------------5--6--|
E|-3--0--0--0--0---6---6---5---3---------|-----0--0--0-------------------------|-----0---0---6---6---7---6---------|


E|-------------------------------------|---------------------------------|---------------------------------|
B|-------------------------------------|---------------------------------|---------------------------------|
G|-------------------------------------|---------------------------------|---------------------------------|
D|-------------------------------------|---------------------------------|---------------------------------|
A|-7-------------7-------6-------5--6--|-7-----------1---1-------1---2---|-4-----------4---4-------2---4---|
E|-----0--0--0---3-------2-------------|-----0---0---2---2---0---2---3---|-5---0---0---5---5---0---3---5---|


E|---------------------------------|-------------------------------------|---------------------------------------|
B|---------------------------------|-------------------------------------|---------------------------------------|
G|---------------------------------|-------------------------------------|---------------------------------------|
D|---------------------------------|-------------------------------------|---------------------------------------|
A|-5-----------5---5---------------|-----------------5---5---3-----------|-----------------8---8---7-------5--6--|
E|-6---0---0---6---6---5---3---5---|-3--0--0--0--0---6---6---5---3---5---|-3--0--0--0--0---6---6---5---3---------|


E|-------------------------------------|-----------------------------------|-------------------------------------|
B|-------------------------------------|-----------------------------------|-------------------------------------|
G|---------------4-------3-------------|-----------------------------------|-------------------------------------|
D|---------------5-------4-------------|-----------------------------------|-------------------------------------|
A|-7-----------------------------5--6--|-7---------------------------5--6--|-7-------------7-------6-------5--6--|
E|-----0--0--0-------------------------|-----0---0---6---6---7---6---------|-----0--0--0---3-------2-------------|


E|---------------------------------|---------------------------------|---------------------------------|
B|---------------------------------|---------------------------------|---------------------------------|
G|---------------------------------|---------------------------------|---------------------------------|
D|---------------------------------|---------------------------------|---------------------------------|
A|-7-----------1---1-------1---2---|-4-----------4---4-------2---4---|-5-----------5---5---------------|
E|-----0---0---2---2---0---2---3---|-5---0---0---5---5---0---3---5---|-6---0---0---6---6---5---3---5---|


E|-------------------------------------|---------------------------------------|-------------------------------------|
B|-------------------------------------|---------------------------------------|-------------------------------------|
G|-------------------------------------|---------------------------------------|---------------4-------3-------------|
D|-------------------------------------|---------------------------------------|---------------5-------4-------------|
A|-----------------5---5---3-----------|-----------------8---8---7-------5--6--|-7-----------------------------5--6--|
E|-3--0--0--0--0---6---6---5---3---5---|-3--0--0--0--0---6---6---5---3---------|-----0--0--0-------------------------|


E|-----------------------------------|-------------------------------------|---------------------------------|
B|-----------------------------------|-------------------------------------|---------------------------------|
G|-----------------------------------|-------------------------------------|---------------------------------|
D|-----------------------------------|-------------------------------------|---------------------------------|
A|-7---------------------------5--6--|-7-------------7-------6-------5--6--|-7-----------1---1-------1---2---|
E|-----0---0---6---6---7---6---------|-----0--0--0---3-------2-------------|-----0---0---2---2---0---2---3---|


E|---------------------------------|---------------------------------|-------------------------------------|
B|---------------------------------|---------------------------------|-------------------------------------|
G|---------------------------------|---------------------------------|-------------------------------------|
D|---------------------------------|---------------------------------|-------------------------------------|
A|-4-----------4---4-------2---4---|-5-----------5---5---------------|-----------------5---5---3-----------|
E|-5---0---0---5---5---0---3---5---|-6---0---0---6---6---5---3---5---|-3--0--0--0--0---6---6---5---3---5---|


E|---------------------------------------|-----------------------------------------|
B|---------------------------------------|-----------------------------------------|
G|---------------------------------------|-----------------------------------------|
D|---------------------------------------|-----------------------------------------|
A|-----------------8---8---7-------5--6--|-7------------------------------------0--|
E|-3--0--0--0--0---6---6---5---3---------|-----5--6--7---7--6--5---5--5--3---3-----|


E|--------|--------|--------|--------|-----------------------|---------------------------------|
B|--------|--------|--------|--------|-----------------------|---------------------------------|
G|--------|--------|--------|--------|-----------------------|---------------------------------|
D|--------|--------|--------|--------|-----------------------|---------------------------------|
A|--------|--------|--------|--------|-------3---2-------2---|---------3---2-------2-----------|
E|--------|--------|--------|--------|-------3---2---0---2---|-0---2---3---2---2---2---0---0---|


E|------------------------------|---------------------------------|------------------------------|
B|------------------------------|---------------------------------|------------------------------|
G|------------------------------|---------------------------------|------------------------------|
D|------------------------------|---------------------------------|------------------------------|
A|-2---3---5----3---2-------2---|---------3---2-------2-----------|-2---3---5----3---2-------2---|
E|-2---3---5----3---2---0---2---|-0---2---3---2---2---2---0---0---|-2---3---5----3---2---0---2---|


E|---------------------------------|------------------------------|---------------------------------|
B|---------------------------------|------------------------------|---------------------------------|
G|---------------------------------|------------------------------|---------------------------------|
D|---------------------------------|------------------------------|---------------------------------|
A|---------3---2-------2-----------|-2---3---5----3---2-------2---|---------3---2-------2-----------|
E|-0---2---3---2---2---2---0---0---|-2---3---5----3---2---0---2---|-0---2---3---2---2---2---0---0---|


E|------------------------------|-----------------------|------------------------|
B|------------------------------|-----------------------|------------------------|
G|------------------------------|-----------------------|------------------------|
D|----------------------2-------|-4-----------5---5-----|-5----5---------2-------|
A|-2---3---5----2-----------2---|---------3---3---3-----|-3----3-------------2---|
E|-2---3---5----0---0-----------|-----0-----------------|-----------0------------|


E|-----------------0---------------|-0----------------------------|-----------------------|
B|---------------------0-----------|-----0------------------------|-----------------------|
G|---------------------------------|------------------------------|-----------------------|
D|-4-------------------------------|----------------------2-------|-4-----------5---5-----|
A|-2-------2---1-----------1---0---|---------0----------------2---|---------3---3---3-----|
E|-----0---3---2-----------2---1---|---------1---0---0------------|-----0-----------------|


E|------------------------|-----------------0---------------|-0-------------------------------|
B|------------------------|---------------------0-----------|-----0---------------------------|
G|------------------------|---------------------------------|---------------------------------|
D|-5----5---------2-------|-4-------------------------------|-------------------------2-------|
A|-3----3-------------2---|-2-------2---1-----------1---0---|---------0-------2---2-------2---|
E|-----------0------------|-----0---3---2-----------2---1---|---------1---0---0---0-----------|


E|---------------------------------|---------------------------------|-----------------0---------------|
B|---------------------------------|---------------------------------|---------------------0-----------|
G|---------------------------------|---------------------------------|---------------------------------|
D|-4-----------5---5---5---5---5---|-5---5---5---5-----------2-------|-4-------------------------------|
A|---------3---3---3---3---3---3---|-3---3---3---3---2---2-------2---|---------2---1-----------1---0---|
E|-----0---------------------------|-----------------0---0-----------|-----0---3---2-----------2---1---|


E|-0-------------------------------|---------------------------------|---------------------------------|
B|-----0---------------------------|---------------------------------|---------------------------------|
G|---------------------------------|---------------------------------|---------------------------------|
D|-------------------------2-------|-4-----------5---5---5---5---5---|-5---5---5---5-----------2-------|
A|---------0---2---2---2-------2---|---------3---3---3---3---3---3---|-3---3---3---3---2---2-------2---|
E|---------1---0---0---0-----------|-----0---------------------------|-----------------0---0-----------|


E|-----------------0---------------|-0-------------------------------|---------------------------------|
B|---------------------0-----------|-----0---------------------------|---------------------------------|
G|---------------------------------|---------------------------------|---------------------------------|
D|-4-------------------------------|-------------------------2-------|-4-----------5---5---5---5---5---|
A|---------2---1-----------1---0---|---------0---2---2---2-------2---|---------3---3---3---3---3---3---|
E|-----0---3---2-----------2---1---|---------1---0---0---0-----------|-----0---------------------------|


E|---------------------------------|-----------------0---------------|-0-------------------------------|
B|---------------------------------|---------------------0-----------|-----0---------------------------|
G|---------------------------------|---------------------------------|---------------------------------|
D|-5---5---5---5-----------2-------|-4-------------------------------|-------------------------2-------|
A|-3---3---3---3---2---2-------2---|---------2---1-----------1---0---|---------0---2---2---2-------2---|
E|-----------------0---0-----------|-----0---3---2-----------2---1---|---------1---0---0---0-----------|


E|---------------------------------|---------------------------------|-----------------0---------------|
B|---------------------------------|---------------------------------|---------------------0-----------|
G|---------------------------------|---------------------------------|---------------------------------|
D|-4-----------5---5---5---5---5---|-5---5---5---5-----------2-------|-4-------------------------------|
A|---------3---3---3---3---3---3---|-3---3---3---3---2---2-------2---|---------2---1-----------1---0---|
E|-----0---------------------------|-----------------0---0-----------|-----0---3---2-----------2---1---|


E|-0-------------------------------|---------------------------------|---------------------------------|
B|-----0-----------------------0---|-------------------------1-------|-------------------------3---0---|
G|-------------------------0-------|-0-------------------3-------3---|---------------------------------|
D|---------------------0-----------|-----3---0-------3---------------|---------------------------------|
A|---------0---2---2---------------|-------------1-------------------|-1-------3---4-------2-----------|
E|---------1---0-------------------|---------------------------------|-----0---1---2---3---------------|


E|---------------------------------|---------------------------------|---------------------------------|
B|-------------------------1-------|-------------------------3---0---|-------------------------1-------|
G|-0-------------------3-------3---|---------------------------------|-0-------------------3-------3---|
D|-----3---0-------3---------------|---------------------------------|-----3---0-------3---------------|
A|-------------1-------------------|-1-------3---4-------2-----------|-------------1-------------------|
E|---------------------------------|-----0---1---2---3---------------|---------------------------------|


E|---------------------------------|-----------------0---------------|-0-------------------------|
B|-------------------------3---0---|---------------------0-----------|-----0---------------------|
G|---------------------------------|-0-------------------------------|---------------------------|
D|---------------------------------|-----3---------------------------|---------------------------|
A|-1-------3---4-------2-----------|---------2---1-----------1-------|---------0---2-------------|
E|-----0---1---2---3---------------|---------3---2-----------2---1---|---------1---0--------0----|


E|---------------------------------|-------------------------------------|-------------------------0-------|
B|---------------------------------|-----------------5-------------------|-----------------------------0---|
G|---------------------------------|--------------------5----------------|---------------------------------|
D|-2-------4-----------5---5-------|---------5---5---------5-------------|-2-------4-----------------------|
A|-----2-----------3---3---3---3---|-3---3---3---3------------7--2-------|-----2---2-------2---1-----------|
E|-------------0-------------------|-----------------------------0-------|-------------0---3---2-----------|


E|---------0-----------------------|---------------------------------|---------------------------------|
B|-------------0-------------------|---------------------------------|---------------------------------|
G|---------------------------------|---------------------------------|---------------------------------|
D|---------------------------------|-2-------4-----------5---5---5---|-5---5---5---5---5---5-----------|
A|-1---0-----------0---2---2---2---|-----2-----------3---3---3---3---|-3---3---3---3---3---3---2---2---|
E|-2---1-----------1---0---0---0---|-------------0-------------------|-------------------------0---0---|


E|-------------------------0-------|---------0-----------------------|---------------------------------|
B|-----------------------------0---|-------------0-------------------|---------------------------------|
G|---------------------------------|---------------------------------|---------------------------------|
D|-2-------4-----------------------|---------------------------------|-2-------4-----------5---5---5---|
A|-----2-----------2---1-----------|-1---0-----------0---2---2---2---|-----2-----------3---3---3---3---|
E|-------------0---3---2-----------|-2---1-----------1---0---0---0---|-------------0-------------------|


E|---------------------------------|-------------------------0-------|---------0-----------------------|
B|---------------------------------|-----------------------------0---|-------------0-------------------|
G|---------------------------------|---------------------------------|---------------------------------|
D|-5---5---5---5---5---5-----------|-2-------4-----------------------|---------------------------------|
A|-3---3---3---3---3---3---2---2---|-----2-----------2---1-----------|-1---0-----------0---2---2---2---|
E|-------------------------0---0---|-------------0---3---2-----------|-2---1-----------1---0---0---0---|


E|---------------------------------|---------------------------------|-------------------------0-------|
B|---------------------------------|---------------------------------|-----------------------------0---|
G|---------------------------------|---------------------------------|---------------------------------|
D|-2-------4-----------5---5---5---|-5---5---5---5---5---5-----------|-2-------4-----------------------|
A|-----2-----------3---3---3---3---|-3---3---3---3---3---3---2---2---|-----2-----------2---1-----------|
E|-------------0-------------------|-------------------------0---0---|-------------0---3---2-----------|


E|---------0-----------------------|---------------------------------|---------------------------------|
B|-------------0-------------------|---------------------------------|---------------------------------|
G|---------------------------------|---------------------------------|---------------------------------|
D|---------------------------------|-2-------4-----------5---5---5---|-5---5---5---5---5---5-----------|
A|-1---0-----------0---2---2---2---|-----2-----------3---3---3---3---|-3---3---3---3---3---3---2---2---|
E|-2---1-----------1---0---0---0---|-------------0-------------------|-------------------------0---0---|


E|-------------------------0-------|---------0-----------------------|---------------------------------|
B|-----------------------------0---|-------------0-------------------|-----0---------------------------|
G|---------------------------------|---------------------------------|-0-------0-------------------3---|
D|-2-------4-----------------------|-----------------------------0---|-------------3---0-------3-------|
A|-----2-----------2---1-----------|-1---0-----------0---2---2-------|---------------------1-----------|
E|-------------0---3---2-----------|-2---1-----------1---0-----------|---------------------------------|


E|---------------------------------|---------------------------------|---------------------------------|
B|-1-------------------------------|-3---0---------------------------|-1-------------------------------|
G|-----3---------------------------|---------0-------------------3---|-----3---------------------------|
D|---------------------------------|-------------3---0-------3-------|---------------------------------|
A|---------1-------3---4-------2---|---------------------1-----------|---------1-------3---4-------2---|
E|-------------0---1---2---3-------|---------------------------------|-------------0---1---2---3-------|


E|---------------------------------|---------------------------------|-------------------------0-------|
B|-3---0---------------------------|-1-------------------------------|-3---0-----------------------0---|
G|---------0-------------------3---|-----3---------------------------|---------0-----------------------|
D|-------------3---0-------3-------|---------------------------------|-------------3-------------------|
A|---------------------1-----------|---------1-------3---4-------2---|-----------------2---1-----------|
E|---------------------------------|-------------0---1---2---3-------|-----------------3---2-----------|


E|---------0--------------------|-----------------------------------|-------------------------------------|
B|-------------0----------------|-----------------------------------|-------------------------------------|
G|------------------------------|-----------------------------------|-------------------------------------|
D|------------------------------|-----------------------------------|-------------------------------------|
A|-1---------------0---2---2----|-----------------------------------|-----------------2---5---2---4---5---|
E|-2---1-----------1---0---0----|-3---3---3---3---3--3--3---3---3---|-3--3--3---3--3--0---3---0---2---3---|


E|---------------------------------|------------------------------|-----------------------------------|
B|---------------------------------|------------------------------|-----------------------------------|
G|---------------------------------|------------------------------|-----------------------------------|
D|---------------------------------|------------------------------|-----------------------------------|
A|-----4-----------4---5-----------|-5---4-----------4---5---2----|-----------------------------------|
E|-0---2---0---0---2---3---0---0---|-3---2---0---0---2---3---0----|-3---3---3---3---3--3--3---3---3---|


E|-------------------------------------|---------------------------------|------------------------------|
B|-------------------------------------|---------------------------------|------------------------------|
G|-------------------------------------|---------------------------------|------------------------------|
D|-------------------------------------|---------------------------------|------------------------------|
A|---------------------5---2---1---2---|-----1-----------1---2-----------|-2---1-----------1---2---2----|
E|-3--3--3---3--3--0---3---0---2---3---|-0---2---0---0---2---3---0---0---|-3---2---0---0---2---3---0----|


E|-----------------------------------|-------------------------------------|---------------------------------|
B|-----------------------------------|-------------------------------------|---------------------------------|
G|-----------------------------------|-------------------------------------|---------------------------------|
D|-----------------------------------|-------------------------------------|---------------------------------|
A|-----------------------------------|-----------------2---5---2---4---5---|-----4-----------4---5-----------|
E|-3---3---3---3---3--3--3---3---3---|-3--3--3---3--3--0---3---0---2---3---|-0---2---0---0---2---3---0---0---|


E|------------------------------|-----------------------------------|-------------------------------------|
B|------------------------------|-----------------------------------|-------------------------------------|
G|------------------------------|-----------------------------------|-------------------------------------|
D|------------------------------|-----------------------------------|-------------------------------------|
A|-5---4-----------4---5---2----|-----------------------------------|---------------------5---2---1---2---|
E|-3---2---0---0---2---3---0----|-3---3---3---3---3--3--3---3---3---|-3--3--3---3--3--0---3---0---2---3---|


E|---------------------------------|------------------------------|-----------------------------------|
B|---------------------------------|------------------------------|-----------------------------------|
G|---------------------------------|------------------------------|-----------------------------------|
D|---------------------------------|------------------------------|-----------------------------------|
A|-----1-----------1---2-----------|-2---1-----------1---2---2----|-----------------------------------|
E|-0---2---0---0---2---3---0---0---|-3---2---0---0---2---3---0----|-3---3---3---3---3--3--3---3---3---|


E|-------------------------------------|---------------------------------|------------------------------|
B|-------------------------------------|---------------------------------|------------------------------|
G|-------------------------------------|---------------------------------|------------------------------|
D|-------------------------------------|---------------------------------|------------------------------|
A|-----------------2---5---2---4---5---|-----4-----------4---5-----------|-5---4-----------4---5---2----|
E|-3--3--3---3--3--0---3---0---2---3---|-0---2---0---0---2---3---0---0---|-3---2---0---0---2---3---0----|


E|-----------------------------------|-------------------------------------|---------------------------------|
B|-----------------------------------|-------------------------------------|---------------------------------|
G|-----------------------------------|-------------------------------------|---------------------------------|
D|-----------------------------------|-------------------------------------|---------------------------------|
A|-----------------------------------|---------------------5---2---1---2---|-----1-----------1---2-----------|
E|-3---3---3---3---3--3--3---3---3---|-3--3--3---3--3--0---3---0---2---3---|-0---2---0---0---2---3---0---0---|


E|------------------------------|-----------------------------------|-------------------------------------|
B|------------------------------|-----------------------------------|-------------------------------------|
G|------------------------------|-----------------------------------|-------------------------------------|
D|------------------------------|-----------------------------------|-------------------------------------|
A|-2---1-----------1---2---2----|-----------------------------------|-----------------2---5---2---4---5---|
E|-3---2---0---0---2---3---0----|-3---3---3---3---3--3--3---3---3---|-3--3--3---3--3--0---3---0---2---3---|


E|---------------------------------|------------------------------|-----------------------------------|
B|---------------------------------|------------------------------|-----------------------------------|
G|---------------------------------|------------------------------|-----------------------------------|
D|---------------------------------|------------------------------|-----------------------------------|
A|-----4-----------4---5-----------|-5---4-----------4---5---2----|-----------------------------------|
E|-0---2---0---0---2---3---0---0---|-3---2---0---0---2---3---0----|-3---3---3---3---3--3--3---3---3---|


E|-------------------------------------|---------------------------------|------------------------------|
B|-------------------------------------|---------------------------------|------------------------------|
G|-------------------------------------|---------------------------------|------------------------------|
D|-------------------------------------|---------------------------------|------------------------------|
A|---------------------5---2---1---2---|-----1-----------1---2-----------|-2---1-----------1---2---2----|
E|-3--3--3---3--3--0---3---0---2---3---|-0---2---0---0---2---3---0---0---|-3---2---0---0---2---3---0----|


E|-----------------------------------|-------------------------------------|---------------------------------|
B|-----------------------------------|-------------------------------------|---------------------------------|
G|-----------------------------------|-------------------------------------|---------------------------------|
D|-----------------------------------|-------------------------------------|---------------------------------|
A|-----------------------------------|-----------------2---5---2---4---5---|-----4-----------4---5-----------|
E|-3---3---3---3---3--3--3---3---3---|-3--3--3---3--3--0---3---0---2---3---|-0---2---0---0---2---3---0---0---|


E|------------------------------|-----------------------------------|-------------------------------------|
B|------------------------------|-----------------------------------|-------------------------------------|
G|------------------------------|-----------------------------------|-------------------------------------|
D|------------------------------|-----------------------------------|-------------------------------------|
A|-5---4-----------4---5---2----|-----------------------------------|---------------------5---2---1---2---|
E|-3---2---0---0---2---3---0----|-3---3---3---3---3--3--3---3---3---|-3--3--3---3--3--0---3---0---2---3---|


E|---------------------------------|------------------------------|-----------------------------------|
B|---------------------------------|------------------------------|-----------------------------------|
G|---------------------------------|------------------------------|-----------------------------------|
D|---------------------------------|------------------------------|-----------------------------------|
A|-----1-----------1---2-----------|-2---1-----------1---2---2----|-----------------------------------|
E|-0---2---0---0---2---3---0---0---|-3---2---0---0---2---3---0----|-3---3---3---3---3--3--3---3---3---|


E|-------------------------------------|---------------------------------|------------------------------|
B|-------------------------------------|---------------------------------|------------------------------|
G|-------------------------------------|---------------------------------|------------------------------|
D|-------------------------------------|---------------------------------|------------------------------|
A|-----------------2---5---2---4---5---|-----4-----------4---5-----------|-5---4-----------4---5---2----|
E|-3--3--3---3--3--0---3---0---2---3---|-0---2---0---0---2---3---0---0---|-3---2---0---0---2---3---0----|


E|-----------------------------------|-------------------------------------|---------------------------------|
B|-----------------------------------|-------------------------------------|---------------------------------|
G|-----------------------------------|-------------------------------------|---------------------------------|
D|-----------------------------------|-------------------------------------|---------------------------------|
A|-----------------------------------|-----------------2---5---2---4---5---|-----4-----------4---5-----------|
E|-3---3---3---3---3--3--3---3---3---|-3--3--3---3--3--0---3---0---2---3---|-0---2---0---0---2---3---0---0---|


E|---------------------------------|---------------------------------|---------------------------------|
B|---------------------------------|---------------------------------|---------------------------------|
G|---------------------------------|---------------------------------|---------------------------------|
D|---------------------------------|---------------------------------|---------------------------------|
A|-5---4-----------5-------5---7---|---------7-----------5---7-------|-----5---7-----------9---5---7---|
E|-3---2---0---0---3---------------|-0---0-------0---0-----------0---|-0-----------0---0---7-----------|


E|---------------------------------|---------------------------------|---------------------------------|
B|---------------------------------|---------------------------------|---------------------------------|
G|---------------------------------|---------------------------------|---------------------------------|
D|---------------------------------|---------------------------------|---------------------------------|
A|---------7-----------5---7-------|-----5---7-----------9---5---7---|---------7-----------5---7-------|
E|-0---0-------0---0-----------0---|-0-----------0---0---7-----------|-0---0-------0---0-----------0---|


E|---------------------------------|---------------------------------|----------------------------------|
B|---------------------------------|---------------------------------|----------------------------------|
G|---------------------------------|---------------------------------|------------------------------7---|
D|---------------------------------|---------------------------------|-------------------------5--------|
A|-----5---7-----------9---5---7---|---------7-----------5---7-------|-----5---7-----------9------------|
E|-0-----------0---0---7-----------|-0---0-------0---0-----------0---|-0-----------0---0---7------------|


E|----------------------------------|-------------------------|-------------|-------------------------|
B|----------------------------------|-------------------------|-------------|-------------------------|
G|--------------------7---------9---|-------------------------|-------------|---------------------7---|
D|-----5---------5---------7--------|---------------9---------|-------------|----------------5--------|
A|----------7-----------------------|-----7----6---------7----|--------7----|------7----9-------------|
E|----------------------------------|-------------------------|-------------|-------------------------|


E|----------------------------------|------------------------------|-------------|
B|----------------------------------|------------------------------|-------------|
G|--------------------7-------------|-----8--------------7---------|-------------|
D|-----5---------5--------------4---|---------------3--------------|-------------|
A|----------7--------------6--------|----------5--------------7----|--------7----|
E|----------------------------------|------------------------------|-------------|


E|---------------------|----------------------------------|-------------------------|
B|---------------------|----------------------------------|-------------------------|
G|-----------------7---|--------------------7---------9---|-------------------------|
D|------------5--------|-----5---------5---------7--------|---------------9---------|
A|---------------------|----------7-----------------------|-----7----6---------7----|
E|---------------------|----------------------------------|-------------------------|


E|---------------------|---------------------|----------------------------------|------------------------------|
B|---------------------|---------------------|----------------------------------|------------------------------|
G|---------------------|-----------------7---|--------------------7-------------|-----8--------------7---------|
D|---------------------|------------5--------|-----5---------5--------------4---|---------------3--------------|
A|------7---7-----7----|-------9-------------|----------7--------------6--------|----------5--------------7----|
E|---------------------|---------------------|----------------------------------|------------------------------|


E|-------------|---------------------------|-----------------------------------|--------------------------------|
B|-------------|---------------------------|-----------------------------------|--------------------------------|
G|-------------|---------------------------|-----------------------------------|--------------------------------|
D|-------------|---------------------------|-----------------------------------|--------------------------------|
A|--------7----|------7-------9----5---7---|---------7-----------5---7---------|-5---7-----------9----5--7--7---|
E|-------------|----------0---7------------|-0---0-------0---0-----------0--0--|---------0---0---7--------------|


E|-------------------------------------|-------------------------------------|-------------------------------------|
B|-------------------------------------|-------------------------------------|-------------------------------------|
G|-------------------------------------|-------------------------------------|-------------------------------------|
D|-------------------------------------|-------------------------------------|-------------------------------------|
A|-7---7---7---7---7--7--7---5--7--7---|-7---7---7---7---7--7--7---5--7--7---|-7---7---7---7---7--7--7---5--7--7---|
E|-------------------------------------|-------------------------------------|-------------------------------------|


E|---------------------------------|---------------------------------|---------------------------------|
B|---------------------------------|---------------------------------|---------------------------------|
G|---------------------------------|---------------------------------|---------------------------------|
D|---------------------------------|---------------------------------|---------------------------------|
A|-7---7---7---7---5---7---4---5---|-----4-----------4---5-----------|-5---4-----------5-------1---2---|
E|-----------------3---5---2---3---|-0---2---0---0---2---3---0---0---|-3---2---0---0---3---0---2---3---|


E|---------------------------------|---------------------------------|---------------------------------|
B|---------------------------------|---------------------------------|---------------------------------|
G|---------------------------------|---------------------------------|---------------------------------|
D|---------------------------------|---------------------------------|---------------------------------|
A|-----1-----------1---2-----------|-2---1-----------5-------4---5---|-----4-----------4---5-----------|
E|-0---2---0---0---2---3---0---0---|-3---2---0---0---3---5---2---3---|-0---2---0---0---2---3---0---0---|


E|---------------------------------|--------------------|
B|---------------------------------|--------------------|
G|---------------------------------|--------------------|
D|---------------------------------|--------------------|
A|-5---4-----------5-------7-------|-7------------------|
E|-3---2---0---0---3---0-------0---|--------------------|





Track 2: Untitled

E|--------|--------|--------|--------|--------|--------|--------|--------|--------|
B|--------|--------|--------|--------|--------|--------|--------|--------|--------|
G|--------|--------|--------|--------|--------|--------|--------|--------|--------|
D|--------|--------|--------|--------|--------|--------|--------|--------|--------|
A|--------|--------|--------|--------|--------|--------|--------|--------|--------|
E|--------|--------|--------|--------|--------|--------|--------|--------|--------|


E|--------|--------|--------|--------|--------|--------|--------|--------|--------|
B|--------|--------|--------|--------|--------|--------|--------|--------|--------|
G|--------|--------|--------|--------|--------|--------|--------|--------|--------|
D|--------|--------|--------|--------|--------|--------|--------|--------|--------|
A|--------|--------|--------|--------|--------|--------|--------|--------|--------|
E|--------|--------|--------|--------|--------|--------|--------|--------|--------|


E|--------|--------|--------|--------|--------|--------|--------|--------|--------|
B|--------|--------|--------|--------|--------|--------|--------|--------|--------|
G|--------|--------|--------|--------|--------|--------|--------|--------|--------|
D|--------|--------|--------|--------|--------|--------|--------|--------|--------|
A|--------|--------|--------|--------|--------|--------|--------|--------|--------|
E|--------|--------|--------|--------|--------|--------|--------|--------|--------|


E|--------|--------|--------|--------|--------|-----------------------------------------------|
B|--------|--------|--------|--------|--------|-----------------------------------------------|
G|--------|--------|--------|--------|--------|-----------------------------------------------|
D|--------|--------|--------|--------|--------|-----------------------------------------------|
A|--------|--------|--------|--------|--------|-5--7------------10-7--------------------------|
E|--------|--------|--------|--------|--------|-------0--0--0---------0--0--0--0--0--0--0--0--|


E|----------------------------------------|-----------------------------------------------|
B|----------------------------------------|-----------------------------------------------|
G|----------------------------------------|-----------------------------------------------|
D|----------------------------------------|-----------------------------------------------|
A|-5--7------------5--7--------------9----|-5--7------------10-7--------------------------|
E|-------0--0--0---------0--0--0--0--7----|-------0--0--0---------0--0--0--0--0--0--0--0--|


E|----------------------------------------|-----------------------------------------------|
B|----------------------------------------|-----------------------------------------------|
G|----------------------------------------|-----------------------------------------------|
D|----------------------------------------|-----------------------------------------------|
A|-5--7------------5--7--------------9----|-5--7------------10-7--------------------------|
E|-------0--0--0---------0--0--0--0--7----|-------0--0--0---------0--0--0--0--0--0--0--0--|


E|----------------------------------------|-----------------------------------------------|
B|----------------------------------------|-----------------------------------------------|
G|----------------------------------------|-----------------------------------------------|
D|----------------------------------------|-----------------------------------------------|
A|-5--7------------5--7--------------9----|-5--7------------10-7--------------------------|
E|-------0--0--0---------0--0--0--0--7----|-------0--0--0---------0--0--0--0--0--0--0--0--|


E|----------------------------------------|-----------------------------------------------|
B|----------------------------------------|-----------------------------------------------|
G|----------------------------------------|-----------------------------------------------|
D|----------------------------------------|-----------------------------------------------|
A|-5--7------------5--7--------------9----|-5--7------------10-7--------------------------|
E|-------0--0--0---------0--0--0--0--7----|-------0--0--0---------0--0--0--0--0--0--0--0--|


E|----------------------------------------|-----------------------------------------------|
B|----------------------------------------|-----------------------------------------------|
G|----------------------------------------|-----------------------------------------------|
D|----------------------------------------|-----------------------------------------------|
A|-5--7------------5--7--------------9----|-5--7------------10-7--------------------------|
E|-------0--0--0---------0--0--0--0--7----|-------0--0--0---------0--0--0--0--0--0--0--0--|


E|----------------------------------------|-----------------------------------------------|
B|----------------------------------------|-----------------------------------------------|
G|----------------------------------------|-----------------------------------------------|
D|----------------------------------------|-----------------------------------------------|
A|-5--7------------5--7--------------9----|-5--7------------10-7--------------------------|
E|-------0--0--0---------0--0--0--0--7----|-------0--0--0---------0--0--0--0--0--0--0--0--|


E|----------------------------------------|-----------------------------------------------|
B|----------------------------------------|-----------------------------------------------|
G|----------------------------------------|-----------------------------------------------|
D|----------------------------------------|-----------------------------------------------|
A|-5--7------------5--7--------------9----|-5--7------------10-7--------------------------|
E|-------0--0--0---------0--0--0--0--7----|-------0--0--0---------0--0--0--0--0--0--0--0--|


E|-------------------------------------------|---------------------------------|---------------------------------|
B|-------------------------------------------|---------------------------------|---------------------------------|
G|-------------------------------------------|---------------------------------|---------------------------------|
D|-------------------------------------------|---------------------------------|---------------------------------|
A|-5--7------------5--7--------------5---7---|-4---5-------4-----------4---5---|---------5---4-----------4---5---|
E|-------0--0--0---------0--0--0--0--3---5---|-2---3---0---2---0---0---2---3---|-0---0---3---2---0---0---2---3---|


E|--------|--------|--------|--------|--------|--------|--------|--------|--------|
B|--------|--------|--------|--------|--------|--------|--------|--------|--------|
G|--------|--------|--------|--------|--------|--------|--------|--------|--------|
D|--------|--------|--------|--------|--------|--------|--------|--------|--------|
A|--------|--------|--------|--------|--------|--------|--------|--------|--------|
E|--------|--------|--------|--------|--------|--------|--------|--------|--------|


E|--------|--------|--------|-------------------------------------|-----------------------------------|
B|--------|--------|--------|-------------------------------------|-----------------------------------|
G|--------|--------|--------|---------------4-------3-------------|-----------------------------------|
D|--------|--------|--------|---------------5-------4-------------|-----------------------------------|
A|--------|--------|--------|-7-----------------------------5--6--|-7-----------4---4---5---4---5--6--|
E|--------|--------|--------|-----0--0--0-------------------------|-----0---0-------------------------|


E|-------------------------------------|---------------------------------|--------|
B|-------------------------------------|---------------------------------|--------|
G|-------------------------------------|---------------------------------|--------|
D|-------------------------------------|---------------------------------|--------|
A|-7-------------7-------6-------5--6--|-7-----------1---1-------1---2---|--------|
E|-----0--0--0---3-------2-------------|-----0---0---2---2---0---2---3---|--------|


E|--------|--------|--------|-------------------------------------|-----------------------------------|
B|--------|--------|--------|-------------------------------------|-----------------------------------|
G|--------|--------|--------|---------------4-------3-------------|-----------------------------------|
D|--------|--------|--------|---------------5-------4-------------|-----------------------------------|
A|--------|--------|--------|-7-----------------------------5--6--|-7-----------4---4---5---4---5--6--|
E|--------|--------|--------|-----0--0--0-------------------------|-----0---0-------------------------|


E|-------------------------------------|---------------------------------|--------|
B|-------------------------------------|---------------------------------|--------|
G|-------------------------------------|---------------------------------|--------|
D|-------------------------------------|---------------------------------|--------|
A|-7-------------7-------6-------5--6--|-7-----------1---1-------1---2---|--------|
E|-----0--0--0---3-------2-------------|-----0---0---2---2---0---2---3---|--------|


E|--------|--------|--------|--------|--------|--------|--------|--------|--------|
B|--------|--------|--------|--------|--------|--------|--------|--------|--------|
G|--------|--------|--------|--------|--------|--------|--------|--------|--------|
D|--------|--------|--------|--------|--------|--------|--------|--------|--------|
A|--------|--------|--------|--------|--------|--------|--------|--------|--------|
E|--------|--------|--------|--------|--------|--------|--------|--------|--------|


E|--------|--------|-------------------------------------|-----------------------------------|
B|--------|--------|-------------------------------------|-----------------------------------|
G|--------|--------|---------------4-------3-------------|-----------------------------------|
D|--------|--------|---------------5-------4-------------|-----------------------------------|
A|--------|--------|-7-----------------------------5--6--|-7-----------4---4---5---4---5--6--|
E|--------|--------|-----0--0--0-------------------------|-----0---0-------------------------|


E|-------------------------------------|---------------------------------|--------|
B|-------------------------------------|---------------------------------|--------|
G|-------------------------------------|---------------------------------|--------|
D|-------------------------------------|---------------------------------|--------|
A|-7-------------7-------6-------5--6--|-7-----------1---1-------1---2---|--------|
E|-----0--0--0---3-------2-------------|-----0---0---2---2---0---2---3---|--------|


E|--------|--------|--------|--------|--------|--------|--------|--------|--------|
B|--------|--------|--------|--------|--------|--------|--------|--------|--------|
G|--------|--------|--------|--------|--------|--------|--------|--------|--------|
D|--------|--------|--------|--------|--------|--------|--------|--------|--------|
A|--------|--------|--------|--------|--------|--------|--------|--------|--------|
E|--------|--------|--------|--------|--------|--------|--------|--------|--------|


E|--------|--------|--------|--------|--------|--------|--------|--------|--------|
B|--------|--------|--------|--------|--------|--------|--------|--------|--------|
G|--------|--------|--------|--------|--------|--------|--------|--------|--------|
D|--------|--------|--------|--------|--------|--------|--------|--------|--------|
A|--------|--------|--------|--------|--------|--------|--------|--------|--------|
E|--------|--------|--------|--------|--------|--------|--------|--------|--------|


E|--------|--------|--------|--------|--------|--------|--------|--------|--------|
B|--------|--------|--------|--------|--------|--------|--------|--------|--------|
G|--------|--------|--------|--------|--------|--------|--------|--------|--------|
D|--------|--------|--------|--------|--------|--------|--------|--------|--------|
A|--------|--------|--------|--------|--------|--------|--------|--------|--------|
E|--------|--------|--------|--------|--------|--------|--------|--------|--------|


E|--------|--------|--------|--------|--------|--------|--------|--------|--------|
B|--------|--------|--------|--------|--------|--------|--------|--------|--------|
G|--------|--------|--------|--------|--------|--------|--------|--------|--------|
D|--------|--------|--------|--------|--------|--------|--------|--------|--------|
A|--------|--------|--------|--------|--------|--------|--------|--------|--------|
E|--------|--------|--------|--------|--------|--------|--------|--------|--------|


E|--------|--------|--------|--------|--------|--------|--------|--------|--------|
B|--------|--------|--------|--------|--------|--------|--------|--------|--------|
G|--------|--------|--------|--------|--------|--------|--------|--------|--------|
D|--------|--------|--------|--------|--------|--------|--------|--------|--------|
A|--------|--------|--------|--------|--------|--------|--------|--------|--------|
E|--------|--------|--------|--------|--------|--------|--------|--------|--------|


E|--------|--------|--------|--------|--------|--------|--------|--------|--------|
B|--------|--------|--------|--------|--------|--------|--------|--------|--------|
G|--------|--------|--------|--------|--------|--------|--------|--------|--------|
D|--------|--------|--------|--------|--------|--------|--------|--------|--------|
A|--------|--------|--------|--------|--------|--------|--------|--------|--------|
E|--------|--------|--------|--------|--------|--------|--------|--------|--------|


E|--------|--------|--------|--------|--------|--------|--------|--------|--------|
B|--------|--------|--------|--------|--------|--------|--------|--------|--------|
G|--------|--------|--------|--------|--------|--------|--------|--------|--------|
D|--------|--------|--------|--------|--------|--------|--------|--------|--------|
A|--------|--------|--------|--------|--------|--------|--------|--------|--------|
E|--------|--------|--------|--------|--------|--------|--------|--------|--------|


E|--------|--------|--------|--------|--------|--------|--------|--------|--------|
B|--------|--------|--------|--------|--------|--------|--------|--------|--------|
G|--------|--------|--------|--------|--------|--------|--------|--------|--------|
D|--------|--------|--------|--------|--------|--------|--------|--------|--------|
A|--------|--------|--------|--------|--------|--------|--------|--------|--------|
E|--------|--------|--------|--------|--------|--------|--------|--------|--------|


E|--------|--------|--------|--------|--------|--------|--------|--------|--------|
B|--------|--------|--------|--------|--------|--------|--------|--------|--------|
G|--------|--------|--------|--------|--------|--------|--------|--------|--------|
D|--------|--------|--------|--------|--------|--------|--------|--------|--------|
A|--------|--------|--------|--------|--------|--------|--------|--------|--------|
E|--------|--------|--------|--------|--------|--------|--------|--------|--------|


E|--------|--------|--------|--------|--------|--------|--------|--------|--------|
B|--------|--------|--------|--------|--------|--------|--------|--------|--------|
G|--------|--------|--------|--------|--------|--------|--------|--------|--------|
D|--------|--------|--------|--------|--------|--------|--------|--------|--------|
A|--------|--------|--------|--------|--------|--------|--------|--------|--------|
E|--------|--------|--------|--------|--------|--------|--------|--------|--------|


E|--------|--------|--------|--------|--------|--------|--------|--------|--------|
B|--------|--------|--------|--------|--------|--------|--------|--------|--------|
G|--------|--------|--------|--------|--------|--------|--------|--------|--------|
D|--------|--------|--------|--------|--------|--------|--------|--------|--------|
A|--------|--------|--------|--------|--------|--------|--------|--------|--------|
E|--------|--------|--------|--------|--------|--------|--------|--------|--------|


E|--------|--------|--------|--------|--------|--------|--------|--------|--------|
B|--------|--------|--------|--------|--------|--------|--------|--------|--------|
G|--------|--------|--------|--------|--------|--------|--------|--------|--------|
D|--------|--------|--------|--------|--------|--------|--------|--------|--------|
A|--------|--------|--------|--------|--------|--------|--------|--------|--------|
E|--------|--------|--------|--------|--------|--------|--------|--------|--------|


E|--------|--------|--------|--------|--------|--------|--------|--------|--------|
B|--------|--------|--------|--------|--------|--------|--------|--------|--------|
G|--------|--------|--------|--------|--------|--------|--------|--------|--------|
D|--------|--------|--------|--------|--------|--------|--------|--------|--------|
A|--------|--------|--------|--------|--------|--------|--------|--------|--------|
E|--------|--------|--------|--------|--------|--------|--------|--------|--------|


E|--------|--------|--------|--------|--------|--------|--------|--------|--------|
B|--------|--------|--------|--------|--------|--------|--------|--------|--------|
G|--------|--------|--------|--------|--------|--------|--------|--------|--------|
D|--------|--------|--------|--------|--------|--------|--------|--------|--------|
A|--------|--------|--------|--------|--------|--------|--------|--------|--------|
E|--------|--------|--------|--------|--------|--------|--------|--------|--------|


E|--------|--------|--------|--------|--------|--------|----------------|---------------------------------|
B|--------|--------|--------|--------|--------|--------|----------------|---------------------------------|
G|--------|--------|--------|--------|--------|--------|----------------|---------------------------------|
D|--------|--------|--------|--------|--------|--------|----------------|---------------------------------|
A|--------|--------|--------|--------|--------|--------|--------5---7---|---------7-----------5---7-------|
E|--------|--------|--------|--------|--------|--------|----------------|-0---0-------0---0-----------0---|


E|---------------------------------|---------------------------------|---------------------------------|
B|---------------------------------|---------------------------------|---------------------------------|
G|---------------------------------|---------------------------------|---------------------------------|
D|---------------------------------|---------------------------------|---------------------------------|
A|-----5---7-----------9---5---7---|---------7-----------5---7-------|-----5---7-----------9---5---7---|
E|-0-----------0---0---7-----------|-0---0-------0---0-----------0---|-0-----------0---0---7-----------|


E|---------------------------------|---------------------------------|---------------------------------|
B|---------------------------------|---------------------------------|---------------------------------|
G|---------------------------------|---------------------------------|---------------------------------|
D|---------------------------------|---------------------------------|---------------------------------|
A|---------7-----------5---7-------|-----5---7-----------9---5---7---|---------7-----------5---7-------|
E|-0---0-------0---0-----------0---|-0-----------0---0---7-----------|-0---0-------0---0-----------0---|


E|---------------------------------|---------------------------------|---------------------------------|
B|---------------------------------|---------------------------------|---------------------------------|
G|---------------------------------|---------------------------------|---------------------------------|
D|---------------------------------|---------------------------------|---------------------------------|
A|-----5---7-----------9---5---7---|---------7-----------5---7-------|-----5---7-----------9---5---7---|
E|-0-----------0---0---7-----------|-0---0-------0---0-----------0---|-0-----------0---0---7-----------|


E|---------------------------------|---------------------------------|----------------------------------|
B|---------------------------------|---------------------------------|----------------------------------|
G|---------------------------------|---------------------------------|----------------------------------|
D|---------------------------------|---------------------------------|------------------------------4---|
A|---------7-----------5---7-------|-----5---7-----------9---5---7---|---------7-----------5---6--------|
E|-0---0-------0---0-----------0---|-0-----------0---0---7-----------|-0---0-------0---0----------------|


E|---------------------------------|---------------------------------|---------------------------------|
B|---------------------------------|---------------------------------|---------------------------------|
G|-----8--------------7------------|---------------------------------|---------------------------------|
D|---------------3-----------------|---------------------------------|---------------------------------|
A|----------5--------------5---7---|---------7-----------5---7-------|-----5---7-----------9---5---7---|
E|---------------------------------|-0---0-------0---0-----------0---|-0-----------0---0---7-----------|


E|-----------------------------------|---------------------------|--------|--------|
B|-----------------------------------|---------------------------|--------|--------|
G|-----------------------------------|---------------------------|--------|--------|
D|-----------------------------------|---------------------------|--------|--------|
A|---------7-----------5---7---------|-5---7-----------9---------|--------|--------|
E|-0---0-------0---0-----------0--0--|---------0---0---7---------|--------|--------|


E|--------|--------|--------|--------|--------|--------|--------|--------|--------|
B|--------|--------|--------|--------|--------|--------|--------|--------|--------|
G|--------|--------|--------|--------|--------|--------|--------|--------|--------|
D|--------|--------|--------|--------|--------|--------|--------|--------|--------|
A|--------|--------|--------|--------|--------|--------|--------|--------|--------|
E|--------|--------|--------|--------|--------|--------|--------|--------|--------|





Track 3: Untitled

E|--------|--------|--------|--------|--------|--------|--------|--------|--------|
B|--------|--------|--------|--------|--------|--------|--------|--------|--------|
G|--------|--------|--------|--------|--------|--------|--------|--------|--------|
D|--------|--------|--------|--------|--------|--------|--------|--------|--------|
A|--------|--------|--------|--------|--------|--------|--------|--------|--------|
E|--------|--------|--------|--------|--------|--------|--------|--------|--------|


E|--------|--------|--------|--------|--------|--------|--------|--------|--------|
B|--------|--------|--------|--------|--------|--------|--------|--------|--------|
G|--------|--------|--------|--------|--------|--------|--------|--------|--------|
D|--------|--------|--------|--------|--------|--------|--------|--------|--------|
A|--------|--------|--------|--------|--------|--------|--------|--------|--------|
E|--------|--------|--------|--------|--------|--------|--------|--------|--------|


E|--------|--------|--------|--------|--------|--------|--------|--------|--------|
B|--------|--------|--------|--------|--------|--------|--------|--------|--------|
G|--------|--------|--------|--------|--------|--------|--------|--------|--------|
D|--------|--------|--------|--------|--------|--------|--------|--------|--------|
A|--------|--------|--------|--------|--------|--------|--------|--------|--------|
E|--------|--------|--------|--------|--------|--------|--------|--------|--------|


E|--------|--------|--------|--------|--------|--------|--------|--------|--------|
B|--------|--------|--------|--------|--------|--------|--------|--------|--------|
G|--------|--------|--------|--------|--------|--------|--------|--------|--------|
D|--------|--------|--------|--------|--------|--------|--------|--------|--------|
A|--------|--------|--------|--------|--------|--------|--------|--------|--------|
E|--------|--------|--------|--------|--------|--------|--------|--------|--------|


E|--------|--------|--------|--------|--------|--------|--------|--------|--------|
B|--------|--------|--------|--------|--------|--------|--------|--------|--------|
G|--------|--------|--------|--------|--------|--------|--------|--------|--------|
D|--------|--------|--------|--------|--------|--------|--------|--------|--------|
A|--------|--------|--------|--------|--------|--------|--------|--------|--------|
E|--------|--------|--------|--------|--------|--------|--------|--------|--------|


E|--------|--------|--------|--------|--------|--------|--------|--------|--------|
B|--------|--------|--------|--------|--------|--------|--------|--------|--------|
G|--------|--------|--------|--------|--------|--------|--------|--------|--------|
D|--------|--------|--------|--------|--------|--------|--------|--------|--------|
A|--------|--------|--------|--------|--------|--------|--------|--------|--------|
E|--------|--------|--------|--------|--------|--------|--------|--------|--------|


E|--------|--------|--------|--------|--------|--------|--------|--------|--------|
B|--------|--------|--------|--------|--------|--------|--------|--------|--------|
G|--------|--------|--------|--------|--------|--------|--------|--------|--------|
D|--------|--------|--------|--------|--------|--------|--------|--------|--------|
A|--------|--------|--------|--------|--------|--------|--------|--------|--------|
E|--------|--------|--------|--------|--------|--------|--------|--------|--------|


E|--------|--------|--------|--------|--------|--------|--------|--------|--------|
B|--------|--------|--------|--------|--------|--------|--------|--------|--------|
G|--------|--------|--------|--------|--------|--------|--------|--------|--------|
D|--------|--------|--------|--------|--------|--------|--------|--------|--------|
A|--------|--------|--------|--------|--------|--------|--------|--------|--------|
E|--------|--------|--------|--------|--------|--------|--------|--------|--------|


E|--------|--------|--------|--------|--------|--------|-------------------------------------|
B|--------|--------|--------|--------|--------|--------|-------------------------------------|
G|--------|--------|--------|--------|--------|--------|---------------4-------3-------------|
D|--------|--------|--------|--------|--------|--------|---------------5-------4-------------|
A|--------|--------|--------|--------|--------|--------|-7-----------------------------5--6--|
E|--------|--------|--------|--------|--------|--------|-----0--0--0-------------------------|


E|-----------------------------------|-------------------------------------|---------------------------------|
B|-----------------------------------|-------------------------------------|---------------------------------|
G|-----------------------------------|-------------------------------------|---------------------------------|
D|-----------------------------------|-------------------------------------|---------------------------------|
A|-7-----------4---4---5---4---5--6--|-7-------------7-------6-------5--6--|-7-----------1---1-------1---2---|
E|-----0---0-------------------------|-----0--0--0---3-------2-------------|-----0---0---2---2---0---2---3---|


E|--------|--------|--------|--------|--------|--------|--------|--------|--------|
B|--------|--------|--------|--------|--------|--------|--------|--------|--------|
G|--------|--------|--------|--------|--------|--------|--------|--------|--------|
D|--------|--------|--------|--------|--------|--------|--------|--------|--------|
A|--------|--------|--------|--------|--------|--------|--------|--------|--------|
E|--------|--------|--------|--------|--------|--------|--------|--------|--------|


E|--------|--------|--------|--------|--------|--------|--------|--------|--------|
B|--------|--------|--------|--------|--------|--------|--------|--------|--------|
G|--------|--------|--------|--------|--------|--------|--------|--------|--------|
D|--------|--------|--------|--------|--------|--------|--------|--------|--------|
A|--------|--------|--------|--------|--------|--------|--------|--------|--------|
E|--------|--------|--------|--------|--------|--------|--------|--------|--------|


E|--------|--------|--------|--------|--------|--------|--------|--------|--------|
B|--------|--------|--------|--------|--------|--------|--------|--------|--------|
G|--------|--------|--------|--------|--------|--------|--------|--------|--------|
D|--------|--------|--------|--------|--------|--------|--------|--------|--------|
A|--------|--------|--------|--------|--------|--------|--------|--------|--------|
E|--------|--------|--------|--------|--------|--------|--------|--------|--------|


E|--------|--------|--------|--------|--------|--------|--------|--------|--------|
B|--------|--------|--------|--------|--------|--------|--------|--------|--------|
G|--------|--------|--------|--------|--------|--------|--------|--------|--------|
D|--------|--------|--------|--------|--------|--------|--------|--------|--------|
A|--------|--------|--------|--------|--------|--------|--------|--------|--------|
E|--------|--------|--------|--------|--------|--------|--------|--------|--------|


E|--------|--------|--------|--------|--------|--------|--------|--------|--------|
B|--------|--------|--------|--------|--------|--------|--------|--------|--------|
G|--------|--------|--------|--------|--------|--------|--------|--------|--------|
D|--------|--------|--------|--------|--------|--------|--------|--------|--------|
A|--------|--------|--------|--------|--------|--------|--------|--------|--------|
E|--------|--------|--------|--------|--------|--------|--------|--------|--------|


E|--------|--------|--------|--------|--------|--------|--------|--------|--------|
B|--------|--------|--------|--------|--------|--------|--------|--------|--------|
G|--------|--------|--------|--------|--------|--------|--------|--------|--------|
D|--------|--------|--------|--------|--------|--------|--------|--------|--------|
A|--------|--------|--------|--------|--------|--------|--------|--------|--------|
E|--------|--------|--------|--------|--------|--------|--------|--------|--------|


E|--------|--------|--------|--------|--------|--------|--------|--------|--------|
B|--------|--------|--------|--------|--------|--------|--------|--------|--------|
G|--------|--------|--------|--------|--------|--------|--------|--------|--------|
D|--------|--------|--------|--------|--------|--------|--------|--------|--------|
A|--------|--------|--------|--------|--------|--------|--------|--------|--------|
E|--------|--------|--------|--------|--------|--------|--------|--------|--------|


E|--------|--------|--------|--------|--------|--------|--------|--------|--------|
B|--------|--------|--------|--------|--------|--------|--------|--------|--------|
G|--------|--------|--------|--------|--------|--------|--------|--------|--------|
D|--------|--------|--------|--------|--------|--------|--------|--------|--------|
A|--------|--------|--------|--------|--------|--------|--------|--------|--------|
E|--------|--------|--------|--------|--------|--------|--------|--------|--------|


E|--------|--------|--------|--------|--------|--------|--------|--------|--------|
B|--------|--------|--------|--------|--------|--------|--------|--------|--------|
G|--------|--------|--------|--------|--------|--------|--------|--------|--------|
D|--------|--------|--------|--------|--------|--------|--------|--------|--------|
A|--------|--------|--------|--------|--------|--------|--------|--------|--------|
E|--------|--------|--------|--------|--------|--------|--------|--------|--------|


E|--------|--------|--------|--------|--------|--------|--------|--------|--------|
B|--------|--------|--------|--------|--------|--------|--------|--------|--------|
G|--------|--------|--------|--------|--------|--------|--------|--------|--------|
D|--------|--------|--------|--------|--------|--------|--------|--------|--------|
A|--------|--------|--------|--------|--------|--------|--------|--------|--------|
E|--------|--------|--------|--------|--------|--------|--------|--------|--------|


E|--------|--------|--------|--------|--------|--------|--------|--------|--------|
B|--------|--------|--------|--------|--------|--------|--------|--------|--------|
G|--------|--------|--------|--------|--------|--------|--------|--------|--------|
D|--------|--------|--------|--------|--------|--------|--------|--------|--------|
A|--------|--------|--------|--------|--------|--------|--------|--------|--------|
E|--------|--------|--------|--------|--------|--------|--------|--------|--------|


E|--------|--------|--------|--------|--------|--------|--------|--------|--------|
B|--------|--------|--------|--------|--------|--------|--------|--------|--------|
G|--------|--------|--------|--------|--------|--------|--------|--------|--------|
D|--------|--------|--------|--------|--------|--------|--------|--------|--------|
A|--------|--------|--------|--------|--------|--------|--------|--------|--------|
E|--------|--------|--------|--------|--------|--------|--------|--------|--------|


E|--------|--------|--------|--------|--------|--------|--------|--------|--------|
B|--------|--------|--------|--------|--------|--------|--------|--------|--------|
G|--------|--------|--------|--------|--------|--------|--------|--------|--------|
D|--------|--------|--------|--------|--------|--------|--------|--------|--------|
A|--------|--------|--------|--------|--------|--------|--------|--------|--------|
E|--------|--------|--------|--------|--------|--------|--------|--------|--------|


E|--------|--------|--------|--------|--------|--------|--------|--------|--------|
B|--------|--------|--------|--------|--------|--------|--------|--------|--------|
G|--------|--------|--------|--------|--------|--------|--------|--------|--------|
D|--------|--------|--------|--------|--------|--------|--------|--------|--------|
A|--------|--------|--------|--------|--------|--------|--------|--------|--------|
E|--------|--------|--------|--------|--------|--------|--------|--------|--------|


E|--------|--------|--------|--------|--------|--------|--------|--------|--------|
B|--------|--------|--------|--------|--------|--------|--------|--------|--------|
G|--------|--------|--------|--------|--------|--------|--------|--------|--------|
D|--------|--------|--------|--------|--------|--------|--------|--------|--------|
A|--------|--------|--------|--------|--------|--------|--------|--------|--------|
E|--------|--------|--------|--------|--------|--------|--------|--------|--------|


E|--------|--------|--------|--------|--------|--------|--------|--------|--------|
B|--------|--------|--------|--------|--------|--------|--------|--------|--------|
G|--------|--------|--------|--------|--------|--------|--------|--------|--------|
D|--------|--------|--------|--------|--------|--------|--------|--------|--------|
A|--------|--------|--------|--------|--------|--------|--------|--------|--------|
E|--------|--------|--------|--------|--------|--------|--------|--------|--------|


E|--------|--------|--------|--------|--------|--------|--------|--------|--------|
B|--------|--------|--------|--------|--------|--------|--------|--------|--------|
G|--------|--------|--------|--------|--------|--------|--------|--------|--------|
D|--------|--------|--------|--------|--------|--------|--------|--------|--------|
A|--------|--------|--------|--------|--------|--------|--------|--------|--------|
E|--------|--------|--------|--------|--------|--------|--------|--------|--------|


E|--------|--------|--------|--------|--------|--------|--------|--------|--------|
B|--------|--------|--------|--------|--------|--------|--------|--------|--------|
G|--------|--------|--------|--------|--------|--------|--------|--------|--------|
D|--------|--------|--------|--------|--------|--------|--------|--------|--------|
A|--------|--------|--------|--------|--------|--------|--------|--------|--------|
E|--------|--------|--------|--------|--------|--------|--------|--------|--------|


E|--------|--------|--------|--------|--------|--------|--------|--------|--------|
B|--------|--------|--------|--------|--------|--------|--------|--------|--------|
G|--------|--------|--------|--------|--------|--------|--------|--------|--------|
D|--------|--------|--------|--------|--------|--------|--------|--------|--------|
A|--------|--------|--------|--------|--------|--------|--------|--------|--------|
E|--------|--------|--------|--------|--------|--------|--------|--------|--------|





Track 4: Untitled

E|--------|--------|--------|--------|--------|--------|--------|--------|--------|
B|--------|--------|--------|--------|--------|--------|--------|--------|--------|
G|--------|--------|--------|--------|--------|--------|--------|--------|--------|
D|--------|--------|--------|--------|--------|--------|--------|--------|--------|
A|--------|--------|--------|--------|--------|--------|--------|--------|--------|
E|--------|--------|--------|--------|--------|--------|--------|--------|--------|


E|--------|--------|--------|--------|--------|--------|--------|--------|--------|
B|--------|--------|--------|--------|--------|--------|--------|--------|--------|
G|--------|--------|--------|--------|--------|--------|--------|--------|--------|
D|--------|--------|--------|--------|--------|--------|--------|--------|--------|
A|--------|--------|--------|--------|--------|--------|--------|--------|--------|
E|--------|--------|--------|--------|--------|--------|--------|--------|--------|


E|--------|--------|--------|--------|--------|--------|--------|--------|--------|
B|--------|--------|--------|--------|--------|--------|--------|--------|--------|
G|--------|--------|--------|--------|--------|--------|--------|--------|--------|
D|--------|--------|--------|--------|--------|--------|--------|--------|--------|
A|--------|--------|--------|--------|--------|--------|--------|--------|--------|
E|--------|--------|--------|--------|--------|--------|--------|--------|--------|


E|--------|--------|--------|--------|--------|--------|--------|--------|--------|
B|--------|--------|--------|--------|--------|--------|--------|--------|--------|
G|--------|--------|--------|--------|--------|--------|--------|--------|--------|
D|--------|--------|--------|--------|--------|--------|--------|--------|--------|
A|--------|--------|--------|--------|--------|--------|--------|--------|--------|
E|--------|--------|--------|--------|--------|--------|--------|--------|--------|


E|--------|--------|--------|--------|--------|--------|--------|--------|--------|
B|--------|--------|--------|--------|--------|--------|--------|--------|--------|
G|--------|--------|--------|--------|--------|--------|--------|--------|--------|
D|--------|--------|--------|--------|--------|--------|--------|--------|--------|
A|--------|--------|--------|--------|--------|--------|--------|--------|--------|
E|--------|--------|--------|--------|--------|--------|--------|--------|--------|


E|--------|--------|--------|--------|--------|--------|--------|--------|--------|
B|--------|--------|--------|--------|--------|--------|--------|--------|--------|
G|--------|--------|--------|--------|--------|--------|--------|--------|--------|
D|--------|--------|--------|--------|--------|--------|--------|--------|--------|
A|--------|--------|--------|--------|--------|--------|--------|--------|--------|
E|--------|--------|--------|--------|--------|--------|--------|--------|--------|


E|--------|--------|--------|--------|--------|--------|--------|--------|--------|
B|--------|--------|--------|--------|--------|--------|--------|--------|--------|
G|--------|--------|--------|--------|--------|--------|--------|--------|--------|
D|--------|--------|--------|--------|--------|--------|--------|--------|--------|
A|--------|--------|--------|--------|--------|--------|--------|--------|--------|
E|--------|--------|--------|--------|--------|--------|--------|--------|--------|


E|--------|--------|--------|--------|--------|--------|--------|--------|--------|
B|--------|--------|--------|--------|--------|--------|--------|--------|--------|
G|--------|--------|--------|--------|--------|--------|--------|--------|--------|
D|--------|--------|--------|--------|--------|--------|--------|--------|--------|
A|--------|--------|--------|--------|--------|--------|--------|--------|--------|
E|--------|--------|--------|--------|--------|--------|--------|--------|--------|


E|--------|--------|--------|--------|--------|--------|--------|--------|--------|
B|--------|--------|--------|--------|--------|--------|--------|--------|--------|
G|--------|--------|--------|--------|--------|--------|--------|--------|--------|
D|--------|--------|--------|--------|--------|--------|--------|--------|--------|
A|--------|--------|--------|--------|--------|--------|--------|--------|--------|
E|--------|--------|--------|--------|--------|--------|--------|--------|--------|


E|--------|--------|--------|--------|--------|--------|--------|--------|--------|
B|--------|--------|--------|--------|--------|--------|--------|--------|--------|
G|--------|--------|--------|--------|--------|--------|--------|--------|--------|
D|--------|--------|--------|--------|--------|--------|--------|--------|--------|
A|--------|--------|--------|--------|--------|--------|--------|--------|--------|
E|--------|--------|--------|--------|--------|--------|--------|--------|--------|


E|--------|--------|--------|--------|--------|--------------------------|---------11-12-11-----11-12----12-10----10-8-----8--|
B|--------|--------|--------|--------|--------|----------------12----10--|-12--13-----------13--------13-------12-------10----|
G|--------|--------|--------|--------|--------|----------9--10-----------|----------------------------------------------------|
D|--------|--------|--------|--------|--------|--------------------------|----------------------------------------------------|
A|--------|--------|--------|--------|--------|--------------------------|----------------------------------------------------|
E|--------|--------|--------|--------|--------|--------------------------|----------------------------------------------------|


E|-7-----7--5-----5--4-----4--5-----5--7--10-7--5-6-5-------------|------------------------------------------------0---|
B|----9--------6--------5--------6--------------------6---3---4---|-5--2--4-5-4-0--3-2-1-0---1-0-------------------0---|
G|----------------------------------------------------------------|------------------------2-----2-1--0------------1---|
D|----------------------------------------------------------------|--------------------------------------4--3--2---2---|
A|----------------------------------------------------------------|----------------------------------------------------|
E|----------------------------------------------------------------|----------------------------------------------------|


E|-0-----------|--------|--------|--------|--------|--------|--------|--------|--------|
B|-0-----------|--------|--------|--------|--------|--------|--------|--------|--------|
G|-1-----------|--------|--------|--------|--------|--------|--------|--------|--------|
D|-2-----------|--------|--------|--------|--------|--------|--------|--------|--------|
A|-------------|--------|--------|--------|--------|--------|--------|--------|--------|
E|-------------|--------|--------|--------|--------|--------|--------|--------|--------|


E|--------|--------|--------|--------|--------|--------|--------|--------|--------|
B|--------|--------|--------|--------|--------|--------|--------|--------|--------|
G|--------|--------|--------|--------|--------|--------|--------|--------|--------|
D|--------|--------|--------|--------|--------|--------|--------|--------|--------|
A|--------|--------|--------|--------|--------|--------|--------|--------|--------|
E|--------|--------|--------|--------|--------|--------|--------|--------|--------|


E|--------|--------|--------|--------|--------|--------|--------|--------|--------|
B|--------|--------|--------|--------|--------|--------|--------|--------|--------|
G|--------|--------|--------|--------|--------|--------|--------|--------|--------|
D|--------|--------|--------|--------|--------|--------|--------|--------|--------|
A|--------|--------|--------|--------|--------|--------|--------|--------|--------|
E|--------|--------|--------|--------|--------|--------|--------|--------|--------|


E|--------|--------|--------|--------|--------|--------|--------|--------|--------|
B|--------|--------|--------|--------|--------|--------|--------|--------|--------|
G|--------|--------|--------|--------|--------|--------|--------|--------|--------|
D|--------|--------|--------|--------|--------|--------|--------|--------|--------|
A|--------|--------|--------|--------|--------|--------|--------|--------|--------|
E|--------|--------|--------|--------|--------|--------|--------|--------|--------|


E|--------|--------|--------|--------|--------|--------|--------|--------|--------|
B|--------|--------|--------|--------|--------|--------|--------|--------|--------|
G|--------|--------|--------|--------|--------|--------|--------|--------|--------|
D|--------|--------|--------|--------|--------|--------|--------|--------|--------|
A|--------|--------|--------|--------|--------|--------|--------|--------|--------|
E|--------|--------|--------|--------|--------|--------|--------|--------|--------|


E|--------|--------|--------|--------|--------|--------|--------|--------|--------|
B|--------|--------|--------|--------|--------|--------|--------|--------|--------|
G|--------|--------|--------|--------|--------|--------|--------|--------|--------|
D|--------|--------|--------|--------|--------|--------|--------|--------|--------|
A|--------|--------|--------|--------|--------|--------|--------|--------|--------|
E|--------|--------|--------|--------|--------|--------|--------|--------|--------|


E|--------|--------|--------|--------|--------|--------|--------|--------|--------|
B|--------|--------|--------|--------|--------|--------|--------|--------|--------|
G|--------|--------|--------|--------|--------|--------|--------|--------|--------|
D|--------|--------|--------|--------|--------|--------|--------|--------|--------|
A|--------|--------|--------|--------|--------|--------|--------|--------|--------|
E|--------|--------|--------|--------|--------|--------|--------|--------|--------|


E|--------|--------|--------|--------|--------|--------|--------|--------|--------|
B|--------|--------|--------|--------|--------|--------|--------|--------|--------|
G|--------|--------|--------|--------|--------|--------|--------|--------|--------|
D|--------|--------|--------|--------|--------|--------|--------|--------|--------|
A|--------|--------|--------|--------|--------|--------|--------|--------|--------|
E|--------|--------|--------|--------|--------|--------|--------|--------|--------|


E|--------|--------|--------|--------|--------|--------|--------|--------|--------|
B|--------|--------|--------|--------|--------|--------|--------|--------|--------|
G|--------|--------|--------|--------|--------|--------|--------|--------|--------|
D|--------|--------|--------|--------|--------|--------|--------|--------|--------|
A|--------|--------|--------|--------|--------|--------|--------|--------|--------|
E|--------|--------|--------|--------|--------|--------|--------|--------|--------|


E|--------|--------|--------|--------|--------|--------|--------|--------|--------|
B|--------|--------|--------|--------|--------|--------|--------|--------|--------|
G|--------|--------|--------|--------|--------|--------|--------|--------|--------|
D|--------|--------|--------|--------|--------|--------|--------|--------|--------|
A|--------|--------|--------|--------|--------|--------|--------|--------|--------|
E|--------|--------|--------|--------|--------|--------|--------|--------|--------|


E|--------|--------|--------|--------|--------|--------|--------|--------|--------|
B|--------|--------|--------|--------|--------|--------|--------|--------|--------|
G|--------|--------|--------|--------|--------|--------|--------|--------|--------|
D|--------|--------|--------|--------|--------|--------|--------|--------|--------|
A|--------|--------|--------|--------|--------|--------|--------|--------|--------|
E|--------|--------|--------|--------|--------|--------|--------|--------|--------|


E|--------|--------|--------|--------|--------|--------|--------|--------|--------|
B|--------|--------|--------|--------|--------|--------|--------|--------|--------|
G|--------|--------|--------|--------|--------|--------|--------|--------|--------|
D|--------|--------|--------|--------|--------|--------|--------|--------|--------|
A|--------|--------|--------|--------|--------|--------|--------|--------|--------|
E|--------|--------|--------|--------|--------|--------|--------|--------|--------|


E|--------|--------|--------|--------|--------|--------|--------|--------|--------|
B|--------|--------|--------|--------|--------|--------|--------|--------|--------|
G|--------|--------|--------|--------|--------|--------|--------|--------|--------|
D|--------|--------|--------|--------|--------|--------|--------|--------|--------|
A|--------|--------|--------|--------|--------|--------|--------|--------|--------|
E|--------|--------|--------|--------|--------|--------|--------|--------|--------|


E|--------|--------|--------|--------|--------|--------|--------|--------|--------|
B|--------|--------|--------|--------|--------|--------|--------|--------|--------|
G|--------|--------|--------|--------|--------|--------|--------|--------|--------|
D|--------|--------|--------|--------|--------|--------|--------|--------|--------|
A|--------|--------|--------|--------|--------|--------|--------|--------|--------|
E|--------|--------|--------|--------|--------|--------|--------|--------|--------|


E|--------|--------|--------|--------|--------|--------|--------|--------|--------|
B|--------|--------|--------|--------|--------|--------|--------|--------|--------|
G|--------|--------|--------|--------|--------|--------|--------|--------|--------|
D|--------|--------|--------|--------|--------|--------|--------|--------|--------|
A|--------|--------|--------|--------|--------|--------|--------|--------|--------|
E|--------|--------|--------|--------|--------|--------|--------|--------|--------|


E|--------|--------|--------|--------|--------|--------|--------|--------|--------|
B|--------|--------|--------|--------|--------|--------|--------|--------|--------|
G|--------|--------|--------|--------|--------|--------|--------|--------|--------|
D|--------|--------|--------|--------|--------|--------|--------|--------|--------|
A|--------|--------|--------|--------|--------|--------|--------|--------|--------|
E|--------|--------|--------|--------|--------|--------|--------|--------|--------|


E|--------|--------|--------|--------|--------|--------|--------|--------|--------|
B|--------|--------|--------|--------|--------|--------|--------|--------|--------|
G|--------|--------|--------|--------|--------|--------|--------|--------|--------|
D|--------|--------|--------|--------|--------|--------|--------|--------|--------|
A|--------|--------|--------|--------|--------|--------|--------|--------|--------|
E|--------|--------|--------|--------|--------|--------|--------|--------|--------|


E|--------|
B|--------|
G|--------|
D|--------|
A|--------|
E|--------|





Track 5: Lead Guitar

E|--------|--------|--------|--------|--------|--------|--------|--------|--------|
B|--------|--------|--------|--------|--------|--------|--------|--------|--------|
G|--------|--------|--------|--------|--------|--------|--------|--------|--------|
D|--------|--------|--------|--------|--------|--------|--------|--------|--------|
A|--------|--------|--------|--------|--------|--------|--------|--------|--------|
E|--------|--------|--------|--------|--------|--------|--------|--------|--------|


E|--------|--------|--------|--------|--------|--------|--------|--------|--------|
B|--------|--------|--------|--------|--------|--------|--------|--------|--------|
G|--------|--------|--------|--------|--------|--------|--------|--------|--------|
D|--------|--------|--------|--------|--------|--------|--------|--------|--------|
A|--------|--------|--------|--------|--------|--------|--------|--------|--------|
E|--------|--------|--------|--------|--------|--------|--------|--------|--------|


E|--------|--------|--------|--------|--------|--------|--------|--------|--------|
B|--------|--------|--------|--------|--------|--------|--------|--------|--------|
G|--------|--------|--------|--------|--------|--------|--------|--------|--------|
D|--------|--------|--------|--------|--------|--------|--------|--------|--------|
A|--------|--------|--------|--------|--------|--------|--------|--------|--------|
E|--------|--------|--------|--------|--------|--------|--------|--------|--------|


E|--------|--------|--------|--------|--------|--------|--------|--------|--------|
B|--------|--------|--------|--------|--------|--------|--------|--------|--------|
G|--------|--------|--------|--------|--------|--------|--------|--------|--------|
D|--------|--------|--------|--------|--------|--------|--------|--------|--------|
A|--------|--------|--------|--------|--------|--------|--------|--------|--------|
E|--------|--------|--------|--------|--------|--------|--------|--------|--------|


E|--------|--------|--------|--------|--------|--------|--------|--------|--------|
B|--------|--------|--------|--------|--------|--------|--------|--------|--------|
G|--------|--------|--------|--------|--------|--------|--------|--------|--------|
D|--------|--------|--------|--------|--------|--------|--------|--------|--------|
A|--------|--------|--------|--------|--------|--------|--------|--------|--------|
E|--------|--------|--------|--------|--------|--------|--------|--------|--------|


E|--------|--------|--------|--------|--------|--------|--------|--------|--------|
B|--------|--------|--------|--------|--------|--------|--------|--------|--------|
G|--------|--------|--------|--------|--------|--------|--------|--------|--------|
D|--------|--------|--------|--------|--------|--------|--------|--------|--------|
A|--------|--------|--------|--------|--------|--------|--------|--------|--------|
E|--------|--------|--------|--------|--------|--------|--------|--------|--------|


E|--------|--------|--------|--------|--------|--------|--------|--------|--------|
B|--------|--------|--------|--------|--------|--------|--------|--------|--------|
G|--------|--------|--------|--------|--------|--------|--------|--------|--------|
D|--------|--------|--------|--------|--------|--------|--------|--------|--------|
A|--------|--------|--------|--------|--------|--------|--------|--------|--------|
E|--------|--------|--------|--------|--------|--------|--------|--------|--------|


E|--------|--------|--------|--------|--------|--------|--------|--------|--------|
B|--------|--------|--------|--------|--------|--------|--------|--------|--------|
G|--------|--------|--------|--------|--------|--------|--------|--------|--------|
D|--------|--------|--------|--------|--------|--------|--------|--------|--------|
A|--------|--------|--------|--------|--------|--------|--------|--------|--------|
E|--------|--------|--------|--------|--------|--------|--------|--------|--------|


E|--------|--------|--------|--------|--------|--------|--------|--------|--------|
B|--------|--------|--------|--------|--------|--------|--------|--------|--------|
G|--------|--------|--------|--------|--------|--------|--------|--------|--------|
D|--------|--------|--------|--------|--------|--------|--------|--------|--------|
A|--------|--------|--------|--------|--------|--------|--------|--------|--------|
E|--------|--------|--------|--------|--------|--------|--------|--------|--------|


E|--------|--------|--------|--------|--------|--------|--------|--------|--------|
B|--------|--------|--------|--------|--------|--------|--------|--------|--------|
G|--------|--------|--------|--------|--------|--------|--------|--------|--------|
D|--------|--------|--------|--------|--------|--------|--------|--------|--------|
A|--------|--------|--------|--------|--------|--------|--------|--------|--------|
E|--------|--------|--------|--------|--------|--------|--------|--------|--------|


E|--------|--------|--------|--------|--------|--------|--------|--------|--------|
B|--------|--------|--------|--------|--------|--------|--------|--------|--------|
G|--------|--------|--------|--------|--------|--------|--------|--------|--------|
D|--------|--------|--------|--------|--------|--------|--------|--------|--------|
A|--------|--------|--------|--------|--------|--------|--------|--------|--------|
E|--------|--------|--------|--------|--------|--------|--------|--------|--------|


E|--------|--------|--------|--------|--------|--------|--------|--------|--------|
B|--------|--------|--------|--------|--------|--------|--------|--------|--------|
G|--------|--------|--------|--------|--------|--------|--------|--------|--------|
D|--------|--------|--------|--------|--------|--------|--------|--------|--------|
A|--------|--------|--------|--------|--------|--------|--------|--------|--------|
E|--------|--------|--------|--------|--------|--------|--------|--------|--------|


E|--------|--------|--------|--------|--------|--------|--------|--------|--------|
B|--------|--------|--------|--------|--------|--------|--------|--------|--------|
G|--------|--------|--------|--------|--------|--------|--------|--------|--------|
D|--------|--------|--------|--------|--------|--------|--------|--------|--------|
A|--------|--------|--------|--------|--------|--------|--------|--------|--------|
E|--------|--------|--------|--------|--------|--------|--------|--------|--------|


E|--------|--------|--------|--------|--------|--------|--------|--------|--------|
B|--------|--------|--------|--------|--------|--------|--------|--------|--------|
G|--------|--------|--------|--------|--------|--------|--------|--------|--------|
D|--------|--------|--------|--------|--------|--------|--------|--------|--------|
A|--------|--------|--------|--------|--------|--------|--------|--------|--------|
E|--------|--------|--------|--------|--------|--------|--------|--------|--------|


E|--------|--------|--------|--------|--------|----------------------------7--|-10-7-----------------6--10-6-----------------10-|
B|--------|--------|--------|--------|--------|-------------------------8-----|-------8-----------6-----------6-----------11----|
G|--------|--------|--------|--------|--------|----------------------7--------|----------7-----7-----------------7-----10-------|
D|--------|--------|--------|--------|--------|----------------5--9-----------|-------------9-----------------------12----------|
A|--------|--------|--------|--------|--------|-------------5-----------------|-------------------------------------------------|
E|--------|--------|--------|--------|--------|-------3--7--------------------|-------------------------------------------------|


E|-13-10----10----13-13--18--18----|-15-------------------20-20---20---|-20-------24--24---24---|
B|-------13----15------------------|----15-17-17-17-17-15--------------|------------------------|
G|---------------------------------|-----------------------------------|------------------------|
D|---------------------------------|-----------------------------------|------------------------|
A|---------------------------------|-----------------------------------|------------------------|
E|---------------------------------|-----------------------------------|------------------------|


E|-24---24--24--24------22-18-15----|--------------------------------------|-----------------------------------------------------|
B|-------------------------------15-|----------------------8---8--10-10-10-|-10-11-11-11-11-13-13-13-18-15-18--15----15-18-15----|
G|----------------------------------|-15-14--------------------------------|--------------------------------------18----------18-|
D|----------------------------------|-------15-12----------5---5--7--7--7--|-7--8--8--8--8--10-10-10-----------------------------|
A|----------------------------------|-------------13-----------------------|-----------------------------------------------------|
E|----------------------------------|--------------------------------------|-----------------------------------------------------|


E|-------------------------------------20--20------|-----------------|-----------17-15-12---------|
B|-------18-15----15-------------------------------|-----------------|--------------------12------|
G|-1715--------18----18-17-15----17-16-------------|-----------------|----------------------------|
D|----------------------------17-------------------|-----------------|----------------------------|
A|-------------------------------------------------|-----------------|----------------------------|
E|-------------------------------------------------|-----------------|----------------------------|


E|-------------|--------|--------|--------|--------|--------|--------|--------|--------|
B|-------------|--------|--------|--------|--------|--------|--------|--------|--------|
G|-------------|--------|--------|--------|--------|--------|--------|--------|--------|
D|-------------|--------|--------|--------|--------|--------|--------|--------|--------|
A|-------------|--------|--------|--------|--------|--------|--------|--------|--------|
E|-------------|--------|--------|--------|--------|--------|--------|--------|--------|


E|--------|--------|--------|--------|-------------|-------------|-------------|-------------|
B|--------|--------|--------|--------|-------------|-------------|-------------|-------------|
G|--------|--------|--------|--------|-------------|-------------|-------------|-------------|
D|--------|--------|--------|--------|-------------|-------------|-------------|-------------|
A|--------|--------|--------|--------|-------------|-------------|-------------|-------------|
E|--------|--------|--------|--------|-------------|-------------|-------------|-------------|


E|------------------------|--------------------------------------|-----6--8--8--8---------------------|
B|------------------------|--------------------------------------|------------------------------------|
G|----------------5--5----|-----5--3-----3-----------------------|-----3--5--5--5--5--7--5----0---5---|
D|------------------------|-----------5-----5--3-----------------|------------------------------------|
A|------------------------|-----------------------5--3-----------|------------------------------------|
E|------------------------|-----------------------------6---6----|------------------------------------|


E|----------------------------------------|------------------------------------|---------------------------22-18----|
B|-----6---8---6--8--6-----6--6---6---6---|------------------------------------|-------18--18---15--18--18-------22-|
G|-7--------------------7-----------------|-7---10--10----------------------15-|-18-15------------------------------|
D|----------------------------------------|---------------------------15-17----|------------------------------------|
A|----------------------------------------|--------------------14--17----------|------------------------------------|
E|----------------------------------------|--------------10-15-----------------|------------------------------------|


E|----------18-15--------------------20---|-20--15-------------------------|------------------------|
B|-18-15-15-------18-15-------------------|--------18-18-------------------|------------------------|
G|----------------------18-19--19-0-------|----------------15--17--17--18--|-18--17--17---17--------|
D|----------------------------------------|--------------------------------|------------------------|
A|----------------------------------------|--------------------------------|------------------------|
E|----------------------------------------|--------------------------------|------------------------|


E|--------|--------|--------|--------|--------|--------|--------|--------|--------|
B|--------|--------|--------|--------|--------|--------|--------|--------|--------|
G|--------|--------|--------|--------|--------|--------|--------|--------|--------|
D|--------|--------|--------|--------|--------|--------|--------|--------|--------|
A|--------|--------|--------|--------|--------|--------|--------|--------|--------|
E|--------|--------|--------|--------|--------|--------|--------|--------|--------|


E|--------|--------|-------------|-------------|---------------------|-------------|
B|--------|--------|-------------|-------------|---------------------|-------------|
G|--------|--------|-------------|-------------|------14---14---14---|--------14---|
D|--------|--------|-------------|-------------|---------------------|-------------|
A|--------|--------|-------------|-------------|---------------------|-------------|
E|--------|--------|-------------|-------------|---------------------|-------------|


E|---------------17-17---|------17-------17--17---|------17----17--17---|-17---17-17---17------17---|
B|-----------------------|------------------------|---------------------|---------------------------|
G|-14---14---------------|-----------14-----------|---------------------|---------------------------|
D|-----------------------|------------------------|---------------------|---------------------------|
A|-----------------------|------------------------|---------------------|---------------------------|
E|-----------------------|------------------------|---------------------|---------------------------|


E|-17---17-17---17------17-15-12-12--|-12-12-----------------------------------------|
B|-----------------------------------|-------17-15-12-17-15-12-17-15-12----12--------|
G|-----------------------------------|----------------------------------15-----15-14-|
D|-----------------------------------|-----------------------------------------------|
A|-----------------------------------|-----------------------------------------------|
E|-----------------------------------|-----------------------------------------------|


E|-------------------------------------------|-------------------------------------------------|
B|-------------------------------------------|-------------------------------------------------|
G|-12-15-14-12-15-14-12----12----------------|-------------------------------------------------|
D|----------------------14-----14--13--12-14-|-13-12----14-13-12-------------------------------|
A|-------------------------------------------|-------14----------14-13----14-13-12-14-13-12----|
E|-------------------------------------------|----------------------------------------------14-|


E|----------------------------------|-----------------------|-------------------------------------|
B|----------------------------------|-----------------------|-------------------------------------|
G|----------------------------------|-----------------------|-------------------------------------|
D|----------------------------------|-----------------------|-------------------------------------|
A|-14-13-12--10--12--10-12-10-------|-----------5---3---0---|-3--0---3--0-------3--0----10-12-10--|
E|-----------------------------0----|-------0---------------|---------------4---------------------|


E|---------------------------------------------|-------------------------------------------------|
B|---------------------------------------------|-------------12-12-15-12-15-15-17-15-17-15-12-15-|
G|---------------------------14----12-14-12-14-|-15-14-12----------------------------------------|
D|-----------12--13--14---------14-------------|----------14-------------------------------------|
A|-12-13-14------------------------------------|-------------------------------------------------|
E|---------------------------------------------|-------------------------------------------------|


E|-------------------------121517----------121517--------|----121517-----------121517--171512-17---|
B|-17-15-12-17-15-12-15-17--------12-15-17---------12-15-|-17---------12-15-17---------------------|
G|-------------------------------------------------------|-----------------------------------------|
D|-------------------------------------------------------|-----------------------------------------|
A|-------------------------------------------------------|-----------------------------------------|
E|-------------------------------------------------------|-----------------------------------------|


E|-17--12--17-15-12------------------------------|-------------------------------------------|
B|------------------17-17-15-12-17-15-12---------|----------------15-14-12-15-12-15-12----12-|
G|---------------------------------------15---12-|-------------------------------------15----|
D|-----------------------------------------------|-15--15-12-14------------------------------|
A|-----------------------------------------------|-------------------------------------------|
E|-----------------------------------------------|-------------------------------------------|


E|-------------------------------------------------|-------------------------------------------------|
B|-15-12-17-12----12-15-12-17-12----12-17-12----12-|-15-12-17-12----12-15-12-17-12----12-17-12----12-|
G|-------------15----------------15----------15----|-------------15----------------15----------15----|
D|-------------------------------------------------|-------------------------------------------------|
A|-------------------------------------------------|-------------------------------------------------|
E|-------------------------------------------------|-------------------------------------------------|


E|-------------------------------------------------|-------------------------------------------------|
B|-15-12-17-12----12-15-12-17-12----12-17-12----12-|-15-12-17-12----12-15-12-17-12----12-15-12----12-|
G|-------------15----------------15----------15----|-------------15----------------15----------16----|
D|-------------------------------------------------|-------------------------------------------------|
A|-------------------------------------------------|-------------------------------------------------|
E|-------------------------------------------------|-------------------------------------------------|


E|-------------------------------------------------|-------------------------------------------------|
B|-17-12----12-15-12----12-17-12----12-15-12----12-|-17-12----12-15-12----12-17-12----12-17-15-12----|
G|-------16----------16----------16----------16----|-------16----------16----------16-------------15-|
D|-------------------------------------------------|-------------------------------------------------|
A|-------------------------------------------------|-------------------------------------------------|
E|-------------------------------------------------|-------------------------------------------------|


E|-------------------------------------------|---------------------------------------------|
B|-12--17-15-12-----12-17-15-12----12--17-15-|-12-----12-17-15-12----12--12----17-15-12----|
G|---------------15-------------15-----------|-----15-------------15--------12----------12-|
D|-------------------------------------------|---------------------------------------------|
A|-------------------------------------------|---------------------------------------------|
E|-------------------------------------------|---------------------------------------------|


E|-------------------------------------------------|-------------------------------------------------|
B|-17-15-12----17-15-12----17-15-12----18-16-13----|-18-16-13----18-16-13----18-16-13----19-17-14----|
G|----------12----------12----------12----------13-|----------13----------13----------13----------14-|
D|-------------------------------------------------|-------------------------------------------------|
A|-------------------------------------------------|-------------------------------------------------|
E|-------------------------------------------------|-------------------------------------------------|


E|-------------------------------------------------|-------------------------------------------------|
B|-19-17-14----19-17-14----19-17-14----20-18-15----|-20-18-15----20-18-15----20-18-15----21-19-16----|
G|----------14----------14----------14----------15-|----------15----------15----------15----------16-|
D|-------------------------------------------------|-------------------------------------------------|
A|-------------------------------------------------|-------------------------------------------------|
E|-------------------------------------------------|-------------------------------------------------|


E|-------------------------------------------------|-------------------------------------22---|
B|-21-19-16----22-20-17----22-20-17----23-21-18----|-23-21-18----24-22-19----24-22-19---------|
G|----------16----------17----------17----------18-|----------18----------19----------19------|
D|-------------------------------------------------|------------------------------------------|
A|-------------------------------------------------|------------------------------------------|
E|-------------------------------------------------|------------------------------------------|


E|------22----22---22--|-----22---22---22--------|-------------|---------------------|
B|---------------------|-------------------------|-------------|---------------------|
G|---------------------|-------------------------|-------------|---------------------|
D|---------------------|-------------------------|-------------|---------------------|
A|---------------------|-------------------------|-------------|---------------------|
E|---------------------|--------------------0----|--------0----|------0----0----0----|


E|-------------|---------------------|-----------------|---------------------|-----------------|
B|-------------|---------------------|-----------------|---------------------|-----------------|
G|-------------|---------------------|-----------------|---------------------|-----------------|
D|-------------|---------------------|-----------------|---------------------|-----------------|
A|-------------|---------------------|-----------------|---------------------|-----------------|
E|--------0----|------0----0----0----|------0-----0----|------0----0----0----|-----------------|


E|--------|--------|--------|--------|--------|--------|--------|--------|--------|
B|--------|--------|--------|--------|--------|--------|--------|--------|--------|
G|--------|--------|--------|--------|--------|--------|--------|--------|--------|
D|--------|--------|--------|--------|--------|--------|--------|--------|--------|
A|--------|--------|--------|--------|--------|--------|--------|--------|--------|
E|--------|--------|--------|--------|--------|--------|--------|--------|--------|


E|--------|--------|--------|--------|--------|--------|--------|--------|--------|
B|--------|--------|--------|--------|--------|--------|--------|--------|--------|
G|--------|--------|--------|--------|--------|--------|--------|--------|--------|
D|--------|--------|--------|--------|--------|--------|--------|--------|--------|
A|--------|--------|--------|--------|--------|--------|--------|--------|--------|
E|--------|--------|--------|--------|--------|--------|--------|--------|--------|


E|--------|--------|--------|--------|--------|--------|--------|--------|--------|
B|--------|--------|--------|--------|--------|--------|--------|--------|--------|
G|--------|--------|--------|--------|--------|--------|--------|--------|--------|
D|--------|--------|--------|--------|--------|--------|--------|--------|--------|
A|--------|--------|--------|--------|--------|--------|--------|--------|--------|
E|--------|--------|--------|--------|--------|--------|--------|--------|--------|


E|--------|--------|--------|
B|--------|--------|--------|
G|--------|--------|--------|
D|--------|--------|--------|
A|--------|--------|--------|
E|--------|--------|--------|





Track 6: Untitled

G|--------|--------|--------|--------|----------------------|-----------------------------------------|
D|--------|--------|--------|--------|----------------------|-----------------------------------2--3--|
A|--------|--------|--------|--------|----------------5--6--|-7---------------------------------------|
E|--------|--------|--------|--------|----------------------|-----5--6--7---7--6--5---5--5--3---------|


G|-----------------------------------------|-----------------------------------------|
D|-4---------------------------------------|-----------------------------------------|
A|-----3--4--5---5--4--3---3--3--2---5--6--|-7---------------------------------5--6--|
E|-----------------------------------------|-----5--6--7---7--6--5---5--5--3---------|


G|---------------------------------------------|-------------------------------------------|
D|---------------5-----------------------------|-------------------------------------------|
A|-7----------------7--------------------------|-5--7------------5--7----------------------|
E|-----0--0--0---------0--0--0--0--0--0--0--0--|-------0--0--0---------0--0--0--0--5---6---|


G|-----------------------------------------------|-------------------------------------------|
D|-----------------5-----------------------------|-------------------------------------------|
A|-5--7---------------7--------------------------|-5--7------------5--7--------------8-------|
E|-------0--0--0---------0--0--0--0--0--0--0--0--|-------0--0--0---------0--0--0--0------7---|


G|-----------------------------------------------|-------------------------------------------|
D|-----------------5-----------------------------|-------------------------------------------|
A|-5--7---------------7--------------------------|-5--7------------5--7--------------2-------|
E|-------0--0--0---------0--0--0--0--0--0--0--0--|-------0--0--0---------0--0--0--0------3---|


G|-----------------------------------------------|---------------------------------------|
D|-----------------5-----------------------------|---------------------------------------|
A|-5--7---------------7--------------------------|---------------------------------------|
E|-------0--0--0---------0--0--0--0--0--0--0--7--|-7---0--0--0--0--6---6---0--0--5---3---|


G|-------------------|-----------------------------|---------------------------------------------|
D|-------------------|-----------------------------|---------------5-----------------------------|
A|-2-----2-----------|-2------------2--------------|-7----------------7--------------------------|
E|-------------0--0--|-------------------3----2----|-----0--0--0---------0--0--0--0--0--0--0--0--|


G|-------------------------------------------|-----------------------------------------------|
D|-------------------------------------------|-----------------5-----------------------------|
A|-5--7------------5--7----------------------|-5--7---------------7--------------------------|
E|-------0--0--0---------0--0--0--0--5---6---|-------0--0--0---------0--0--0--0--0--0--0--0--|


G|-------------------------------------------|-----------------------------------------------|
D|-------------------------------------------|-----------------5-----------------------------|
A|-5--7------------5--7--------------8-------|-5--7---------------7--------------------------|
E|-------0--0--0---------0--0--0--0------7---|-------0--0--0---------0--0--0--0--0--0--0--0--|


G|-------------------------------------------|-----------------------------------------------|
D|-------------------------------------------|-----------------5-----------------------------|
A|-5--7------------5--7--------------2-------|-5--7---------------7--------------------------|
E|-------0--0--0---------0--0--0--0------3---|-------0--0--0---------0--0--0--0--0--0--0--7--|


G|---------------------------------------|-----------------------------------------------|
D|---------------------------------------|-----------------5-----------------------------|
A|---------------------------------------|-5--7---------------7--------------------------|
E|-7---0--0--0--0--6---6---0--0--5---3---|-------0--0--0---------0--0--0--0--0--0--0--7--|


G|---------------------------------------|-----------------------------------------------|
D|---------------------------------------|-----------------5-----------------------------|
A|---------------------------------------|-5--7---------------7--------------------------|
E|-7---0--0--0--0--6---6---0--0--5---3---|-------0--0--0---------0--0--0--0--0--0--0--7--|


G|---------------------------------------|-----------------------------------------------|
D|---------------------------------------|-----------------5-----------------------------|
A|---------------------------------------|-5--7---------------7--------------------------|
E|-7---0--0--0--0--6---6---0--0--5---3---|-------0--0--0---------0--0--0--0--0--0--0--7--|


G|---------------------------------------|-----------------------------------------------|
D|---------------------------------------|-----------------5-----------------------------|
A|---------------------------------------|-5--7---------------7--------------------------|
E|-7---0--0--0--0--6---6---0--0--5---3---|-------0--0--0---------0--0--0--0--0--0--0--0--|


G|----------------------------------------|-----------------------------------------------|
D|----------------------------------------|-----------------5-----------------------------|
A|-5--7------------5--7--------------2----|-5--7---------------7--------------------------|
E|-------0--0--0---------0--0--0--0-------|-------0--0--0---------0--0--0--0--0--0--0--0--|


G|----------------------------------------|-----------------------------------------------|
D|----------------------------------------|-----------------5-----------------------------|
A|-5--7------------5--7--------------2----|-5--7---------------7--------------------------|
E|-------0--0--0---------0--0--0--0-------|-------0--0--0---------0--0--0--0--0--0--0--0--|


G|----------------------------------------|-----------------------------------------------|
D|----------------------------------------|-----------------5-----------------------------|
A|-5--7------------5--7--------------2----|-5--7---------------7--------------------------|
E|-------0--0--0---------0--0--0--0-------|-------0--0--0---------0--0--0--0--0--0--0--0--|


G|----------------------------------------|-----------------------------------------------|
D|----------------------------------------|-----------------5-----------------------------|
A|-5--7------------5--7--------------2----|-5--7---------------7--------------------------|
E|-------0--0--0---------0--0--0--0-------|-------0--0--0---------0--0--0--0--0--0--0--0--|


G|----------------------------------------|-----------------------------------------------|
D|----------------------------------------|-----------------5-----------------------------|
A|-5--7------------5--7--------------2----|-5--7---------------7--------------------------|
E|-------0--0--0---------0--0--0--0-------|-------0--0--0---------0--0--0--0--0--0--0--0--|


G|----------------------------------------|-----------------------------------------------|
D|----------------------------------------|-----------------5-----------------------------|
A|-5--7------------5--7--------------2----|-5--7---------------7--------------------------|
E|-------0--0--0---------0--0--0--0-------|-------0--0--0---------0--0--0--0--0--0--0--0--|


G|----------------------------------------|-----------------------------------------------|
D|----------------------------------------|-----------------5-----------------------------|
A|-5--7------------5--7--------------2----|-5--7---------------7--------------------------|
E|-------0--0--0---------0--0--0--0-------|-------0--0--0---------0--0--0--0--0--0--0--0--|


G|----------------------------------------|---------------------------------|---------------------------------|
D|----------------------------------------|---------------------------------|---------------------------------|
A|-5--7------------5--7--------------2----|---------------------------------|---------------------------------|
E|-------0--0--0---------0--0--0--0-------|-2---3---0---2---0---0---2---3---|-0---0---3---2---0---0---2---3---|


G|-----------------------------------------------|-------------------------------------------|
D|-----------------5-----------------------------|-------------------------------------------|
A|-5--7---------------7--------------------------|-5--7------------5--7----------------------|
E|-------0--0--0---------0--0--0--0--0--0--0--0--|-------0--0--0---------0--0--0--0--3---0---|


G|---------------------------------|---------------------------------|-----------------------------------------------|
D|---------------------------------|---------------------------------|-----------------5-----------------------------|
A|---------------------------------|---------------------------------|-5--7---------------7--------------------------|
E|-2---3---0---2---0---0---2---3---|-0---0---3---2---0---0---2---3---|-------0--0--0---------0--0--0--0--0--0--0--0--|


G|-------------------------------------------|---------------------------------|---------------------------------|
D|-------------------------------------------|---------------------------------|---------------------------------|
A|-5--7------------5--7----------------------|---------------------------------|---------------------------------|
E|-------0--0--0---------0--0--0--0--3---0---|-2---3---0---2---0---0---2---3---|-0---0---3---2---0---0---2---3---|


G|-----------------------------------------------|-------------------------------------------|
D|-----------------5-----------------------------|-------------------------------------------|
A|-5--7---------------7--------------------------|-5--7------------5--7----------------------|
E|-------0--0--0---------0--0--0--0--0--0--0--0--|-------0--0--0---------0--0--0--0--3---0---|


G|---------------------------------|---------------------------------|-------------------------------------|
D|---------------------------------|---------------------------------|-------------------------------------|
A|---------------------------------|---------------------------------|-7-----------------------------5--6--|
E|-2---3---0---2---0---0---2---3---|-0---0---3---2---0---0---2---3---|-----0--0--0---6---6---6---6---------|


G|-----------------------------------|-------------------------------------|-----------------------------------|
D|-----------------------------------|-------------------------------------|-----------------------------------|
A|-7---------------------------5--6--|-7-----------------------------5--6--|-7---------------------------------|
E|-----0---0---6---6---7---6---------|-----0--0--0---0---0---0---0---------|-----0--0--0---2---2---0---2---3---|


G|---------------------------------|---------------------------------|-------------------------------------|
D|---------------------------------|---------------------------------|-------------------------------------|
A|---------------------------------|---------------------------------|-------------------------------------|
E|-5---0---0---5---5---0---3---5---|-6---0---0---6---6---5---3---5---|-3--0--0--0--0---6---6---5---3---5---|


G|---------------------------------------|-------------------------------------|-----------------------------------|
D|---------------------------------------|-------------------------------------|-----------------------------------|
A|---------------------------------5--6--|-7-----------------------------5--6--|-7---------------------------5--6--|
E|-3--0--0--0--0---6---6---5---3---------|-----0--0--0---0---0---0---0---------|-----0---0---6---6---7---6---------|


G|-------------------------------------|-----------------------------------|---------------------------------|
D|-------------------------------------|-----------------------------------|---------------------------------|
A|-7-----------------------------5--6--|-7---------------------------------|---------------------------------|
E|-----0--0--0---0---0---0---0---------|-----0--0--0---2---2---0---2---3---|-5---0---0---5---5---0---3---5---|


G|---------------------------------|-------------------------------------|---------------------------------------|
D|---------------------------------|-------------------------------------|---------------------------------------|
A|---------------------------------|-------------------------------------|---------------------------------5--6--|
E|-6---0---0---6---6---5---3---5---|-3--0--0--0--0---6---6---5---3---5---|-3--0--0--0--0---6---6---5---3---------|


G|-------------------------------------|-----------------------------------|-------------------------------------|
D|-------------------------------------|-----------------------------------|-------------------------------------|
A|-7-----------------------------5--6--|-7---------------------------5--6--|-7-----------------------------5--6--|
E|-----0--0--0---0---0---0---0---------|-----0---0---6---6---7---6---------|-----0--0--0---0---0---0---0---------|


G|-----------------------------------|---------------------------------|---------------------------------|
D|-----------------------------------|---------------------------------|---------------------------------|
A|-7---------------------------------|---------------------------------|---------------------------------|
E|-----0--0--0---2---2---0---2---3---|-5---0---0---5---5---0---3---5---|-6---0---0---6---6---5---3---5---|


G|-------------------------------------|---------------------------------------|-------------------------------------|
D|-------------------------------------|---------------------------------------|-------------------------------------|
A|-------------------------------------|---------------------------------5--6--|-7-----------------------------5--6--|
E|-3--0--0--0--0---6---6---5---3---5---|-3--0--0--0--0---6---6---5---3---------|-----0--0--0---0---0---0---0---------|


G|-----------------------------------|-------------------------------------|-----------------------------------|
D|-----------------------------------|-------------------------------------|-----------------------------------|
A|-7---------------------------5--6--|-7-----------------------------5--6--|-7---------------------------------|
E|-----0---0---6---6---7---6---------|-----0--0--0---0---0---0---0---------|-----0--0--0---2---2---0---2---3---|


G|---------------------------------|---------------------------------|-------------------------------------|
D|---------------------------------|---------------------------------|-------------------------------------|
A|---------------------------------|---------------------------------|-------------------------------------|
E|-5---0---0---5---5---0---3---5---|-6---0---0---6---6---5---3---5---|-3--0--0--0--0---6---6---5---3---5---|


G|---------------------------------------|-----------------------------------------|
D|---------------------------------------|-----------------------------------------|
A|---------------------------------5--6--|-7---------------------------------------|
E|-3--0--0--0--0---6---6---5---3---------|-----5--6--7---7--6--5---5--5--3---3--3--|


G|--------|--------|--------|--------|-----------------------|---------------------------------|
D|--------|--------|--------|--------|-----------------------|---------------------------------|
A|--------|--------|--------|--------|-------3---2-------2---|---------3---2-------2-----------|
E|-0------|-0------|-0------|-0------|-0-------------0-------|-0---0-----------0-------0---0---|


G|------------------------------|---------------------------------|------------------------------|
D|------------------------------|---------------------------------|------------------------------|
A|-2---3---5----3---2-------2---|---------3---2-------2-----------|-2---3---5----3---2-------2---|
E|----------------------0-------|-0---0-----------0-------0---0---|----------------------0-------|


G|---------------------------------|------------------------------|---------------------------------|
D|---------------------------------|------------------------------|---------------------------------|
A|---------3---2-------2-----------|-2---3---5----3---2-------2---|---------3---2-------2-----------|
E|-0---0-----------0-------0---0---|----------------------0-------|-0---0-----------0-------0---0---|


G|------------------------|-------------|-------------|-------------|--------------------|
D|------------------------|-------------|-------------|-------------|--------------------|
A|-2---3---5--------------|-------------|-------------|-------------|--------------------|
E|--------------0---------|-------------|-------------|-------------|----------0---0-----|


G|-------------|-------------|---------------------------|------------------------------|
D|-------------|-------------|---------------------------|------------------------------|
A|-------------|-------------|---------------------------|------------------------------|
E|-------0-----|-------0-----|-0----3---2--------2---1---|------1---0---0---0---0---0---|


G|---------------------------------|---------------------------------|------------------------------|
D|---------------------------------|---------------------------------|------------------------------|
A|-------------10--10--------------|---------------------------------|------------------------------|
E|-0---0---8-----------8---8---8---|-8---8---8---8---0---0---0---0---|-0---0---3---2--------2---1---|


G|------------------------------|---------------------------------|---------------------------------|
D|------------------------------|---------------------------------|---------------------------------|
A|------------------------------|-------------10--10--------------|---------------------------------|
E|------1---0---0---0---0---0---|-0---0---8-----------8---8---8---|-8---8---8---8---0---0---0---0---|


G|------------------------------|------------------------------|---------------------------------|
D|------------------------------|------------------------------|---------------------------------|
A|------------------------------|------------------------------|-------------10--10--------------|
E|-0---0---3---2--------2---1---|------1---0---0---0---0---0---|-0---0---8-----------8---8---8---|


G|---------------------------------|------------------------------|------------------------------|
D|---------------------------------|------------------------------|------------------------------|
A|---------------------------------|------------------------------|----------------------7-------|
E|-8---8---8---8---0---0---0---0---|-0---0---3---2--------2---1---|------1---0---0---0-------7---|


G|---------------------------------|---------------------------------|---------------------------------|
D|---------------------------------|---------------------------------|---------------------------------|
A|-9-----------10--10--------------|-------------------------7-------|-9-------------------------------|
E|-----0---8-----------8---8---8---|-8---8---8---8---0---0-------7---|-----0---3---2---2---2---2---1---|


G|---------------------------------|---------------------------------|---------------------------------|
D|---------------------------------|-----3---------------------------|-----2---3---4---5---------------|
A|---------------------------------|---------5---1---1---1---1---1---|-1-------------------5-----------|
E|-1---1---1---3---3---3---3---3---|-3-------------------------------|-------------------------3---3---|


G|---------------------------------|---------------------------------|---------------------------------|
D|-----3---------------------------|---------------------------------|-----3---------------------------|
A|---------5---1---1---1---1---1---|-1---1---------------2---5---2---|---------5---1---1---1---1---1---|
E|-3-------------------------------|---------1---2---3---------------|-3-------------------------------|


G|---------------------------------|------------------------------|------------------------|
D|---------------------5---3-------|------------------------------|------------------------|
A|-1---1-----------------------5---|-3---1------------------------|------------------------|
E|---------1---2---3---------------|---------3---2--------2---1---|------1---0--------0----|


G|-------------|----------------|------------------------|------------------------------|
D|-------------|----------------|------------------------|------------------------------|
A|-------------|----------------|------------------------|------------------------------|
E|--------0----|--------0-------|-----------3---2--------|-2---1--------1---0---0---0---|


G|---------------------------------|---------------------------------|------------------------------|
D|---------------------------------|---------------------------------|------------------------------|
A|---------------------10--10------|---------------------------------|------------------------------|
E|-0---0---0---0---8-----------8---|-8---8---8---8---8---8---0---0---|-0---0---0---0---3---2--------|


G|------------------------------|---------------------------------|---------------------------------|
D|------------------------------|---------------------------------|---------------------------------|
A|------------------------------|---------------------10--10------|---------------------------------|
E|-2---1--------1---0---0---0---|-0---0---0---0---8-----------8---|-8---8---8---8---8---8---0---0---|


G|------------------------------|------------------------------|---------------------------------|
D|------------------------------|------------------------------|---------------------------------|
A|------------------------------|------------------------------|---------------------10--10------|
E|-0---0---0---0---3---2--------|-2---1--------1---0---0---0---|-0---0---0---0---8-----------8---|


G|---------------------------------|------------------------------|------------------------------|
D|---------------------------------|------------------------------|------------------------------|
A|---------------------------------|------------------------------|------------------------------|
E|-8---8---8---8---8---8---0---0---|-0---0---0---0---3---2--------|-2---1--------1---0---0---0---|


G|---------------------------------|---------------------------------|---------------------------------|
D|---------------------------------|---------------------------------|---------------------------------|
A|-7-------9-----------10--10------|---------------------------------|-7-------9-----------------------|
E|-----7-------0---8-----------8---|-8---8---8---8---8---8---0---0---|-----7-------0---3---2---2---2---|


G|---------------------------------|---------------------------------|---------------------------------|
D|---------------------------------|-------------3-------------------|---------------------------------|
A|---------------------------------|-----------------5---1---1---1---|-1---1---1---1-------------------|
E|-2---1---1---1---1---3---3---3---|-3---3---3-----------------------|-----------------1---2---3---3---|


G|---------------------------------|---------------------------------|---------------------------------|
D|-------------3-------------------|---------------------------------|-------------3-------------------|
A|-----------------5---1---1---1---|-1---1---1---1-------------------|-----2---5-------5---1---1---1---|
E|-3---3---3-----------------------|-----------------1---2---3---3---|-3-------------------------------|


G|---------------------------------|------------------------------|---------------------------|
D|-----------------------------5---|-3----------------------------|---------------------------|
A|-1---1---1---1-------------------|-----5---3---1----------------|---------------------------|
E|-----------------1---2---3-------|-----------------3---2--------|-2---1--------1---0--------|


G|-------------|------------------------------|---------------------------------|------------------------------|
D|-------------|------------------------------|---------------------------------|------------------------------|
A|-------------|------------------------------|---------------------------------|------------------------------|
E|-------------|----------2---3---0---2---3---|-0---2---0---0---2---3---0---0---|-3---2---0---0---2---3---0----|


G|-----------------|------------------------------|---------------------------------|
D|-----------------|------------------------------|---------------------------------|
A|-----------------|------------------------------|---------------------------------|
E|-----------------|----------2---3---0---2---3---|-0---2---0---0---2---3---0---0---|


G|------------------------------|-----------------|------------------------------|
D|------------------------------|-----------------|------------------------------|
A|------------------------------|-----------------|------------------------------|
E|-3---2---0---0---2---3---0----|-----------------|----------2---3---0---2---3---|


G|---------------------------------|------------------------------|-----------------|
D|---------------------------------|------------------------------|-----------------|
A|---------------------------------|------------------------------|-----------------|
E|-0---2---0---0---2---3---0---0---|-3---2---0---0---2---3---0----|-----------------|


G|------------------------------|---------------------------------|---------------------------------|
D|------------------------------|---------------------------------|---------------------------------|
A|------------------------------|---------------------------------|-------------------------7-------|
E|----------5---7---0---5---7---|-0---5---0---0---5---7---0---0---|-7---5---0---0---2---3-------0---|


G|---------------------------------|---------------------------------|---------------------------------|
D|---------------------------------|---------------------------------|---------------------------------|
A|---------------------------------|---------------------------------|---------------------------------|
E|-0---0---0---0---0---0---0---0---|-0---0---0---2---3---0---2---3---|-0---2---0---0---2---3---0---0---|


G|---------------------------------|---------------------------------|---------------------------------|
D|---------------------------------|---------------------------------|---------------------------------|
A|---------------------------------|---------------------------------|---------------------------------|
E|-3---2---0---0---2---3---0---0---|-0---0---0---0---0---0---0---0---|-0---0---0---2---3---0---2---3---|


G|---------------------------------|---------------------------------|---------------------------------|
D|---------------------------------|---------------------------------|---------------------------------|
A|---------------------------------|---------------------------------|---------------------------------|
E|-0---2---0---0---2---3---0---0---|-3---2---0---0---2---3---0---0---|-0---0---0---0---0---0---0---0---|


G|---------------------------------|---------------------------------|---------------------------------|
D|---------------------------------|---------------------------------|---------------------------------|
A|---------------------------------|---------------------------------|---------------------------------|
E|-0---0---0---2---3---0---2---3---|-0---2---0---0---2---3---0---0---|-3---2---0---0---2---3---0---0---|


G|---------------------------------|---------------------------------|---------------------------------|
D|---------------------------------|---------------------------------|---------------------------------|
A|---------------------------------|---------------------------------|---------------------------------|
E|-0---0---0---0---0---0---0---0---|-0---0---0---2---3---0---2---3---|-0---2---0---0---2---3---0---0---|


G|---------------------------------|---------------------------------|---------------------------------|
D|---------------------------------|---------------------------------|---------------------------------|
A|---------------------------------|---------------------------------|---------------------------------|
E|-3---2---0---0---2---3---0---0---|-0---0---0---0---0---0---0---0---|-0---0---0---2---3---0---2---3---|


G|---------------------------------|---------------------------------|---------------------------------|
D|---------------------------------|---------------------------------|---------------------------------|
A|---------------------------------|---------------------------------|---------------------------------|
E|-0---2---0---0---2---3---0---0---|-3---2---0---0---2---3---0---0---|-0---0---0---0---0---0---0---0---|


G|---------------------------------|---------------------------------|---------------------------------|
D|---------------------------------|---------------------------------|---------------------------------|
A|---------------------------------|---------------------------------|---------------------------------|
E|-0---0---0---2---3---0---2---3---|-0---2---0---0---2---3---0---0---|-3---2---0---0---2---3---0---0---|


G|---------------------------------|---------------------------------|---------------------------------|
D|---------------------------------|---------------------------------|---------------------------------|
A|---------------------------------|---------------------------------|---------------------------------|
E|-0---0---0---0---0---0---0---0---|-0---0---0---2---3---0---2---3---|-0---2---0---0---2---3---0---0---|


G|---------------------------------|---------------------------------|---------------------------------|
D|---------------------------------|---------------------------------|---------------------------------|
A|---------------------------------|---------------------------------|---------------------------------|
E|-3---2---0---0---2---3---0---0---|-0---0---0---0---0---0---0---0---|-0---0---0---2---3---0---2---3---|


G|---------------------------------|---------------------------------|-----------------------------------|
D|---------------------------------|---------------------------------|-----------------------------------|
A|---------------------------------|---------------------------------|-------------------------7--7------|
E|-0---2---0---0---2---3---0---0---|-3---2---0---0---2---3---0---0---|-0---0---0---0---0---0---------0---|


G|---------------------------------|-----------------------------------|---------------------------------|
D|---------------------------------|-----------------------------------|---------------------------------|
A|-----7---------------------------|-------------------------7--7------|-----7---------------------------|
E|-0-------0---0---0---0---0---0---|-0---0---0---0---0---0---------0---|-0-------0---0---0---0---0---0---|


G|-----------------------------------|---------------------------------|-----------------------------------|
D|-----------------------------------|---------------------------------|-----------------------------------|
A|-------------------------7--7------|-----7---------------------------|-------------------------7--7------|
E|-0---0---0---0---0---0---------0---|-0-------0---0---0---0---0---0---|-0---0---0---0---0---0---------0---|


G|---------------------------------|---------------------------------|-----------------------------------|
D|---------------------------------|---------------------------------|-----------------------------------|
A|-----7---------------------------|---------------------------------|-------------------------7--7------|
E|-0-------0---0---0---0---3---0---|-0---0---0---0---0---0---5---0---|-0---0---0---0---7---0---------0---|


G|-----------------------------------|---------------------------------|---------------------------------|
D|-----------------------------------|---------------------------------|---------------------------------|
A|-----7-------------------7--7------|-----7---------------------------|---------------------------------|
E|-0-------0---0---0---0---------0---|-0-------0---0---0---0---3---0---|-0---0---0---0---0---0---5---0---|


G|-----------------------------------|-----------------------------------|---------------------------------|
D|-----------------------------------|-----------------------------------|---------------------------------|
A|-------------------------7--7------|-----7-------------------7--7------|-----7---------------------------|
E|-0---0---0---0---7---0---------0---|-0-------0---0---0---0---------0---|-0-------0---0---0---0---3---0---|


G|---------------------------------|-----------------------------------|-----------------------------------|
D|---------------------------------|-----------------------------------|-----------------------------------|
A|---------------------------------|-------------------------7--7------|-----7-------------------7--7------|
E|-0---0---0---0---0---0---5---0---|-0---0---0---0---7---0---------0---|-0-------0---0---0---0---------0---|


G|---------------------------------|----------------------------------|-----8--------------7--------------|
D|---------------------------------|------------------------------4---|---------------3-------------------|
A|-----7---------------------------|-------------------------6--------|----------5--------------7--7------|
E|-0-------0---0---0---0---3---0---|-0---0---0---0---0---0------------|-------------------------------0---|


G|-----------------------------------|-----------------------------------|-----------------------------------|
D|-----------------------------------|-----------------------------------|-----------------------------------|
A|-----7-------------------7--7------|-----7-------------------7--7------|-----7-------------------7--7------|
E|-0-------0---0---0---0---------0---|-0-------0---0---0---0---------0---|-0-------0---0---0---0---------0---|


G|-----------------------------------|-----------------------------------|-----------------------------------|
D|-----------------------------------|-----------------------------------|-----------------------------------|
A|-----7-------------------7--7------|-----7-------------------7--7------|-----7-------------------7--7------|
E|-0-------0---0---3---5---------0---|-0-------0---0---0---0---------0---|-0-------0---0---3---5---------0---|


G|-----------------------------------|---------------------------------|---------------------------------|
D|-----------------------------------|---------------------------------|---------------------------------|
A|-----7-------------------7--7------|-----7---------------------------|---------------------------------|
E|-0-------0---0---0---0---------0---|-0-------0---0---3---5---2---3---|-0---2---0---0---2---3---0---0---|


G|---------------------------------|---------------------------------|---------------------------------|
D|---------------------------------|---------------------------------|---------------------------------|
A|---------------------------------|---------------------------------|---------------------------------|
E|-3---2---0---0---3---0---2---3---|-0---2---0---0---2---3---0---0---|-3---2---0---0---3---5---2---3---|


G|---------------------------------|---------------------------------|--------------------|
D|---------------------------------|---------------------------------|--------------------|
A|---------------------------------|-------------------------7-------|--------------------|
E|-0---2---0---0---2---3---0---0---|-3---2---0---0---3---0-------7---|-0------------------|