Menu:

 

Search:

 

megadeth - have cool will travel:

 



Title: Have Cool, Will Travel
Artist: 
Album: Cryptic Writings
Author: Dave Mustaine


Track 1: Distorted Rhythm Guitar I

E|----------------------------------|----------------------------------|----------------------------------|
B|----------------------------------|----------------------------------|----------------------------------|
G|----------------------------------|------------------------------7---|----------------------------------|
D|-9--9--9--9--9----10--------------|-9--9--9--9--9----10----------5---|-9--9--9--9--9----10--------------|
A|-7--7--7--7--7----12-7----8---9---|-7--7--7--7--7----12-7----8-------|-7--7--7--7--7----12-7----8---9---|
E|------------------14-5----6---7---|------------------14-5----6-------|------------------14-5----6---7---|


E|----------------------------------|----------------------------------|----------------------------------|
B|----------------------------------|----------------------------------|----------------------------------|
G|------------------------------7---|----------------------------------|------------------------------7---|
D|-9--9--9--9--9----10----------5---|-9--9--9--9--9----10--------------|-9--9--9--9--9----10----------5---|
A|-7--7--7--7--7----12-7----8-------|-7--7--7--7--7----12-7----8---9---|-7--7--7--7--7----12-7----8-------|
E|------------------14-5----6-------|------------------14-5----6---7---|------------------14-5----6-------|


E|----------------------------------|----------------------------------|----------------------------------|
B|----------------------------------|----------------------------------|----------------------------------|
G|----------------------------------|------------------------------7---|----------------------------------|
D|-9--9--9--9--9----10--------------|-9--9--9--9--9----10----------5---|-9--9--9--9--9----10--------------|
A|-7--7--7--7--7----12-7----8---9---|-7--7--7--7--7----12-7----8-------|-7--7--7--7--7----12-7----8---9---|
E|------------------14-5----6---7---|------------------14-5----6-------|------------------14-5----6---7---|


E|----------------------------------|----------------------------------|----------------------------------------|
B|----------------------------------|----------------------------------|----------------------------------------|
G|------------------------------7---|----------------------------------|----------------------------------------|
D|-9--9--9--9--9----10----------5---|-9--9--9--9--9----10--------------|-9--9--9--9--9--------------------------|
A|-7--7--7--7--7----12-7----8-------|-7--7--7--7--7----12-7----8---9---|-7--7--7--7--7----2--0--------2---------|
E|------------------14-5----6-------|------------------14-5----6---7---|------------------------3--2--0------2--|


E|-------------------------------------------------|-------------------------------------------------|
B|-------------------------------------------------|-------------------------------------------------|
G|-------------------------------------------------|-------------------------------------------------|
D|-4--------2--------------------------------------|-4--------2--------------------------------------|
A|-------------------4--------3--------2-----------|-------------------4--------3--------2-----------|
E|-------2--------2--------2--------2--------5--2--|-------2--------2--------2--------2--------5--2--|


E|-------------------------------------------------|-------------------------------------------------|
B|-------------------------------------------------|-------------------------------------------------|
G|-------------------------------------------------|-------------------------------------------------|
D|-4--------2--------------------------------------|-4--------2--------------------------------------|
A|-------------------4--------3--------2-----------|-------------------4--------3--------2-----------|
E|-------2--------2--------2--------2--------5--2--|-------2--------2--------2--------2--------5--2--|


E|----------------------------------|----------------------------------|----------------------------------|
B|----------------------------------|----------------------------------|----------------------------------|
G|----------------------------------|------------------------------7---|----------------------------------|
D|-9--9--9--9--9----10--------------|-9--9--9--9--9----10----------5---|-9--9--9--9--9----10--------------|
A|-7--7--7--7--7----12-7----8---9---|-7--7--7--7--7----12-7----8-------|-7--7--7--7--7----12-7----8---9---|
E|------------------14-5----6---7---|------------------14-5----6-------|------------------14-5----6---7---|


E|----------------------------------|----------------------------------|----------------------------------|
B|----------------------------------|----------------------------------|----------------------------------|
G|------------------------------7---|----------------------------------|------------------------------7---|
D|-9--9--9--9--9----10----------5---|-9--9--9--9--9----10--------------|-9--9--9--9--9----10----------5---|
A|-7--7--7--7--7----12-7----8-------|-7--7--7--7--7----12-7----8---9---|-7--7--7--7--7----12-7----8-------|
E|------------------14-5----6-------|------------------14-5----6---7---|------------------14-5----6-------|


E|----------------------------------|----------------------------------|----------------------------------|
B|----------------------------------|----------------------------------|----------------------------------|
G|----------------------------------|------------------------------7---|----------------------------------|
D|-9--9--9--9--9----10--------------|-9--9--9--9--9----10----------5---|-9--9--9--9--9----10--------------|
A|-7--7--7--7--7----12-7----8---9---|-7--7--7--7--7----12-7----8-------|-7--7--7--7--7----12-7----8---9---|
E|------------------14-5----6---7---|------------------14-5----6-------|------------------14-5----6---7---|


E|----------------------------------------|-------------------------------------------------|
B|----------------------------------------|-------------------------------------------------|
G|----------------------------------------|-------------------------------------------------|
D|-9--9--9--9--9--------------------------|-4--------2--------------------------------------|
A|-7--7--7--7--7----2--0--------2---------|-------------------4--------3--------2-----------|
E|------------------------3--2--0------2--|-------2--------2--------2--------2--------5--2--|


E|-------------------------------------------------|-------------------------------------------------|
B|-------------------------------------------------|-------------------------------------------------|
G|-------------------------------------------------|-------------------------------------------------|
D|-4--------2--------------------------------------|-4--------2--------------------------------------|
A|-------------------4--------3--------2-----------|-------------------4--------3--------2-----------|
E|-------2--------2--------2--------2--------5--2--|-------2--------2--------2--------2--------5--2--|


E|-------------------------------------------------|--------|--------|--------|--------|
B|-------------------------------------------------|--------|--------|--------|--------|
G|-------------------------------------------------|--------|--------|--------|-2------|
D|-4--------2--------------------------------------|-9------|--------|-5------|-2------|
A|-------------------4--------3--------2-----------|-7------|-5------|-3------|-0------|
E|-------2--------2--------2--------2--------5--2--|--------|-3------|--------|--------|


E|--------|--------|--------|-------------------------------------------|-------------------------------------------------|
B|--------|--------|--------|-------------------------------------------|-------------------------------------------------|
G|--------|--------|--------|-2-----5--5--5--5--5--5--5--5--5--5--5--5--|-------------------------------------------------|
D|-9------|--------|-5------|-2-----7--7--7--7--7--7--7--7--7--7--7--7--|----------------------------5-----5--------------|
A|-7------|-5------|-3------|-0-----9--9--9--9--9--9--9--9--9--9--9--9--|-7-----7--5-----5--7-----7--5-----5--7-----5-----|
E|--------|-3------|--------|-------------------------------------------|-7-----7--5-----5--7-----7-----------7-----5-----|


E|-------------------------------------------------|-------------------------------------------------|
B|-------------------------------------------------|-------------------------------------------------|
G|-------------------------------------------------|-------------------------------------------------|
D|----------------------------5-----5--------------|----------------------------5-----5--------------|
A|-7-----7--5-----5--7-----7--5-----5--7-----5-----|-7-----7--5-----5--7-----7--5-----5--7-----5-----|
E|-7-----7--5-----5--7-----7-----------7-----5-----|-7-----7--5-----5--7-----7-----------7-----5-----|


E|-------------------------------------------------|-----------------------------------------------|
B|-------------------------------------------------|-----------------------------------------------|
G|-------------------------------------------------|-----------------------------------------------|
D|----------------------------5-----5--------------|-4--5--4---------------2-----------------------|
A|-7-----7--5-----5--7-----7--5-----5--7-----5-----|--------------2--3--4-----4--3--0--3--2--------|
E|-7-----7--5-----5--7-----7-----------7-----5-----|-----------------------------------------5--0--|


E|-----------------------------------------------|-----------------------------------------------|
B|-----------------------------------------------|-----------------------------------------------|
G|-----------------------------------------------|-----------------------------------------------|
D|-4--5--4---------------2-----------------------|-4--5--4---------------2-----------------------|
A|--------------2--3--4-----4--3--0--3--2--------|--------------2--3--4-----4--3--0--3--2--------|
E|-----------------------------------------5--0--|-----------------------------------------5--0--|


E|-----------------------------------------------|-------------------------------------------------|
B|-----------------------------------------------|-------------------------------------------------|
G|-----------------------------------------------|-------------------------------------------------|
D|-4--5--4---------------2-----------------------|----------------------------5-----5--------------|
A|--------------2--3--4-----4--3--0--3--2--------|-7-----7--5-----5--7-----7--5-----5--7-----5-----|
E|-----------------------------------------5--0--|-7-----7--5-----5--7-----7-----------7-----5-----|


E|-------------------------------------------------|-------------------------------------------------|
B|-------------------------------------------------|-------------------------------------------------|
G|-------------------------------------------------|-------------------------------------------------|
D|----------------------------5-----5--------------|----------------------------5-----5--------------|
A|-7-----7--5-----5--7-----7--5-----5--7-----5-----|-7-----7--5-----5--7-----7--5-----5--7-----5-----|
E|-7-----7--5-----5--7-----7-----------7-----5-----|-7-----7--5-----5--7-----7-----------7-----5-----|


E|-------------------------------------------------|-----------------------------------------------|
B|-------------------------------------------------|-----------------------------------------------|
G|-------------------------------------------------|-----------------------------------------------|
D|----------------------------5-----5--------------|-4--5--4---------------2-----------------------|
A|-7-----7--5-----5--7-----7--5-----5--7-----5-----|--------------2--3--4-----4--3--0--3--2--------|
E|-7-----7--5-----5--7-----7-----------7-----5-----|-----------------------------------------5--0--|


E|-----------------------------------------------|-----------------------------------------------|
B|-----------------------------------------------|-----------------------------------------------|
G|-----------------------------------------------|-----------------------------------------------|
D|-4--5--4---------------2-----------------------|-4--5--4---------------2-----------------------|
A|--------------2--3--4-----4--3--0--3--2--------|--------------2--3--4-----4--3--0--3--2--------|
E|-----------------------------------------5--0--|-----------------------------------------5--0--|


E|-----------------------------------------------|--------|--------|--------|--------|
B|-----------------------------------------------|--------|--------|--------|--------|
G|-----------------------------------------------|--------|--------|--------|-2------|
D|-4--5--4---------------2-----------------------|--------|--------|-5------|-2------|
A|--------------2--3--4-----4--3--0--3--2--------|--------|-5------|-3------|-0------|
E|-----------------------------------------5--0--|--------|-3------|--------|--------|


E|--------|--------|--------|--------|--------|--------|--------|--------|--------|
B|--------|--------|--------|--------|--------|--------|--------|--------|--------|
G|--------|--------|--------|-2------|--------|--------|--------|-2------|--------|
D|-9------|--------|-5------|-2------|-9------|--------|-5------|-2------|-9------|
A|-7------|-5------|-3------|-0------|-7------|-5------|-3------|-0------|-7------|
E|--------|-3------|--------|--------|--------|-3------|--------|--------|--------|


E|--------|--------|-------------------------------------------|-------------------------------------------------------------------------|
B|--------|--------|-------------------------------------------|-------------------------------------------------------------------------|
G|--------|--------|-2-----------------------------------------|-------------------------------------5--5--5--5--5--5--5--5--5--5--5--5--|
D|--------|-5------|-2-----------------------------------------|-------------------------------------7--7--7--7--7--7--7--7--7--7--7--7--|
A|-5------|-3------|-0-----0--0--0--0--0--0--0--0--0--0--0--0--|-0--0--0--0--0--0--0--0--0--0--0--0--9--9--9--9--9--9--9--9--9--9--9--9--|
E|-3------|--------|-------------------------------------------|-------------------------------------------------------------------------|


E|----------------------------------|----------------------------------|----------------------------------|
B|----------------------------------|----------------------------------|----------------------------------|
G|----------------------------------|------------------------------7---|----------------------------------|
D|-9--9--9--9--9----10--------------|-9--9--9--9--9----10----------5---|-9--9--9--9--9----10--------------|
A|-7--7--7--7--7----12-7----8---9---|-7--7--7--7--7----12-7----8-------|-7--7--7--7--7----12-7----8---9---|
E|------------------14-5----6---7---|------------------14-5----6-------|------------------14-5----6---7---|


E|----------------------------------|----------------------------------|----------------------------------|
B|----------------------------------|----------------------------------|----------------------------------|
G|------------------------------7---|----------------------------------|------------------------------7---|
D|-9--9--9--9--9----10----------5---|-9--9--9--9--9----10--------------|-9--9--9--9--9----10----------5---|
A|-7--7--7--7--7----12-7----8-------|-7--7--7--7--7----12-7----8---9---|-7--7--7--7--7----12-7----8-------|
E|------------------14-5----6-------|------------------14-5----6---7---|------------------14-5----6-------|


E|----------------------------------|----------------------------------|----------------------------------|
B|----------------------------------|----------------------------------|----------------------------------|
G|----------------------------------|------------------------------7---|----------------------------------|
D|-9--9--9--9--9----10--------------|-9--9--9--9--9----10----------5---|-9--9--9--9--9----10--------------|
A|-7--7--7--7--7----12-7----8---9---|-7--7--7--7--7----12-7----8-------|-7--7--7--7--7----12-7----8---9---|
E|------------------14-5----6---7---|------------------14-5----6-------|------------------14-5----6---7---|


E|----------------------------------|------------------------------|--------|--------|
B|----------------------------------|------------------------------|--------|--------|
G|----------------------------------|------------------------------|--------|--------|
D|-9--9--9--9--9----10--------------|------------------------------|--------|--------|
A|-7--7--7--7--7----12-7----8---9---|-7--7----8---9---7--7----8----|-8------|-8------|
E|------------------14-5----6---7---|-5--5----6---7---5--5----6----|-6------|-6------|


E|--------|
B|--------|
G|--------|
D|--------|
A|-8------|
E|-6------|





Track 2: Distorted Rhythm Guitar II

E|--------|--------|--------|--------|--------|--------|--------|--------|--------|
B|--------|--------|--------|--------|--------|--------|--------|--------|--------|
G|--------|--------|--------|--------|--------|--------|--------|--------|--------|
D|--------|--------|--------|--------|--------|--------|--------|--------|--------|
A|--------|--------|--------|--------|--------|--------|--------|--------|--------|
E|--------|--------|--------|--------|--------|--------|--------|--------|--------|


E|--------|--------|--------|--------|--------|--------|-------------------------------------------------|
B|--------|--------|--------|--------|--------|--------|-------------------------------------------------|
G|--------|--------|--------|--------|--------|--------|-------------------------------------------------|
D|--------|--------|--------|--------|--------|--------|-7--7--7--7--7--7--7--7--7--7--7--7--7--7--7--7--|
A|--------|--------|--------|--------|--------|--------|-9--9--9--9--9--9--9--9--9--9--9--9--9--9--9--9--|
E|--------|--------|--------|--------|--------|--------|-10-10-10-10-10-10-10-10-10-10-10-10-10-10-10-10-|


E|----------------------------------|----------------------------------|--------|--------|
B|----------------------------------|----------------------------------|--------|--------|
G|----------------------------------|------------------------------7---|--------|--------|
D|-9--9--9--9--9----10--------------|-9--9--9--9--9----10----------5---|--------|--------|
A|-7--7--7--7--7----12-7----8---9---|-7--7--7--7--7----12-7----8-------|--------|--------|
E|------------------14-5----6---7---|------------------14-5----6-------|--------|--------|


E|--------|--------|--------|--------|--------|--------|--------|--------|--------|
B|--------|--------|--------|--------|--------|--------|--------|--------|--------|
G|--------|--------|--------|--------|--------|--------|--------|--------|--------|
D|--------|--------|--------|--------|--------|--------|--------|--------|--------|
A|--------|--------|--------|--------|--------|--------|--------|--------|--------|
E|--------|--------|--------|--------|--------|--------|--------|--------|--------|


E|-------------------------------------------------|--------|--------|--------|--------|
B|-------------------------------------------------|--------|--------|--------|--------|
G|-------------------------------------------------|--------|--------|--------|--------|
D|-7--7--7--7--7--7--7--7--7--7--7--7--7--7--7--7--|--------|--------|--------|--------|
A|-9--9--9--9--9--9--9--9--9--9--9--9--9--9--9--9--|--------|--------|--------|--------|
E|-10-10-10-10-10-10-10-10-10-10-10-10-10-10-10-10-|--------|--------|--------|--------|


E|--------|--------|--------|--------|--------|--------|--------|--------|--------|
B|--------|--------|--------|--------|--------|--------|--------|--------|--------|
G|--------|--------|--------|--------|--------|--------|--------|--------|--------|
D|--------|--------|--------|--------|--------|--------|--------|--------|--------|
A|--------|--------|--------|--------|--------|--------|--------|--------|--------|
E|--------|--------|--------|--------|--------|--------|--------|--------|--------|


E|--------|--------|--------|--------|--------|--------|--------|--------|--------|
B|--------|--------|--------|--------|--------|--------|--------|--------|--------|
G|--------|--------|--------|--------|--------|--------|--------|--------|--------|
D|--------|--------|--------|--------|--------|--------|--------|--------|--------|
A|--------|--------|--------|--------|--------|--------|--------|--------|--------|
E|--------|--------|--------|--------|--------|--------|--------|--------|--------|


E|--------|--------|--------|--------|--------|--------|--------|--------|--------|
B|--------|--------|--------|--------|--------|--------|--------|--------|--------|
G|--------|--------|--------|--------|--------|--------|--------|--------|--------|
D|--------|--------|--------|--------|--------|--------|--------|--------|--------|
A|--------|--------|--------|--------|--------|--------|--------|--------|--------|
E|--------|--------|--------|--------|--------|--------|--------|--------|--------|


E|--------|--------|--------|--------|--------|--------|--------|--------|--------|
B|--------|--------|--------|--------|--------|--------|--------|--------|--------|
G|--------|--------|--------|--------|--------|--------|--------|--------|--------|
D|--------|--------|--------|--------|--------|--------|--------|--------|--------|
A|--------|--------|--------|--------|--------|--------|--------|--------|--------|
E|--------|--------|--------|--------|--------|--------|--------|--------|--------|


E|--------|--------|--------|--------|--------|--------|--------|--------|--------|
B|--------|--------|--------|--------|--------|--------|--------|--------|--------|
G|--------|--------|--------|--------|--------|--------|--------|--------|--------|
D|--------|--------|--------|--------|--------|--------|--------|--------|--------|
A|--------|--------|--------|--------|--------|--------|--------|--------|--------|
E|--------|--------|--------|--------|--------|--------|--------|--------|--------|


E|--------|--------|--------|--------|--------|--------|
B|--------|--------|--------|--------|--------|--------|
G|--------|--------|--------|--------|--------|--------|
D|--------|--------|--------|--------|--------|--------|
A|--------|--------|--------|--------|--------|--------|
E|--------|--------|--------|--------|--------|--------|





Track 3: Clean Guitar (w/tremolo effect)

E|--------|--------|--------|--------|--------|--------|--------|--------|--------|
B|--------|--------|--------|--------|--------|--------|--------|--------|--------|
G|--------|--------|--------|--------|--------|--------|--------|--------|--------|
D|--------|--------|--------|--------|--------|--------|--------|--------|--------|
A|--------|--------|--------|--------|--------|--------|--------|--------|--------|
E|--------|--------|--------|--------|--------|--------|--------|--------|--------|


E|--------|--------|--------|--------|--------|--------|--------|--------|--------|
B|--------|--------|--------|--------|--------|--------|--------|--------|--------|
G|--------|--------|--------|--------|--------|--------|--------|--------|--------|
D|--------|--------|--------|--------|--------|--------|--------|--------|--------|
A|--------|--------|--------|--------|--------|--------|--------|--------|--------|
E|--------|--------|--------|--------|--------|--------|--------|--------|--------|


E|--------|--------|--------|--------|--------|--------|--------|--------|--------|
B|--------|--------|--------|--------|--------|--------|--------|--------|--------|
G|--------|--------|--------|--------|--------|--------|--------|--------|--------|
D|--------|--------|--------|--------|--------|--------|--------|--------|--------|
A|--------|--------|--------|--------|--------|--------|--------|--------|--------|
E|--------|--------|--------|--------|--------|--------|--------|--------|--------|


E|--------|--------|--------|---------------------------------|---------------------------------|
B|--------|--------|--------|-------------7-------8-----------|-------------7-------5-----------|
G|--------|--------|--------|---------9-------9-------9-------|---------7-------7-------7-------|
D|--------|--------|--------|-----9-----------------------9---|-----5-----------------------5---|
A|--------|--------|--------|-7-------------------------------|-5-------------------------------|
E|--------|--------|--------|---------------------------------|---------------------------------|


E|-------------2-------3-----------|-----------------7---------------|---------------------------------|
B|---------1-------1-------1-------|-------------8-------8-----------|-------------7-------8-----------|
G|-----0-----------------------0---|---------6---------------6---0---|---------9-------9-------9-------|
D|---------------------------------|-----7---------------------------|-----9-----------------------9---|
A|-3-------------------------------|-0-------------------------------|-7-------------------------------|
E|---------------------------------|---------------------------------|---------------------------------|


E|---------------------------------|-------------2-------3-----------|-----------------7---------------|
B|-------------7-------5-----------|---------1-------1-------1-------|-------------8-------8-----------|
G|---------7-------7-------7-------|-----0-----------------------0---|---------6---------------6---0---|
D|-----5-----------------------5---|---------------------------------|-----7---------------------------|
A|-5-------------------------------|-3-------------------------------|-0-------------------------------|
E|---------------------------------|---------------------------------|---------------------------------|


E|--------|--------|--------|--------|--------|--------|--------|--------|--------|
B|--------|--------|--------|--------|--------|--------|--------|--------|--------|
G|--------|--------|--------|--------|--------|--------|--------|--------|--------|
D|--------|--------|--------|--------|--------|--------|--------|--------|--------|
A|--------|--------|--------|--------|--------|--------|--------|--------|--------|
E|--------|--------|--------|--------|--------|--------|--------|--------|--------|


E|--------|--------|--------|--------|--------|--------|--------|---------------------------------|
B|--------|--------|--------|--------|--------|--------|--------|-------------7-------8-----------|
G|--------|--------|--------|--------|--------|--------|--------|---------9-------9-------9-------|
D|--------|--------|--------|--------|--------|--------|--------|-----9-----------------------9---|
A|--------|--------|--------|--------|--------|--------|--------|-7-------------------------------|
E|--------|--------|--------|--------|--------|--------|--------|---------------------------------|


E|---------------------------------|-------------2-------3-----------|-----------------7---------------|
B|-------------7-------5-----------|---------1-------1-------1-------|-------------8-------8-----------|
G|---------7-------7-------7-------|-----0-----------------------0---|---------6---------------6---0---|
D|-----5-----------------------5---|---------------------------------|-----7---------------------------|
A|-5-------------------------------|-3-------------------------------|-0-------------------------------|
E|---------------------------------|---------------------------------|---------------------------------|


E|---------------------------------|---------------------------------|-------------2-------3-----------|
B|-------------7-------8-----------|-------------7-------5-----------|---------1-------1-------1-------|
G|---------9-------9-------9-------|---------7-------7-------7-------|-----0-----------------------0---|
D|-----9-----------------------9---|-----5-----------------------5---|---------------------------------|
A|-7-------------------------------|-5-------------------------------|-3-------------------------------|
E|---------------------------------|---------------------------------|---------------------------------|


E|-----------------7---------------|---------------------------------|---------------------------------|
B|-------------8-------8-----------|-------------7-------8-----------|-------------7-------5-----------|
G|---------6---------------6---0---|---------9-------9-------9-------|---------7-------7-------7-------|
D|-----7---------------------------|-----9-----------------------9---|-----5-----------------------5---|
A|-0-------------------------------|-7-------------------------------|-5-------------------------------|
E|---------------------------------|---------------------------------|---------------------------------|


E|-------------2-------3-----------|-----------------7---------------|---------------------------------|
B|---------1-------1-------1-------|-------------8-------8-----------|-------------7-------8-----------|
G|-----0-----------------------0---|---------6---------------6---0---|---------9-------9-------9-------|
D|---------------------------------|-----7---------------------------|-----9-----------------------9---|
A|-3-------------------------------|-0-------------------------------|-7-------------------------------|
E|---------------------------------|---------------------------------|---------------------------------|


E|---------------------------------|-------------2-------3-----------|-----------------7---------------|
B|-------------7-------5-----------|---------1-------1-------1-------|-------------8-------8-------8---|
G|---------7-------7-------7-------|-----0-----------------------0---|---------6---------------6-------|
D|-----5-----------------------5---|---------------------------------|-----7---------------------------|
A|-5-------------------------------|-3-------------------------------|-0-------------------------------|
E|---------------------------------|---------------------------------|---------------------------------|


E|-----7-----------7---------------|--------|--------|--------|--------|--------|--------|
B|---------8-----------8-------8---|--------|--------|--------|--------|--------|--------|
G|-------------6-----------6-------|--------|--------|--------|--------|--------|--------|
D|-7-------------------------------|--------|--------|--------|--------|--------|--------|
A|---------------------------------|--------|--------|--------|--------|--------|--------|
E|---------------------------------|--------|--------|--------|--------|--------|--------|


E|--------|--------|--------|--------|--------|--------|--------|--------|
B|--------|--------|--------|--------|--------|--------|--------|--------|
G|--------|--------|--------|--------|--------|--------|--------|--------|
D|--------|--------|--------|--------|--------|--------|--------|--------|
A|--------|--------|--------|--------|--------|--------|--------|--------|
E|--------|--------|--------|--------|--------|--------|--------|--------|





Track 4: Distorted Lead Guitar

E|--------|--------|--------|--------|--------|--------|--------|--------|--------|
B|--------|--------|--------|--------|--------|--------|--------|--------|--------|
G|--------|--------|--------|--------|--------|--------|--------|--------|--------|
D|--------|--------|--------|--------|--------|--------|--------|--------|--------|
A|--------|--------|--------|--------|--------|--------|--------|--------|--------|
E|--------|--------|--------|--------|--------|--------|--------|--------|--------|


E|--------|--------|--------|--------|--------|--------|--------|--------|--------|
B|--------|--------|--------|--------|--------|--------|--------|--------|--------|
G|--------|--------|--------|--------|--------|--------|--------|--------|--------|
D|--------|--------|--------|--------|--------|--------|--------|--------|--------|
A|--------|--------|--------|--------|--------|--------|--------|--------|--------|
E|--------|--------|--------|--------|--------|--------|--------|--------|--------|


E|--------|--------|--------|--------|--------|--------|--------|--------|--------|
B|--------|--------|--------|--------|--------|--------|--------|--------|--------|
G|--------|--------|--------|--------|--------|--------|--------|--------|--------|
D|--------|--------|--------|--------|--------|--------|--------|--------|--------|
A|--------|--------|--------|--------|--------|--------|--------|--------|--------|
E|--------|--------|--------|--------|--------|--------|--------|--------|--------|


E|--------|--------|--------|--------|--------|--------|--------|--------|--------|
B|--------|--------|--------|--------|--------|--------|--------|--------|--------|
G|--------|--------|--------|--------|--------|--------|--------|--------|--------|
D|--------|--------|--------|--------|--------|--------|--------|--------|--------|
A|--------|--------|--------|--------|--------|--------|--------|--------|--------|
E|--------|--------|--------|--------|--------|--------|--------|--------|--------|


E|--------|--------|----------------------|------12----------------|-12----------------------15------------------|
B|--------|--------|----------5--5--14----|-14------14---14---14---|----15-12-------------------15---------------|
G|--------|--------|----------5--5--------|------------------------|----------14-14--14--14--------14-14-12--12--|
D|--------|--------|----------------------|------------------------|---------------------------------------------|
A|--------|--------|----------------------|------------------------|---------------------------------------------|
E|--------|--------|----------------------|------------------------|---------------------------------------------|


E|-------------------------------------------------------12-14-15-14-12-|-14-----|
B|----------------------------------------------------14----------------|--------|
G|-2-----------12-------------12----16-12----12-14-15-------------------|--------|
D|-4--------12-------12-13-14----14-------14----------------------------|--------|
A|----12-14-------14----------------------------------------------------|--------|
E|----------------------------------------------------------------------|--------|


E|--------|--------|--------|-----------------------------------|------------------------------|
B|--------|--------|--------|-----------------------------------|------------------------------|
G|--------|--------|--------|-2----2--2---2---2----2--2---1--2--|-2---1---1----2---16--4-------|
D|--------|--------|--------|-----------------------------------|---------------------------0--|
A|--------|--------|--------|-----------------------------------|------------------------------|
E|--------|--------|--------|-----------------------------------|------------------------------|


E|----------------------------------|---------------------------------------------------------|
B|----------------------------------|-121312-101210-9-109--5-9-6--9-109--6-8-6--5-7-5--3-5-3--|
G|----------------------------------|---------------------------------------------------------|
D|-3----0--2------------------------|---------------------------------------------------------|
A|--------------3--5--2--3-----2----|---------------------------------------------------------|
E|--------------------------5-------|---------------------------------------------------------|


E|--------------------------|--------|-------------|--------|--------|--------|--------|
B|-2-3-2--2---2-----2---2---|--------|-------------|--------|--------|--------|--------|
G|--------4---4-----4---4---|-4------|-4------4----|-4------|--------|--------|--------|
D|--------------------------|--------|-------------|--------|--------|--------|--------|
A|--------------------------|--------|-------------|--------|--------|--------|--------|
E|--------------------------|--------|-------------|--------|--------|--------|--------|


E|--------|--------|--------|--------|--------|--------|--------|--------|--------|
B|--------|--------|--------|--------|--------|--------|--------|--------|--------|
G|--------|--------|--------|--------|--------|--------|--------|--------|--------|
D|--------|--------|--------|--------|--------|--------|--------|--------|--------|
A|--------|--------|--------|--------|--------|--------|--------|--------|--------|
E|--------|--------|--------|--------|--------|--------|--------|--------|--------|


E|--------|--------|--------|--------|--------|--------|--------|--------|--------|
B|--------|--------|--------|--------|--------|--------|--------|--------|--------|
G|--------|--------|--------|--------|--------|--------|--------|--------|--------|
D|--------|--------|--------|--------|--------|--------|--------|--------|--------|
A|--------|--------|--------|--------|--------|--------|--------|--------|--------|
E|--------|--------|--------|--------|--------|--------|--------|--------|--------|


E|--------|--------------0------19----|----19-------19------------------|----19--------------------------|
B|--------|-----------7-----22-----22-|-22----22-22----22---22----22-20-|-22----20-----------------------|
G|--------|-5-------------------------|---------------------------------|-----------19---19--19------14--|
D|--------|-7-----7-------------------|---------------------------------|--------------------------------|
A|--------|-9-----9-------------------|---------------------------------|--------------------------------|
E|--------|---------------------------|---------------------------------|--------------------------------|


E|-----------------------------------|--------------------|-------------|-------------|
B|-----------------------------------|--------------------|-------------|-------------|
G|-14---14-------14--14--14--14--14--|-14--14--14--14-----|-14----------|------7------|
D|-----------------------------------|--------------------|-------------|-------------|
A|-----------------------------------|--------------------|------19-----|-3-----------|
E|-----------------------------------|--------------------|------20-----|-5-----------|


E|--------|-------------|
B|--------|-------------|
G|-7------|-7----7------|
D|--------|-------------|
A|--------|-------------|
E|--------|-------------|





Track 5: Distorted Slide Guitar

E|--------|--------|--------|--------|--------|--------|--------|--------|--------|
B|--------|--------|--------|--------|--------|--------|--------|--------|--------|
G|--------|--------|--------|--------|--------|--------|--------|--------|--------|
D|--------|--------|--------|--------|--------|--------|--------|--------|--------|
A|--------|--------|--------|--------|--------|--------|--------|--------|--------|
E|--------|--------|--------|--------|--------|--------|--------|--------|--------|


E|--------|--------|--------|--------|--------|--------|--------|--------|--------|
B|--------|--------|--------|--------|--------|--------|--------|--------|--------|
G|--------|--------|--------|--------|--------|--------|--------|--------|--------|
D|--------|--------|--------|--------|--------|--------|--------|--------|--------|
A|--------|--------|--------|--------|--------|--------|--------|--------|--------|
E|--------|--------|--------|--------|--------|--------|--------|--------|--------|


E|--------|--------|--------|--------|--------|--------|--------|--------|--------|
B|--------|--------|--------|--------|--------|--------|--------|--------|--------|
G|--------|--------|--------|--------|--------|--------|--------|--------|--------|
D|--------|--------|--------|--------|--------|--------|--------|--------|--------|
A|--------|--------|--------|--------|--------|--------|--------|--------|--------|
E|--------|--------|--------|--------|--------|--------|--------|--------|--------|


E|--------|--------|--------|--------|--------|--------|--------|--------|--------|
B|--------|--------|--------|--------|--------|--------|--------|--------|--------|
G|--------|--------|--------|--------|--------|--------|--------|--------|--------|
D|--------|--------|--------|--------|--------|--------|--------|--------|--------|
A|--------|--------|--------|--------|--------|--------|--------|--------|--------|
E|--------|--------|--------|--------|--------|--------|--------|--------|--------|


E|--------|--------|--------|--------|--------|--------|----------------|----------------|
B|--------|--------|--------|--------|--------|--------|-19-----19---19-|-17-----15-17---|
G|--------|--------|--------|--------|--------|--------|----------------|----------------|
D|--------|--------|--------|--------|--------|--------|----------------|----------------|
A|--------|--------|--------|--------|--------|--------|----------------|----------------|
E|--------|--------|--------|--------|--------|--------|----------------|----------------|


E|-----------------------|-----------------------|--------|--------|--------|--------|
B|-17--14----14----------|-----------------------|--------|--------|--------|--------|
G|-----------------16-15-|-16--15--15------------|--------|--------|--------|--------|
D|-----------------------|------------16---16----|--------|--------|--------|--------|
A|-----------------------|-----------------------|--------|--------|--------|--------|
E|-----------------------|-----------------------|--------|--------|--------|--------|


E|-----------------------|-------------|-----------------------|-------------|-------------------------------------------------|
B|-----------------------|-------------|-----------------------|-------------|-------------------------------------------------|
G|-11-12-11----11---11---|-9------9----|-15-16-15----15---15---|-18----19----|-21--21--21--21--21--21--21--21--21--21--21--21--|
D|-----------------------|-------------|-----------------------|-------------|-------------------------------------------------|
A|-----------------------|-------------|-----------------------|-------------|-------------------------------------------------|
E|-----------------------|-------------|-----------------------|-------------|-------------------------------------------------|


E|--------|--------|--------|--------|--------|--------|--------|--------|----------------------0----|
B|--------|--------|--------|--------|--------|--------|--------|--------|----------19--19--17-------|
G|--------|--------|--------|--------|--------|--------|--------|--------|---------------------------|
D|--------|--------|--------|--------|--------|--------|--------|--------|---------------------------|
A|--------|--------|--------|--------|--------|--------|--------|--------|---------------------------|
E|--------|--------|--------|--------|--------|--------|--------|--------|---------------------------|


E|-0-------------------|-----------------|----------14--14--15----|-15-------14--14--12--12---|
B|---------------------|-----------------|------12----------------|---------------------------|
G|-------11--11--12----|-12---14---14----|-14---------------------|---------------------------|
D|---------------------|-----------------|------------------------|---------------------------|
A|---------------------|-----------------|------------------------|---------------------------|
E|---------------------|-----------------|------------------------|---------------------------|


E|-12-------14--14--15----|-15---17-----|-17-----|--------|--------|--------|--------|
B|------12----------------|-------------|--------|--------|--------|--------|--------|
G|------------------------|-------------|--------|--------|--------|--------|--------|
D|------------------------|-------------|--------|--------|--------|--------|--------|
A|------------------------|-------------|--------|--------|--------|--------|--------|
E|------------------------|-------------|--------|--------|--------|--------|--------|


E|--------|--------|--------|--------|--------|--------|--------|--------|--------|
B|--------|--------|--------|--------|--------|--------|--------|--------|--------|
G|--------|--------|--------|--------|--------|--------|--------|--------|--------|
D|--------|--------|--------|--------|--------|--------|--------|--------|--------|
A|--------|--------|--------|--------|--------|--------|--------|--------|--------|
E|--------|--------|--------|--------|--------|--------|--------|--------|--------|


E|--------|
B|--------|
G|--------|
D|--------|
A|--------|
E|--------|





Track 6: Distorted Rhythm Guitar I

E|--------|--------|--------|--------|--------|--------|--------|--------|--------|
B|--------|--------|--------|--------|--------|--------|--------|--------|--------|
G|--------|--------|--------|--------|--------|--------|--------|--------|--------|
D|--------|--------|--------|--------|--------|--------|--------|--------|--------|
A|--------|--------|--------|--------|--------|--------|--------|--------|--------|
E|--------|--------|--------|--------|--------|--------|--------|--------|--------|


E|--------|--------|--------|--------|--------|--------|--------|--------|--------|
B|--------|--------|--------|--------|--------|--------|--------|--------|--------|
G|--------|--------|--------|--------|--------|--------|--------|--------|--------|
D|--------|--------|--------|--------|--------|--------|--------|--------|--------|
A|--------|--------|--------|--------|--------|--------|--------|--------|--------|
E|--------|--------|--------|--------|--------|--------|--------|--------|--------|


E|--------|--------|--------|--------|--------|--------|--------|--------|--------|
B|--------|--------|--------|--------|--------|--------|--------|--------|--------|
G|--------|--------|--------|--------|--------|--------|--------|--------|--------|
D|--------|--------|--------|--------|--------|--------|--------|--------|--------|
A|--------|--------|--------|--------|--------|--------|--------|--------|--------|
E|--------|--------|--------|--------|--------|--------|--------|--------|--------|


E|--------|--------|--------|--------|--------|--------|--------|--------|--------|
B|--------|--------|--------|--------|--------|--------|--------|--------|--------|
G|--------|--------|--------|--------|--------|--------|--------|--------|--------|
D|--------|--------|--------|--------|--------|--------|--------|--------|--------|
A|--------|--------|--------|--------|--------|--------|--------|--------|--------|
E|--------|--------|--------|--------|--------|--------|--------|--------|--------|


E|--------|--------|--------|--------|--------|--------|--------|--------|--------|
B|--------|--------|--------|--------|--------|--------|--------|--------|--------|
G|--------|--------|--------|--------|--------|--------|--------|--------|--------|
D|--------|--------|--------|--------|--------|--------|--------|--------|--------|
A|--------|--------|--------|--------|--------|--------|--------|--------|--------|
E|--------|--------|--------|--------|--------|--------|--------|--------|--------|


E|--------|--------|--------|--------|--------|--------|--------|--------|--------|
B|--------|--------|--------|--------|--------|--------|--------|--------|--------|
G|--------|--------|--------|--------|--------|--------|--------|--------|--------|
D|--------|--------|--------|--------|--------|--------|--------|--------|--------|
A|--------|--------|--------|--------|--------|--------|--------|--------|--------|
E|--------|--------|--------|--------|--------|--------|--------|--------|--------|


E|--------|--------|--------|--------|--------|--------|--------|--------|--------|
B|--------|--------|--------|--------|--------|--------|--------|--------|--------|
G|--------|--------|--------|--------|--------|--------|--------|--------|--------|
D|-9------|--------|--------|--------|--------|--------|--------|--------|--------|
A|-7------|--------|--------|--------|--------|--------|--------|--------|--------|
E|--------|--------|--------|--------|--------|--------|--------|--------|--------|


E|--------|--------|--------|--------|--------|--------|--------|--------|--------|
B|--------|--------|--------|--------|--------|--------|--------|--------|--------|
G|--------|--------|--------|--------|--------|--------|--------|--------|--------|
D|--------|--------|--------|--------|--------|--------|--------|--------|--------|
A|--------|--------|--------|--------|--------|--------|--------|--------|--------|
E|--------|--------|--------|--------|--------|--------|--------|--------|--------|


E|--------|--------|--------|--------|--------|--------|--------|--------|--------|
B|--------|--------|--------|--------|--------|--------|--------|--------|--------|
G|--------|--------|--------|--------|--------|--------|--------|--------|--------|
D|--------|--------|--------|--------|--------|--------|--------|--------|--------|
A|--------|--------|--------|--------|--------|--------|--------|--------|--------|
E|--------|--------|--------|--------|--------|--------|--------|--------|--------|


E|--------|--------|--------|--------|
B|--------|--------|--------|--------|
G|--------|--------|--------|--------|
D|--------|--------|--------|--------|
A|--------|--------|--------|--------|
E|--------|--------|--------|--------|





Track 7: Bass

G|-----------------------|-----------------------|-----------------------|-----------------------|
D|-----------------------|-----------------------|-----------------------|-----------------------|
A|-----------------------|-----------------------|-----------------------|-----------------------|
E|----------5----6---7---|----------5----6---3---|----------5----6---7---|----------5----6---3---|


G|----------------------------------|----------------------------------|----------------------------------|
D|----------------------------------|----------------------------------|----------------------------------|
A|-7--7--7--7--7--------------------|-7--7--7--7--7--------------------|-7--7--7--7--7--------------------|
E|---------------------5----6---7---|---------------------5----6---3---|---------------------5----6---7---|


G|----------------------------------|----------------------------------|----------------------------------|
D|----------------------------------|----------------------------------|----------------------------------|
A|-7--7--7--7--7--------------------|-7--7--7--7--7--------------------|-7--7--7--7--7--------------------|
E|---------------------5----6---3---|---------------------5----6---7---|---------------------5----6---3---|


G|----------------------------------|----------------------------------------|-------------------------------------------------|
D|----------------------------------|----------------------------------------|-------------------------------------------------|
A|-7--7--7--7--7--------------------|-7--7--7--7--7--------------------------|-------------------------------------------------|
E|---------------------5----6---7---|------------------0--0--0--0--0------2--|-2--2--2--2--2--2--2--2--2--2--2--2--2--2--2--2--|


G|-------------------------------------------------|-------------------------------------------------|
D|-------------------------------------------------|-------------------------------------------------|
A|-------------------------------------------------|-------------------------------------------------|
E|-2--2--2--2--2--2--2--2--2--2--2--2--2--2--2--2--|-2--2--2--2--2--2--2--2--2--2--2--2--2--2--2--2--|


G|-------------------------------------------------|-----------------------|-----------------------|
D|-------------------------------------------------|-----------------------|-----------------------|
A|-------------------------------------------------|-----------------------|-----------------------|
E|-2--2--2--2--2--2--2--2--2--2--2--2--2--2--2--2--|----------5----6---7---|----------5----6---3---|


G|----------------------------------|----------------------------------|----------------------------------|
D|----------------------------------|----------------------------------|----------------------------------|
A|-7--7--7--7--7--------------------|-7--7--7--7--7--------------------|-7--7--7--7--7--------------------|
E|---------------------5----6---7---|---------------------5----6---3---|---------------------5----6---7---|


G|----------------------------------|----------------------------------|----------------------------------|
D|----------------------------------|----------------------------------|----------------------------------|
A|-7--7--7--7--7--------------------|-7--7--7--7--7--------------------|-7--7--7--7--7--------------------|
E|---------------------5----6---3---|---------------------5----6---7---|---------------------5----6---3---|


G|----------------------------------|----------------------------------------|-------------------------------------------------|
D|----------------------------------|----------------------------------------|-------------------------------------------------|
A|-7--7--7--7--7--------------------|-7--7--7--7--7--------------------------|-------------------------------------------------|
E|---------------------5----6---7---|------------------0--0--0--0--0------2--|-2--2--2--2--2--2--2--2--2--2--2--2--2--2--2--2--|


G|-------------------------------------------------|-------------------------------------------------|
D|-------------------------------------------------|-------------------------------------------------|
A|-------------------------------------------------|-------------------------------------------------|
E|-2--2--2--2--2--2--2--2--2--2--2--2--2--2--2--2--|-2--2--2--2--2--2--2--2--2--2--2--2--2--2--2--2--|


G|-------------------------------------------------|------------|------------|------------|
D|-------------------------------------------------|------------|------------|------------|
A|-------------------------------------------------|------------|------------|-3------3---|
E|-2--2--2--2--2--2--2--2--2--2--2--2--2--2--2--2--|-0------0---|-3------3---|------------|


G|-------------|------------|------------|------------|-------------------------------------------|
D|-------------|------------|------------|------------|-------------------------------------------|
A|-------------|------------|------------|-3------3---|-------------------------------------------|
E|-5------5----|-0------0---|-3------3---|------------|-5-----5--5--5--5--5--5--5--5--5--5--5--5--|


G|---------------------------------------|---------------------------------------|
D|---------------------------------------|---------------------------------------|
A|---------------------------------------|---------------------------------------|
E|-0---0--0--0--0--0---0--0---0--0---0---|-0---0--0--0--0--0---0--0---0--0---0---|


G|---------------------------------------|---------------------------------------|
D|---------------------------------------|---------------------------------------|
A|---------------------------------------|---------------------------------------|
E|-0---0--0--0--0--0---0--0---0--0---0---|-0---0--0--0--0--0---0--0---0--0---0---|


G|-------------------------------------------------|-------------------------------------------------|
D|-------------------------------------------------|-------------------------------------------------|
A|-------------------------------------------------|-------------------------------------------------|
E|-2--2--2--2--2--2--2--2--2--2--2--2--2--2--2--2--|-2--2--2--2--2--2--2--2--2--2--2--2--2--2--2--2--|


G|-------------------------------------------------|-----------------------------------------------|
D|-------------------------------------------------|-4--5--4---------------2-----------------------|
A|-------------------------------------------------|--------------2--3--4-----4--3--0--3--2--------|
E|-2--2--2--2--2--2--2--2--2--2--2--2--2--2--2--2--|-----------------------------------------5--0--|


G|---------------------------------------|---------------------------------------|
D|---------------------------------------|---------------------------------------|
A|---------------------------------------|---------------------------------------|
E|-0---0--0--0--0--0---0--0---0--0---0---|-0---0--0--0--0--0---0--0---0--0---0---|


G|---------------------------------------|---------------------------------------------|
D|---------------------------------------|---------------------------------------------|
A|---------------------------------------|------------------------7--7--7--7--7--7--7--|
E|-0---0--0--0--0--0---0--0---0--0---0---|-0---0--0--0--0--0---0-----------------------|


G|-------------------------------------------------|-------------------------------------------------|
D|-------------------------------------------------|-------------------------------------------------|
A|-------------------------------------------------|-------------------------------------------------|
E|-2--2--2--2--2--2--2--2--2--2--2--2--2--2--2--2--|-2--2--2--2--2--2--2--2--2--2--2--2--2--2--2--2--|


G|-------------------------------------------------|-----------------------------------------------|
D|-------------------------------------------------|-4--5--4---------------2-----------------------|
A|-------------------------------------------------|--------------2--3--4-----4--3--0--3--2--------|
E|-2--2--2--2--2--2--2--2--2--2--2--2--2--2--2--2--|-----------------------------------------5--0--|


G|------------|------------|------------|-------------|------------|------------|------------|
D|------------|------------|------------|-------------|------------|------------|------------|
A|------------|------------|-3------3---|-------------|------------|------------|-3------3---|
E|-0------0---|-3------3---|------------|-5------5----|-0------0---|-3------3---|------------|


G|-----------------------|------------|------------|------------|-------------|------------|
D|---------------14------|------------|------------|------------|-------------|------------|
A|-----------12------12--|------------|------------|-3------3---|-------------|------------|
E|-5-----5---------------|-0------0---|-3------3---|------------|-5------5----|-0------0---|


G|------------|------------|-----------------------------------------------|------------------------------------------------------------|
D|------------|------------|-----------------------------------------------|------------------------------------------------------------|
A|------------|-3------3---|-----------12-12-12-12-12-12-12-12-12-12-12-12-|-12-12-12-12-12-12-12-12-12-12-12-12-12-12-12-12-12-12-12---|
E|-3------3---|------------|-5----5----------------------------------------|------------------------------------------------------------|


G|----------------------------------|----------------------------------|----------------------------------|
D|----------------------------------|----------------------------------|----------------------------------|
A|-7--7--7--7--7--------------------|-7--7--7--7--7--------------------|-7--7--7--7--7--------------------|
E|---------------------5----6---7---|---------------------5----6---3---|---------------------5----6---7---|


G|----------------------------------|----------------------------------|----------------------------------|
D|----------------------------------|----------------------------------|----------------------------------|
A|-7--7--7--7--7--------------------|-7--7--7--7--7--------------------|-7--7--7--7--7--------------------|
E|---------------------5----6---3---|---------------------5----6---7---|---------------------5----6---3---|


G|----------------------------------|----------------------------------|----------------------------------|
D|----------------------------------|----------------------------------|----------------------------------|
A|-7--7--7--7--7--------------------|-7--7--7--7--7--------------------|-7--7--7--7--7--------------------|
E|---------------------5----6---7---|---------------------5----6---3---|---------------------5----6---7---|


G|----------------------------------|------------------------------|--------|--------|
D|----------------------------------|------------------------------|--------|--------|
A|-7--7--7--7--7--------------------|------------------------------|--------|--------|
E|---------------------5----6---7---|----5----6---7------5----6----|-6------|-6------|


G|--------|
D|--------|
A|--------|
E|-6------|