Menu:

 

Search:

 

megadeth - foreclosure of a dream:

 



Title: Foreclosure of a Dream
Artist: 
Album: Countdown to Extinction
Author: Mustaine and Ellefson


Track 1: Mustaine (clean gtr.)

E|-------------------------------------------------|-------------------------------------------------|
B|-------------------------------------------------|-------------------------------------------------|
G|-------0--------0--------0--------0-----0-----0--|-------0--------0--------0--------0-----0-----0--|
D|----0--------0--------0--------0-----------------|----0--------0--------0--------0-----------------|
A|-10-------7--------8--------4--------5-----1-----|-10-------7--------13-------8--------10----13----|
E|-------------------------------------------------|-------------------------------------------------|


E|-------------------------------------------------|-------------------------------------------------|
B|-------------------------------------------------|-------------------------------------------------|
G|-------0--------0--------0--------0-----0-----0--|-------0--------0--------0--------0-----0-----0--|
D|----0--------0--------0--------0-----------------|----0--------0--------0--------0-----------------|
A|-10-------7--------8--------4--------5-----1-----|-------------------3--------2--------1-----------|
E|-------------------------------------------------|-3--------1--------------------------------1-----|


E|--------------------------------------------------|--------------------------------------------------|
B|--------------------------------------------------|--------------------------------------------------|
G|-------0--------0--------0--------0-----0------0--|-------0--------0--------0--------0-----0------0--|
D|----0--------0--------0--------0------------------|----0--------0--------0--------0------------------|
A|-------------------3--------2--------1-----1-3----|-------------------3--------2--------1-----1-3----|
E|-3--------1---------------------------------------|-3--------1---------------------------------------|


E|--------------------------------------------------|--------------------------------------------------|
B|--------------------------------------------------|--------------------------------------------------|
G|-------0--------0--------0--------0-----0------0--|-------0--------0--------0--------0-----0------0--|
D|----0--------0--------0--------0------------------|----0--------0--------0--------0------------------|
A|-------------------3--------2--------1-----1-3----|-------------------3--------2--------1-----1-3----|
E|-3--------1---------------------------------------|-3--------1---------------------------------------|


E|-------------------------------------------------|-------------------------------------------------|
B|-------0--------0--------0--------0-----0-----0--|-------------------------------------------------|
G|----5--------5--------5--------5-----------------|-------0--------0--------0--------0-----0-----0--|
D|-7--------6--------5--------4--------3-----2-----|----5--------5--------5--------5-----------------|
A|-------------------------------------------------|-7--------6--------5--------4--------3-----2-----|
E|-------------------------------------------------|-------------------------------------------------|


E|-------------------------------------------------|--------|--------|--------|--------|
B|-------------------------------------------------|--------|--------|--------|--------|
G|-------0--------0--------0--------0-----0-----0--|--------|--------|--------|--------|
D|----0--------0--------0--------0-----------------|--------|--------|--------|--------|
A|-5--------3--------1--------0--------------------|--------|--------|--------|--------|
E|-------------------------------------3-----1-----|--------|--------|--------|--------|


E|--------|--------|--------|--------|-------------------------------------------------|
B|--------|--------|--------|--------|-------------------------------------------------|
G|--------|--------|--------|--------|-------0--------0--------0--------0-----0-----0--|
D|--------|--------|--------|--------|----0--------0--------0--------0-----------------|
A|--------|--------|--------|--------|-10-------7--------8--------4--------5-----1-----|
E|--------|--------|--------|--------|-------------------------------------------------|


E|-------------------------------------------------|-------------------------------------------------|
B|-------------------------------------------------|-------------------------------------------------|
G|-------0--------0--------0--------0-----0-----0--|-------0--------0--------0--------0-----0-----0--|
D|----0--------0--------0--------0-----------------|----0--------0--------0--------0-----------------|
A|-10-------7--------13-------8--------10----13----|-10-------7--------8--------4--------5-----1-----|
E|-------------------------------------------------|-------------------------------------------------|


E|-------------------------------------------------|--------------------------------------------------|
B|-------------------------------------------------|--------------------------------------------------|
G|-------0--------0--------0--------0-----0-----0--|-------0--------0--------0--------0-----0------0--|
D|----0--------0--------0--------0-----------------|----0--------0--------0--------0------------------|
A|-------------------3--------2--------1-----------|-------------------3--------2--------1-----1-3----|
E|-3--------1--------------------------------1-----|-3--------1---------------------------------------|


E|--------------------------------------------------|--------------------------------------------------|
B|--------------------------------------------------|--------------------------------------------------|
G|-------0--------0--------0--------0-----0------0--|-------0--------0--------0--------0-----0------0--|
D|----0--------0--------0--------0------------------|----0--------0--------0--------0------------------|
A|-------------------3--------2--------1-----1-3----|-------------------3--------2--------1-----1-3----|
E|-3--------1---------------------------------------|-3--------1---------------------------------------|


E|--------------------------------------------------|-------------------------------------------------|
B|--------------------------------------------------|-------0--------0--------0--------0-----0-----0--|
G|-------0--------0--------0--------0-----0------0--|----5--------5--------5--------5-----------------|
D|----0--------0--------0--------0------------------|-7--------6--------5--------4--------3-----2-----|
A|-------------------3--------2--------1-----1-3----|-------------------------------------------------|
E|-3--------1---------------------------------------|-------------------------------------------------|


E|-------------------------------------------------|-------------------------------------------------|
B|-------------------------------------------------|-------------------------------------------------|
G|-------0--------0--------0--------0-----0-----0--|-------0--------0--------0--------0-----0-----0--|
D|----5--------5--------5--------5-----------------|----0--------0--------0--------0-----------------|
A|-7--------6--------5--------4--------3-----2-----|-5--------3--------1--------0--------------------|
E|-------------------------------------------------|-------------------------------------3-----1-----|


E|--------|--------|--------|--------|--------|--------|--------|--------|--------|
B|--------|--------|--------|--------|--------|--------|--------|--------|--------|
G|--------|--------|--------|--------|--------|--------|--------|--------|--------|
D|--------|--------|--------|--------|--------|--------|--------|--------|--------|
A|--------|--------|--------|--------|--------|--------|--------|--------|--------|
E|--------|--------|--------|--------|--------|--------|--------|--------|--------|


E|--------|--------|--------|--------|--------|--------|--------|-------------------------------------------------|
B|--------|--------|--------|--------|--------|--------|--------|-------------------------------------------------|
G|--------|--------|--------|--------|--------|--------|--------|-------0--------0--------0--------0-----0-----0--|
D|--------|--------|--------|--------|--------|--------|--------|----0--------0--------0--------0-----------------|
A|--------|--------|--------|--------|--------|--------|--------|-10-------7--------8--------4--------5-----1-----|
E|--------|--------|--------|--------|--------|--------|--------|-------------------------------------------------|


E|-------------------------------------------------|-------------------------------------------------|
B|-------------------------------------------------|-------------------------------------------------|
G|-------0--------0--------0--------0-----0-----0--|-------0--------0--------0--------0-----0-----0--|
D|----0--------0--------0--------0-----------------|----0--------0--------0--------0-----------------|
A|-10-------7--------13-------8--------10----13----|-10-------7--------8--------4--------5-----1-----|
E|-------------------------------------------------|-------------------------------------------------|


E|-------------------------------------------------|--------------------------------------------------|
B|-------------------------------------------------|--------------------------------------------------|
G|-------0--------0--------0--------0-----0-----0--|-------0--------0--------0--------0-----0------0--|
D|----0--------0--------0--------0-----------------|----0--------0--------0--------0------------------|
A|-------------------3--------2--------1-----------|-------------------3--------2--------1-----1-3----|
E|-3--------1--------------------------------1-----|-3--------1---------------------------------------|


E|--------------------------------------------------|--------------------------------------------------|
B|--------------------------------------------------|--------------------------------------------------|
G|-------0--------0--------0--------0-----0------0--|-------0--------0--------0--------0-----0------0--|
D|----0--------0--------0--------0------------------|----0--------0--------0--------0------------------|
A|-------------------3--------2--------1-----1-3----|-------------------3--------2--------1-----1-3----|
E|-3--------1---------------------------------------|-3--------1---------------------------------------|


E|--------------------------------------------------|-------------------------------------------------|
B|--------------------------------------------------|-------0--------0--------0--------0-----0-----0--|
G|-------0--------0--------0--------0-----0------0--|----5--------5--------5--------5-----------------|
D|----0--------0--------0--------0------------------|-7--------6--------5--------4--------3-----2-----|
A|-------------------3--------2--------1-----1-3----|-------------------------------------------------|
E|-3--------1---------------------------------------|-------------------------------------------------|


E|-------------------------------------------------|-------------------------------------------------|
B|-------------------------------------------------|-------------------------------------------------|
G|-------0--------0--------0--------0-----0-----0--|-------0--------0--------0--------0-----0-----0--|
D|----5--------5--------5--------5-----------------|----0--------0--------0--------0-----------------|
A|-7--------6--------5--------4--------3-----2-----|-5--------3--------1--------0--------------------|
E|-------------------------------------------------|-------------------------------------3-----1-----|


E|--------|--------|--------|--------|--------|--------|--------|--------|--------|
B|--------|--------|--------|--------|--------|--------|--------|--------|--------|
G|--------|--------|--------|--------|--------|--------|--------|--------|--------|
D|--------|--------|--------|--------|--------|--------|--------|--------|--------|
A|--------|--------|--------|--------|--------|--------|--------|--------|--------|
E|--------|--------|--------|--------|--------|--------|--------|--------|--------|


E|--------|--------|--------|--------|--------|--------|--------|-------------------------------------------------|
B|--------|--------|--------|--------|--------|--------|--------|-------------------------------------------------|
G|--------|--------|--------|--------|--------|--------|--------|-------0--------0--------0--------0-----0-----0--|
D|--------|--------|--------|--------|--------|--------|--------|----0--------0--------0--------0-----------------|
A|--------|--------|--------|--------|--------|--------|--------|-10-------7--------8--------4--------5-----1-----|
E|--------|--------|--------|--------|--------|--------|--------|-------------------------------------------------|


E|-------------------------------------------------|-------------------------------------------------|
B|-------------------------------------------------|-------------------------------------------------|
G|-------0--------0--------0--------0-----0-----0--|-------0--------0--------0--------0-----0-----0--|
D|----0--------0--------0--------0-----------------|----0--------0--------0--------0-----------------|
A|-10-------7--------13-------8--------10----13----|-10-------7--------8--------4--------5-----1-----|
E|-------------------------------------------------|-------------------------------------------------|


E|-------------------------------------------------|--------|--------|--------|--------|
B|-------------------------------------------------|--------|--------|--------|--------|
G|-------0--------0--------0--------0-----0-----0--|--------|--------|--------|--------|
D|----0--------0--------0--------0-----------------|--------|--------|--------|--------|
A|-------------------3--------2--------1-----------|--------|--------|--------|--------|
E|-3--------1--------------------------------1-----|--------|--------|--------|--------|


E|--------|--------|--------|--------|--------|--------|--------|--------|--------|
B|--------|--------|--------|--------|--------|--------|--------|--------|--------|
G|--------|--------|--------|--------|--------|--------|--------|--------|--------|
D|--------|--------|--------|--------|--------|--------|--------|--------|--------|
A|--------|--------|--------|--------|--------|--------|--------|--------|--------|
E|--------|--------|--------|--------|--------|--------|--------|--------|--------|


E|--------|--------|--------|--------------------------------------------------|--------------------------------------------------|
B|--------|--------|--------|--------------------------------------------------|--------------------------------------------------|
G|--------|--------|--------|-------0--------0--------0--------0-----0------0--|-------0--------0--------0--------0-----0------0--|
D|--------|--------|--------|----0--------0--------0--------0------------------|----0--------0--------0--------0------------------|
A|--------|--------|--------|-------------------3--------2--------1-----1-3----|-------------------3--------2--------1-----1-3----|
E|--------|--------|--------|-3--------1---------------------------------------|-3--------1---------------------------------------|


E|-------------------------------------------------|------------------------------------------|
B|-------------------------------------------------|------------------------------------------|
G|-------0--------0--------0--------0-----0-----0--|-------0--------0--------0--------0-------|
D|----0--------0--------0--------0-----------------|----0--------0--------0--------0----------|
A|-10-------7--------8--------4--------5-----1-----|-10-------7--------13-------8--------10---|
E|-------------------------------------------------|------------------------------------------|


E|--------|--------|--------|
B|--------|--------|--------|
G|--------|--------|--------|
D|--------|--------|--------|
A|-10-----|-10-----|-10-----|
E|--------|--------|--------|





Track 2: Friedman (dirty gtr)

E|--------|--------|--------|---------------------------------|--------|--------|--------|
B|--------|--------|--------|-------------13---12--12-11------|--------|--------|--------|
G|--------|--------|--------|-12---10--10-----------------10--|-12-----|-12-----|--------|
D|--------|--------|--------|-------------10---9---9--8-------|--------|--------|--------|
A|--------|--------|--------|-10---8---8------------------8---|-10-----|-10-----|--------|
E|--------|--------|--------|---------------------------------|--------|--------|--------|


E|---------------------------------|--------------------|----------------|--------|
B|-------------13---12--12-11------|--------------------|----------------|--------|
G|-12---10--10-----------------10--|-14-----------------|----------------|--------|
D|-------------10---9---9--8-------|-----------------12-|-14-----12--12--|--------|
A|-10---8---8------------------8---|-12-----12-14-15----|----------------|-5------|
E|---------------------------------|--------------------|----------------|--------|


E|---------------------------------|---------------------------------|---------------------------------|
B|---------------------------------|---------------------------------|---------------------------------|
G|---------------------------------|-5-----3-------------------------|---------------------------------|
D|-5-----3-------------------------|-5-----3-------------------------|-5-----3-------------------------|
A|-5-----3-------------------------|-3-----1-------1--1--1--1--1--1--|-5-----3-------------------------|
E|-3-----1-------1--1--1--1--1--1--|---------------------------------|-3-----1-------1--1--1--1--1--1--|


E|---------------------------|---------------------------------|---------------------------------|
B|---------------------------|---------------------------------|---------------------------------|
G|-5-----3-------5------6----|---------------------------------|-5-----3-------------------------|
D|-5-----3-------5------6----|-5-----3-------------------------|-5-----3-------------------------|
A|-3-----1-------3------4----|-5-----3-------------------------|-3-----1-------1--1--1--1--1--1--|
E|---------------------------|-3-----1-------1--1--1--1--1--1--|---------------------------------|


E|---------------------------------|---------------------------|--------|--------|
B|---------------------------------|---------------------------|--------|--------|
G|---------------------------------|-5-----3-------5------6----|--------|--------|
D|-5-----3-------------------------|-5-----3-------5------6----|-5------|-5------|
A|-5-----3-------------------------|-3-----1-------3------4----|-5------|-5------|
E|-3-----1-------1--1--1--1--1--1--|---------------------------|-3------|-3------|


E|--------|---------------------------------|--------|--------|--------|---------------------------------|
B|--------|-------------13---12--12-11------|--------|--------|--------|-------------13---12--12-11------|
G|--------|-12---10--10-----------------10--|-12-----|-12-----|--------|-12---10--10-----------------10--|
D|--------|-------------10---9---9--8-------|--------|--------|--------|-------------10---9---9--8-------|
A|--------|-10---8---8------------------8---|-10-----|-10-----|--------|-10---8---8------------------8---|
E|--------|---------------------------------|--------|--------|--------|---------------------------------|


E|--------------------|----------------|--------|---------------------------------|
B|--------------------|----------------|--------|---------------------------------|
G|-14-----------------|----------------|--------|---------------------------------|
D|-----------------12-|-14-----12--12--|--------|-5-----3-------------------------|
A|-12-----12-14-15----|----------------|-5------|-5-----3-------------------------|
E|--------------------|----------------|--------|-3-----1-------1--1--1--1--1--1--|


E|---------------------------------|---------------------------------|---------------------------|
B|---------------------------------|---------------------------------|---------------------------|
G|-5-----3-------------------------|---------------------------------|-5-----3-------5------6----|
D|-5-----3-------------------------|-5-----3-------------------------|-5-----3-------5------6----|
A|-3-----1-------1--1--1--1--1--1--|-5-----3-------------------------|-3-----1-------3------4----|
E|---------------------------------|-3-----1-------1--1--1--1--1--1--|---------------------------|


E|---------------------------------|---------------------------------|---------------------------------|
B|---------------------------------|---------------------------------|---------------------------------|
G|---------------------------------|-5-----3-------------------------|---------------------------------|
D|-5-----3-------------------------|-5-----3-------------------------|-5-----3-------------------------|
A|-5-----3-------------------------|-3-----1-------1--1--1--1--1--1--|-5-----3-------------------------|
E|-3-----1-------1--1--1--1--1--1--|---------------------------------|-3-----1-------1--1--1--1--1--1--|


E|-----------------------------|--------|--------|--------|--------|--------|--------|
B|-----------------------------|--------|--------|--------|--------|--------|--------|
G|-5-----3-------5------6------|--------|--------|--------|--------|--------|--------|
D|-5-----3-------5------6------|--------|--------|--------|--------|--------|--------|
A|-3-----1-------3------4------|--------|--------|--------|--------|--------|--------|
E|-----------------------------|--------|--------|--------|--------|--------|--------|


E|---------------------------------|--------------------------------|--------|--------|
B|---------------------------------|--------------------------------|--------|--------|
G|---------5--4------------2--4----|-----------------4----5----6----|--------|--------|
D|---------------------------------|---------5--4----4----5----6----|-5------|-5------|
A|-2---2-----------2---2-----------|-2---2-----------2----3----4----|-5------|-5------|
E|---------------------------------|--------------------------------|-3------|-3------|


E|--------|---------------------------------|--------|--------|--------|---------------------------------|
B|--------|-------------13---12--12-11------|--------|--------|--------|-------------13---12--12-11------|
G|--------|-12---10--10-----------------10--|-12-----|-12-----|--------|-12---10--10-----------------10--|
D|-5------|-------------10---9---9--8-------|--------|--------|--------|-------------10---9---9--8-------|
A|-5------|-10---8---8------------------8---|-10-----|-10-----|--------|-10---8---8------------------8---|
E|-3------|---------------------------------|--------|--------|--------|---------------------------------|


E|--------------------|----------------|--------|--------|--------|--------|--------|
B|--------------------|----------------|--------|--------|--------|--------|--------|
G|-14-----------------|----------------|--------|--------|--------|--------|--------|
D|-----------------12-|-14-----12--12--|--------|--------|--------|--------|--------|
A|-12-----12-14-15----|----------------|-5------|--------|--------|--------|--------|
E|--------------------|----------------|--------|--------|--------|--------|--------|


E|--------|--------|--------|--------|--------|--------|--------|--------|--------|
B|--------|--------|--------|--------|--------|--------|--------|--------|--------|
G|--------|--------|--------|--------|--------|--------|--------|--------|--------|
D|--------|--------|--------|--------|--------|--------|--------|--------|--------|
A|--------|--------|--------|--------|--------|--------|--------|--------|--------|
E|--------|--------|--------|--------|--------|--------|--------|--------|--------|


E|--------|---------------------------------|--------------------------------|--------|
B|--------|---------------------------------|--------------------------------|--------|
G|--------|---------5--4------------2--4----|-----------------4----5----6----|--------|
D|--------|---------------------------------|---------5--4----4----5----6----|-5------|
A|--------|-2---2-----------2---2-----------|-2---2-----------2----3----4----|-5------|
E|--------|---------------------------------|--------------------------------|-3------|


E|--------|--------|--------|---------------------------------|---------------------------------|
B|--------|--------|--------|---------------------------------|---------------------------------|
G|--------|--------|--------|---------------------------------|-5-----3-------------------------|
D|-5------|-5------|--------|-5-----3-------------------------|-5-----3-------------------------|
A|-5------|-5------|--------|-5-----3-------------------------|-3-----1-------1--1--1--1--1--1--|
E|-3------|-3------|--------|-3-----1-------1--1--1--1--1--1--|---------------------------------|


E|---------------------------------|---------------------------|---------------------------------|
B|---------------------------------|---------------------------|---------------------------------|
G|---------------------------------|-5-----3-------5------6----|---------------------------------|
D|-5-----3-------------------------|-5-----3-------5------6----|-5-----3-------------------------|
A|-5-----3-------------------------|-3-----1-------3------4----|-5-----3-------------------------|
E|-3-----1-------1--1--1--1--1--1--|---------------------------|-3-----1-------1--1--1--1--1--1--|


E|---------------------------------|---------------------------------|---------------------------|
B|---------------------------------|---------------------------------|---------------------------|
G|-5-----3-------------------------|---------------------------------|-5-----3-------5------6----|
D|-5-----3-------------------------|-5-----3-------------------------|-5-----3-------5------6----|
A|-3-----1-------1--1--1--1--1--1--|-5-----3-------------------------|-3-----1-------3------4----|
E|---------------------------------|-3-----1-------1--1--1--1--1--1--|---------------------------|


E|---------------------------------|---------------------------------|---------------------------------|
B|---------------------------------|---------------------------------|---------------------------------|
G|---------------------------------|-7-----5-------------------------|---------------------------------|
D|-7-----5-------------------------|-7-----5-------------------------|-7-----5-------------------------|
A|-7-----5-------------------------|-5-----3-------3--3--3--3--3--3--|-7-----5-------------------------|
E|-5-----3-------3--3--3--3--3--3--|---------------------------------|-5-----3-------3--3--3--3--3--3--|


E|---------------------------|---------------------------------|---------------------------------|
B|---------------------------|---------------------------------|---------------------------------|
G|-7-----5-------7------8----|---------------------------------|-5-----3-------------------------|
D|-7-----5-------7------8----|-5-----3-------------------------|-5-----3-------------------------|
A|-5-----3-------5------6----|-5-----3-------------------------|-3-----1-------1--1--1--1--1--1--|
E|---------------------------|-3-----1-------1--1--1--1--1--1--|---------------------------------|


E|---------------------------------|---------------------------|--------------|------------|
B|---------------------------------|---------------------------|--------------|------------|
G|---------------------------------|-5-----3-------5------6----|--------3--5--|------------|
D|-5-----3-------------------------|-5-----3-------5------6----|-5------3--5--|-5------3---|
A|-5-----3-------------------------|-3-----1-------3------4----|-5------1--3--|-5------3---|
E|-3-----1-------1--1--1--1--1--1--|---------------------------|-3------------|-3------1---|


E|------------|------------|--------|--------|--------|
B|------------|------------|--------|--------|--------|
G|------------|------------|--------|--------|--------|
D|-5------3---|-5------3---|-5------|-5------|-5------|
A|-5------3---|-5------3---|-5------|-5------|-5------|
E|-3------1---|-3------1---|-3------|-3------|-3------|





Track 3: Mustaine (dirty gtr.)

E|--------|--------|--------|--------|--------|--------|--------|--------|--------|
B|--------|--------|--------|--------|--------|--------|--------|--------|--------|
G|--------|--------|--------|--------|--------|--------|--------|--------|--------|
D|--------|--------|--------|--------|--------|--------|--------|--------|--------|
A|--------|--------|--------|--------|--------|--------|--------|--------|--------|
E|--------|--------|--------|--------|--------|--------|--------|--------|--------|


E|--------|--------|---------------------------------|---------------------------------|
B|--------|--------|---------------------------------|---------------------------------|
G|--------|--------|---------------------------------|-5-----3-------------------------|
D|--------|--------|-5-----3-------------------------|-5-----3-------------------------|
A|--------|--------|-5-----3-------------------------|-3-----1-------1--1--1--1--1--1--|
E|--------|--------|-3-----1-------1--1--1--1--1--1--|---------------------------------|


E|---------------------------------|---------------------------|---------------------------------|
B|---------------------------------|---------------------------|---------------------------------|
G|---------------------------------|-5-----3-------5------6----|---------------------------------|
D|-5-----3-------------------------|-5-----3-------5------6----|-5-----3-------------------------|
A|-5-----3-------------------------|-3-----1-------3------4----|-5-----3-------------------------|
E|-3-----1-------1--1--1--1--1--1--|---------------------------|-3-----1-------1--1--1--1--1--1--|


E|---------------------------------|---------------------------------|---------------------------|
B|---------------------------------|---------------------------------|---------------------------|
G|-5-----3-------------------------|---------------------------------|-5-----3-------5------6----|
D|-5-----3-------------------------|-5-----3-------------------------|-5-----3-------5------6----|
A|-3-----1-------1--1--1--1--1--1--|-5-----3-------------------------|-3-----1-------3------4----|
E|---------------------------------|-3-----1-------1--1--1--1--1--1--|---------------------------|


E|--------|--------|--------|--------|--------|--------|--------|--------|--------|
B|--------|--------|--------|--------|--------|--------|--------|--------|--------|
G|--------|--------|--------|--------|--------|--------|--------|--------|--------|
D|--------|--------|--------|--------|--------|--------|--------|--------|--------|
A|--------|--------|--------|--------|--------|--------|--------|--------|--------|
E|--------|--------|--------|--------|--------|--------|--------|--------|--------|


E|--------|--------|---------------------------------|---------------------------------|
B|--------|--------|---------------------------------|---------------------------------|
G|--------|--------|---------------------------------|-5-----3-------------------------|
D|--------|--------|-5-----3-------------------------|-5-----3-------------------------|
A|--------|--------|-5-----3-------------------------|-3-----1-------1--1--1--1--1--1--|
E|--------|--------|-3-----1-------1--1--1--1--1--1--|---------------------------------|


E|---------------------------------|---------------------------|---------------------------------|
B|---------------------------------|---------------------------|---------------------------------|
G|---------------------------------|-5-----3-------5------6----|---------------------------------|
D|-5-----3-------------------------|-5-----3-------5------6----|-5-----3-------------------------|
A|-5-----3-------------------------|-3-----1-------3------4----|-5-----3-------------------------|
E|-3-----1-------1--1--1--1--1--1--|---------------------------|-3-----1-------1--1--1--1--1--1--|


E|---------------------------------|---------------------------------|---------------------------|
B|---------------------------------|---------------------------------|---------------------------|
G|-5-----3-------------------------|---------------------------------|-5-----3-------5------6----|
D|-5-----3-------------------------|-5-----3-------------------------|-5-----3-------5------6----|
A|-3-----1-------1--1--1--1--1--1--|-5-----3-------------------------|-3-----1-------3------4----|
E|---------------------------------|-3-----1-------1--1--1--1--1--1--|---------------------------|


E|---------------------------------|---------------------------|---------------------------------|
B|---------------------------------|---------------------------|---------------------------------|
G|---------------------------------|-7-----5-------7------8----|---------------------------------|
D|-7-----5-------------------------|-7-----5-------7------8----|-7-----5-------------------------|
A|-7-----5-------------------------|-5-----3-------5------6----|-7-----5-------------------------|
E|-5-----3-------3--3--3--3--3--3--|---------------------------|-5-----3-------3--3--3--3--3--3--|


E|---------------------------|---------------------------------|---------------------------------|
B|---------------------------|---------------------------------|---------------------------------|
G|-7-----5-------8------7----|---------5--4------------2--4----|---------------------------------|
D|-7-----5-------8------7----|---------------------------------|---------5--4------------2--4----|
A|-5-----3-------6------5----|-2---2-----------2---2-----------|-2---2-----------2---2-----------|
E|---------------------------|---------------------------------|---------------------------------|


E|--------|--------|--------|--------|--------|--------|--------|--------|--------|
B|--------|--------|--------|--------|--------|--------|--------|--------|--------|
G|--------|--------|--------|--------|--------|--------|--------|--------|--------|
D|--------|--------|--------|--------|--------|--------|--------|--------|--------|
A|--------|--------|--------|--------|--------|--------|--------|--------|--------|
E|--------|--------|--------|--------|--------|--------|--------|--------|--------|


E|--------|--------|--------|--------|---------------------------------|---------------------------------|
B|--------|--------|--------|--------|---------------------------------|---------------------------------|
G|--------|--------|--------|--------|---------------------------------|-5-----3-------------------------|
D|--------|--------|--------|--------|-5-----3-------------------------|-5-----3-------------------------|
A|--------|--------|--------|--------|-5-----3-------------------------|-3-----1-------1--1--1--1--1--1--|
E|--------|--------|--------|--------|-3-----1-------1--1--1--1--1--1--|---------------------------------|


E|---------------------------------|---------------------------|---------------------------------|
B|---------------------------------|---------------------------|---------------------------------|
G|---------------------------------|-5-----3-------5------6----|---------------------------------|
D|-5-----3-------------------------|-5-----3-------5------6----|-5-----3-------------------------|
A|-5-----3-------------------------|-3-----1-------3------4----|-5-----3-------------------------|
E|-3-----1-------1--1--1--1--1--1--|---------------------------|-3-----1-------1--1--1--1--1--1--|


E|---------------------------------|---------------------------------|---------------------------|
B|---------------------------------|---------------------------------|---------------------------|
G|-5-----3-------------------------|---------------------------------|-5-----3-------5------6----|
D|-5-----3-------------------------|-5-----3-------------------------|-5-----3-------5------6----|
A|-3-----1-------1--1--1--1--1--1--|-5-----3-------------------------|-3-----1-------3------4----|
E|---------------------------------|-3-----1-------1--1--1--1--1--1--|---------------------------|


E|---------------------------------|---------------------------|---------------------------------|
B|---------------------------------|---------------------------|---------------------------------|
G|---------------------------------|-7-----5-------7------8----|---------------------------------|
D|-7-----5-------------------------|-7-----5-------7------8----|-7-----5-------------------------|
A|-7-----5-------------------------|-5-----3-------5------6----|-7-----5-------------------------|
E|-5-----3-------3--3--3--3--3--3--|---------------------------|-5-----3-------3--3--3--3--3--3--|


E|---------------------------|---------------------------------|---------------------------------|
B|---------------------------|---------------------------------|---------------------------------|
G|-7-----5-------8------7----|---------5--4------------2--4----|---------------------------------|
D|-7-----5-------8------7----|---------------------------------|---------5--4------------2--4----|
A|-5-----3-------6------5----|-2---2-----------2---2-----------|-2---2-----------2---2-----------|
E|---------------------------|---------------------------------|---------------------------------|


E|--------|--------|--------|--------|--------|--------|---------------------------------|
B|--------|--------|--------|--------|--------|--------|---------------------------------|
G|--------|--------|--------|--------|--------|--------|---------------------------------|
D|--------|--------|--------|--------|--------|--------|-5-----3-------------------------|
A|--------|--------|--------|--------|--------|--------|-5-----3-------------------------|
E|--------|--------|--------|--------|--------|--------|-3-----1-------1--1--1--1--1--1--|


E|---------------------------------|---------------------------------|---------------------------|
B|---------------------------------|---------------------------------|---------------------------|
G|-5-----3-------------------------|---------------------------------|-5-----3-------5------6----|
D|-5-----3-------------------------|-5-----3-------------------------|-5-----3-------5------6----|
A|-3-----1-------1--1--1--1--1--1--|-5-----3-------------------------|-3-----1-------3------4----|
E|---------------------------------|-3-----1-------1--1--1--1--1--1--|---------------------------|


E|---------------------------------|---------------------------------|---------------------------------|
B|---------------------------------|---------------------------------|---------------------------------|
G|---------------------------------|-5-----3-------------------------|---------------------------------|
D|-5-----3-------------------------|-5-----3-------------------------|-5-----3-------------------------|
A|-5-----3-------------------------|-3-----1-------1--1--1--1--1--1--|-5-----3-------------------------|
E|-3-----1-------1--1--1--1--1--1--|---------------------------------|-3-----1-------1--1--1--1--1--1--|


E|---------------------------|---------------------------------|---------------------------------|
B|---------------------------|---------------------------------|---------------------------------|
G|-5-----3-------5------6----|---------------------------------|-7-----5-------------------------|
D|-5-----3-------5------6----|-7-----5-------------------------|-7-----5-------------------------|
A|-3-----1-------3------4----|-7-----5-------------------------|-5-----3-------3--3--3--3--3--3--|
E|---------------------------|-5-----3-------3--3--3--3--3--3--|---------------------------------|


E|---------------------------------|---------------------------|---------------------------------|
B|---------------------------------|---------------------------|---------------------------------|
G|---------------------------------|-7-----5-------7------8----|---------------------------------|
D|-7-----5-------------------------|-7-----5-------7------8----|-5-----3-------------------------|
A|-7-----5-------------------------|-5-----3-------5------6----|-5-----3-------------------------|
E|-5-----3-------3--3--3--3--3--3--|---------------------------|-3-----1-------1--1--1--1--1--1--|


E|---------------------------------|---------------------------------|---------------------------|
B|---------------------------------|---------------------------------|---------------------------|
G|-5-----3-------------------------|---------------------------------|-5-----3-------5------6----|
D|-5-----3-------------------------|-5-----3-------------------------|-5-----3-------5------6----|
A|-3-----1-------1--1--1--1--1--1--|-5-----3-------------------------|-3-----1-------3------4----|
E|---------------------------------|-3-----1-------1--1--1--1--1--1--|---------------------------|


E|--------|--------|--------|--------|--------|--------|--------|
B|--------|--------|--------|--------|--------|--------|--------|
G|--------|--------|--------|--------|--------|--------|--------|
D|--------|--------|--------|--------|--------|--------|--------|
A|--------|--------|--------|--------|--------|--------|--------|
E|--------|--------|--------|--------|--------|--------|--------|





Track 4: Solo Gtr. (Friedman)

E|--------|--------|--------|--------|--------|--------|--------|--------|--------|
B|--------|--------|--------|--------|--------|--------|--------|--------|--------|
G|--------|--------|--------|--------|--------|--------|--------|--------|--------|
D|--------|--------|--------|--------|--------|--------|--------|--------|--------|
A|--------|--------|--------|--------|--------|--------|--------|--------|--------|
E|--------|--------|--------|--------|--------|--------|--------|--------|--------|


E|--------|--------|--------|--------|--------|--------|--------|--------|--------|
B|--------|--------|--------|--------|--------|--------|--------|--------|--------|
G|--------|--------|--------|--------|--------|--------|--------|--------|--------|
D|--------|--------|--------|--------|--------|--------|--------|--------|--------|
A|--------|--------|--------|--------|--------|--------|--------|--------|--------|
E|--------|--------|--------|--------|--------|--------|--------|--------|--------|


E|--------|--------|--------|--------|--------|--------|--------|--------|--------|
B|--------|--------|--------|--------|--------|--------|--------|--------|--------|
G|--------|--------|--------|--------|--------|--------|--------|--------|--------|
D|--------|--------|--------|--------|--------|--------|--------|--------|--------|
A|--------|--------|--------|--------|--------|--------|--------|--------|--------|
E|--------|--------|--------|--------|--------|--------|--------|--------|--------|


E|--------|--------|--------|--------|--------|--------|--------|--------|--------|
B|--------|--------|--------|--------|--------|--------|--------|--------|--------|
G|--------|--------|--------|--------|--------|--------|--------|--------|--------|
D|--------|--------|--------|--------|--------|--------|--------|--------|--------|
A|--------|--------|--------|--------|--------|--------|--------|--------|--------|
E|--------|--------|--------|--------|--------|--------|--------|--------|--------|


E|--------|----------------|---------------------------|-----------------------------|
B|--------|----------------|---------------------------|-----------------------------|
G|--------|-------------7--|-7----7---15--15--7----7---|-7----7----7----7--5----5----|
D|--------|----------------|---------------------------|-----------------------------|
A|--------|----------------|---------------------------|-----------------------------|
E|--------|----------------|---------------------------|-----------------------------|


E|-------------------------------------------------------|------------------------------------|
B|-------------------------------------------------------|------------------------------------|
G|-5--6--5-----5-----------------------------------------|------------------------------------|
D|----------7-----7--6--5-----5--6--5-----5--------------|------------------------------------|
A|-------------------------7-----------7-----7--6--5-----|-5--6--5-----5----------------------|
E|----------------------------------------------------8--|----------8-----8--5--3----16--10---|


E|--------|--------|--------|--------|--------|--------|--------|--------|--------|
B|--------|--------|--------|--------|--------|--------|--------|--------|--------|
G|--------|--------|--------|--------|--------|--------|--------|--------|--------|
D|-9------|-9------|--------|--------|--------|--------|--------|--------|--------|
A|--------|--------|--------|--------|--------|--------|--------|--------|--------|
E|-7------|-7------|--------|--------|--------|--------|--------|--------|--------|


E|--------|--------|--------|--------|--------|--------|-15--15---15--15---15--19--|
B|--------|--------|--------|--------|--------|--------|-18--18---18--18-----------|
G|--------|--------|--------|--------|--------|--------|---------------------------|
D|--------|--------|--------|--------|--------|--------|---------------------------|
A|--------|--------|--------|--------|--------|--------|---------------------------|
E|--------|--------|--------|--------|--------|--------|---------------------------|


E|-19-19-15-------------------------------------------|-------------------------------------------------|
B|----------18-15----18-15----------------------------|-------------------------------------------------|
G|----------------17-------17-16----------------------|----------------------------------17-17-15-17-15-|
D|-------------------------------17-15-14-15-14-15-14-|----14----------15-17-15----15-17----------------|
A|----------------------------------------------------|-17----17-15-17----------17----------------------|
E|----------------------------------------------------|-------------------------------------------------|


E|-------15--------------------------------|-----------------------------------------------|
B|-18-18----18-15-----15-18----15----------|-----------------------------------------------|
G|----------------1717------17----15---15--|--------------------15-17-18-17-17-17-15-------|
D|-----------------------------------------|--------------15-17----------------------17-15-|
A|-----------------------------------------|-17--15-16-17----------------------------------|
E|-----------------------------------------|-----------------------------------------------|


E|---------------------------------------------|-------------------------------------------------|
B|-17-17---------------------------------------|---------15-18-15----15-------15-18-15-1815---15-|
G|-------17--17-17-17-15-17-17-15----14--------|-----16-----------17----17-17--------------17----|
D|--------------------------------17----15-----|-------------------------------------------------|
A|-----------------------------------------17--|-12----------------------------------------------|
E|---------------------------------------------|-------------------------------------------------|


E|-18--17--15--------------------------------------|-----------------------------|
B|-------------18--17--15--------------------------|-----------------------------|
G|-------------------------17--16--15--------------|-----------------------7--9--|
D|-------------------------------------17--16--15--|-5-----5---5---7----9--------|
A|-------------------------------------------------|-----------------------------|
E|-------------------------------------------------|-----------------------------|


E|------------------------|-12-11-10----------------------------------------|----------------------------------------------------------------14-15-17-|
B|-8----8---8---8----8----|----------13-10----10-13-------------------------|-------------------10-12-13-12-10-------------10-12-13-14-15-17----------|
G|------------------------|----------------12-------------------------------|----------9--11-12----------------12-9--11-12----------------------------|
D|------------------------|-------------------------13-12-10----------10----|-10-12-13----------------------------------------------------------------|
A|------------------------|----------------------------------12-10-12----12-|-------------------------------------------------------------------------|
E|------------------------|-------------------------------------------------|-------------------------------------------------------------------------|


E|-17--17----17----|-17----17---17---|--------|--------|--------|--------|--------|
B|-----------------|-----------------|--------|--------|--------|--------|--------|
G|-----------------|-----------------|--------|--------|--------|--------|--------|
D|-----------------|-----------------|--------|--------|--------|--------|--------|
A|-----------------|-----------------|--------|--------|--------|--------|--------|
E|-----------------|-----------------|--------|--------|--------|--------|--------|


E|--------|--------|--------|--------|--------|--------|--------|--------|--------|
B|--------|--------|--------|--------|--------|--------|--------|--------|--------|
G|--------|--------|--------|--------|--------|--------|--------|--------|--------|
D|--------|--------|--------|--------|--------|--------|--------|--------|--------|
A|--------|--------|--------|--------|--------|--------|--------|--------|--------|
E|--------|--------|--------|--------|--------|--------|--------|--------|--------|


E|--------|--------|--------|--------|--------|--------|--------|--------|--------|
B|--------|--------|--------|--------|--------|--------|--------|--------|--------|
G|--------|--------|--------|--------|--------|--------|--------|--------|--------|
D|--------|--------|--------|--------|--------|--------|--------|--------|--------|
A|--------|--------|--------|--------|--------|--------|--------|--------|--------|
E|--------|--------|--------|--------|--------|--------|--------|--------|--------|


E|--------|--------|--------|--------|--------|--------|
B|--------|--------|--------|--------|--------|--------|
G|--------|--------|--------|--------|--------|--------|
D|--------|--------|--------|--------|--------|--------|
A|--------|--------|--------|--------|--------|--------|
E|--------|--------|--------|--------|--------|--------|





Track 5: Mustaine (clean gtr.)

E|--------|--------|--------|--------|--------|--------|--------|--------|--------|
B|--------|--------|--------|--------|--------|--------|--------|--------|--------|
G|--------|--------|--------|--------|--------|--------|--------|--------|--------|
D|--------|--------|--------|--------|--------|--------|--------|--------|--------|
A|--------|--------|--------|--------|--------|--------|--------|--------|--------|
E|--------|--------|--------|--------|--------|--------|--------|--------|--------|


E|--------|--------|--------|--------|--------|--------|--------|--------|--------|
B|--------|--------|--------|--------|--------|--------|--------|--------|--------|
G|--------|--------|--------|--------|--------|--------|--------|--------|--------|
D|--------|--------|--------|--------|--------|--------|--------|--------|--------|
A|--------|--------|--------|--------|--------|--------|--------|--------|--------|
E|--------|--------|--------|--------|--------|--------|--------|--------|--------|


E|--------|--------|--------|--------|--------|--------|--------|--------|--------|
B|--------|--------|--------|--------|--------|--------|--------|--------|--------|
G|--------|--------|--------|--------|--------|--------|--------|--------|--------|
D|--------|--------|--------|--------|--------|--------|--------|--------|--------|
A|--------|--------|--------|--------|--------|--------|--------|--------|--------|
E|--------|--------|--------|--------|--------|--------|--------|--------|--------|


E|--------|--------|--------|--------|--------|--------|--------|--------|--------|
B|--------|--------|--------|--------|--------|--------|--------|--------|--------|
G|--------|--------|--------|--------|--------|--------|--------|--------|--------|
D|--------|--------|--------|--------|--------|--------|--------|--------|--------|
A|--------|--------|--------|--------|--------|--------|--------|--------|--------|
E|--------|--------|--------|--------|--------|--------|--------|--------|--------|


E|--------|--------|--------|--------|--------|--------|--------|--------|---------------------------------|
B|--------|--------|--------|--------|--------|--------|--------|--------|---------------------------------|
G|--------|--------|--------|--------|--------|--------|--------|--------|---------5--4------------2--4----|
D|--------|--------|--------|--------|--------|--------|--------|--------|---------------------------------|
A|--------|--------|--------|--------|--------|--------|--------|--------|-2---2-----------2---2-----------|
E|--------|--------|--------|--------|--------|--------|--------|--------|---------------------------------|


E|--------------------------------|--------|--------|--------|--------|--------|--------|
B|--------------------------------|--------|--------|--------|--------|--------|--------|
G|-----------------4----5----6----|--------|--------|--------|--------|--------|--------|
D|---------5--4----4----5----6----|--------|--------|--------|--------|--------|--------|
A|-2---2-----------2----3----4----|--------|--------|--------|--------|--------|--------|
E|--------------------------------|--------|--------|--------|--------|--------|--------|


E|--------|--------|--------|--------|--------|--------|--------|--------|--------|
B|--------|--------|--------|--------|--------|--------|--------|--------|--------|
G|--------|--------|--------|--------|--------|--------|--------|--------|--------|
D|--------|--------|--------|--------|--------|--------|--------|--------|--------|
A|--------|--------|--------|--------|--------|--------|--------|--------|--------|
E|--------|--------|--------|--------|--------|--------|--------|--------|--------|


E|--------|--------|--------|--------|--------|--------|--------|--------|--------|
B|--------|--------|--------|--------|--------|--------|--------|--------|--------|
G|--------|--------|--------|--------|--------|--------|--------|--------|--------|
D|--------|--------|--------|--------|--------|--------|--------|--------|--------|
A|--------|--------|--------|--------|--------|--------|--------|--------|--------|
E|--------|--------|--------|--------|--------|--------|--------|--------|--------|


E|--------|--------|--------|--------|--------|--------|--------|--------|--------|
B|--------|--------|--------|--------|--------|--------|--------|--------|--------|
G|--------|--------|--------|--------|--------|--------|--------|--------|--------|
D|--------|--------|--------|--------|--------|--------|--------|--------|--------|
A|--------|--------|--------|--------|--------|--------|--------|--------|--------|
E|--------|--------|--------|--------|--------|--------|--------|--------|--------|


E|--------|--------|--------|--------|--------|--------|--------|--------|--------|
B|--------|--------|--------|--------|--------|--------|--------|--------|--------|
G|--------|--------|--------|--------|--------|--------|--------|--------|--------|
D|--------|--------|--------|--------|--------|--------|--------|--------|--------|
A|--------|--------|--------|--------|--------|--------|--------|--------|--------|
E|--------|--------|--------|--------|--------|--------|--------|--------|--------|


E|--------|--------|--------|--------|--------|--------|--------|--------|--------|
B|--------|--------|--------|--------|--------|--------|--------|--------|--------|
G|--------|--------|--------|--------|--------|--------|--------|--------|--------|
D|--------|--------|--------|--------|--------|--------|--------|--------|--------|
A|--------|--------|--------|--------|--------|--------|--------|--------|--------|
E|--------|--------|--------|--------|--------|--------|--------|--------|--------|


E|--------|--------|--------|
B|--------|--------|--------|
G|--------|--------|--------|
D|--------|--------|--------|
A|--------|--------|--------|
E|--------|--------|--------|





Track 6: Mustaine (clean gtr.)

E|--------|--------|--------|--------|--------|--------|--------|--------|--------|
B|--------|--------|--------|--------|--------|--------|--------|--------|--------|
G|--------|--------|--------|--------|--------|--------|--------|--------|--------|
D|--------|--------|--------|--------|--------|--------|--------|--------|--------|
A|--------|--------|--------|--------|--------|--------|--------|--------|--------|
E|--------|--------|--------|--------|--------|--------|--------|--------|--------|


E|--------|--------|--------|--------|--------|--------|--------|--------|--------|
B|--------|--------|--------|--------|--------|--------|--------|--------|--------|
G|--------|--------|--------|--------|--------|--------|--------|--------|--------|
D|--------|--------|--------|--------|--------|--------|--------|--------|--------|
A|--------|--------|--------|--------|--------|--------|--------|--------|--------|
E|--------|--------|--------|--------|--------|--------|--------|--------|--------|


E|--------|--------|--------|--------|--------|--------|--------|--------|--------|
B|--------|--------|--------|--------|--------|--------|--------|--------|--------|
G|--------|--------|--------|--------|--------|--------|--------|--------|--------|
D|--------|--------|--------|--------|--------|--------|--------|--------|--------|
A|--------|--------|--------|--------|--------|--------|--------|--------|--------|
E|--------|--------|--------|--------|--------|--------|--------|--------|--------|


E|--------|--------|--------|--------|--------|--------|--------|--------|--------|
B|--------|--------|--------|--------|--------|--------|--------|--------|--------|
G|--------|--------|--------|--------|--------|--------|--------|--------|--------|
D|--------|--------|--------|--------|--------|--------|--------|--------|--------|
A|--------|--------|--------|--------|--------|--------|--------|--------|--------|
E|--------|--------|--------|--------|--------|--------|--------|--------|--------|


E|--------|--------|--------|--------|--------|--------|--------|--------|--------|
B|--------|--------|--------|--------|--------|--------|--------|--------|--------|
G|--------|--------|--------|--------|--------|--------|--------|--------|--------|
D|--------|--------|--------|--------|--------|--------|--------|--------|--------|
A|--------|--------|--------|--------|--------|--------|--------|--------|--------|
E|--------|--------|--------|--------|--------|--------|--------|--------|--------|


E|--------|--------|--------|--------|--------|--------|--------|--------|--------|
B|--------|--------|--------|--------|--------|--------|--------|--------|--------|
G|--------|--------|--------|--------|--------|--------|--------|--------|--------|
D|--------|--------|--------|--------|--------|--------|--------|--------|--------|
A|--------|--------|--------|--------|--------|--------|--------|--------|--------|
E|--------|--------|--------|--------|--------|--------|--------|--------|--------|


E|--------|--------|--------|--------|--------|--------|--------|--------|--------|
B|--------|--------|--------|--------|--------|--------|--------|--------|--------|
G|--------|--------|--------|--------|--------|--------|--------|--------|--------|
D|--------|--------|--------|--------|--------|--------|--------|--------|--------|
A|--------|--------|--------|--------|--------|--------|--------|--------|--------|
E|--------|--------|--------|--------|--------|--------|--------|--------|--------|


E|--------|--------|--------|--------|--------|--------|--------|--------|---------------------------------|
B|--------|--------|--------|--------|--------|--------|--------|--------|---------------------------------|
G|--------|--------|--------|--------|--------|--------|--------|--------|---------5--4------------2--4----|
D|--------|--------|--------|--------|--------|--------|--------|--------|---------------------------------|
A|--------|--------|--------|--------|--------|--------|--------|--------|-2---2-----------2---2-----------|
E|--------|--------|--------|--------|--------|--------|--------|--------|---------------------------------|


E|--------------------------------|--------|--------|--------|--------|--------|--------|
B|--------------------------------|--------|--------|--------|--------|--------|--------|
G|-----------------4----5----6----|--------|--------|--------|--------|--------|--------|
D|---------5--4----4----5----6----|--------|--------|--------|--------|--------|--------|
A|-2---2-----------2----3----4----|--------|--------|--------|--------|--------|--------|
E|--------------------------------|--------|--------|--------|--------|--------|--------|


E|--------|--------|--------|--------|--------|--------|--------|--------|--------|
B|--------|--------|--------|--------|--------|--------|--------|--------|--------|
G|--------|--------|--------|--------|--------|--------|--------|--------|--------|
D|--------|--------|--------|--------|--------|--------|--------|--------|--------|
A|--------|--------|--------|--------|--------|--------|--------|--------|--------|
E|--------|--------|--------|--------|--------|--------|--------|--------|--------|


E|--------|--------|--------|--------|--------|--------|--------|--------|--------|
B|--------|--------|--------|--------|--------|--------|--------|--------|--------|
G|--------|--------|--------|--------|--------|--------|--------|--------|--------|
D|--------|--------|--------|--------|--------|--------|--------|--------|--------|
A|--------|--------|--------|--------|--------|--------|--------|--------|--------|
E|--------|--------|--------|--------|--------|--------|--------|--------|--------|


E|--------|--------|--------|
B|--------|--------|--------|
G|--------|--------|--------|
D|--------|--------|--------|
A|--------|--------|--------|
E|--------|--------|--------|





Track 7: Ellefson

G|--------|--------------------|------------------|-----------------------------|-------------------------------|
D|--------|--------------------|--------------3---|-5----3----------------------|----------------------------5--|
A|--------|--------------------|--------3--5------|-----------3----2----1-------|-----------3----2----1---5-----|
E|-3------|-----------------1--|-3----------------|-------------------------1---|-3----1------------------------|


G|-------------------------------|-------------------------------|-------------------------------|
D|-5--------------------------5--|----------------------------5--|----------------------------5--|
A|-----------3----2----1---5-----|-----------3----2----1---5-----|-----------3----2----1---5-----|
E|------1------------------------|-3----1------------------------|-3----1------------------------|


G|-----------------------------|-----------------------------|-----------------------------|
D|-7----6----5----4----3---2---|-----------------------------|-----------------------------|
A|-----------------------------|-7----6----5----4----3---2---|-5----3----1----0------------|
E|-----------------------------|-----------------------------|---------------------3---1---|


G|---------------------------------|---------------------------------|---------------------------------|
D|---------------------------------|---------------------------------|---------------------------------|
A|---------------------------------|-3-----1-------1--1--1--1--1--1--|---------------------------------|
E|-3-----1-------1--1--1--1--1--1--|---------------------------------|-3-----1-------1--1--1--1--1--1--|


G|---------------------------|---------------------------------|---------------------------------|
D|---------------------------|---------------------------------|---------------------------------|
A|-3-----1-------3------4----|---------------------------------|-3-----1-------1--1--1--1--1--1--|
E|---------------------------|-3-----1-------1--1--1--1--1--1--|---------------------------------|


G|---------------------------------|---------------------------|--------|----------------|
D|---------------------------------|---------------------------|--------|----------------|
A|---------------------------------|-3-----1-------3------4----|--------|----------------|
E|-3-----1-------1--1--1--1--1--1--|---------------------------|-3------|-3------3----1--|


G|------------------|-----------------------------|-------------------------------|
D|--------------3---|-5----3----------------------|----------------------------5--|
A|--------3--5------|-----------3----2----1-------|-----------3----2----1---5-----|
E|-3----------------|-------------------------1---|-3----1------------------------|


G|-------------------------------|-------------------------------|-------------------------------|
D|-5--------------------------5--|----------------------------5--|----------------------------5--|
A|-----------3----2----1---5-----|-----------3----2----1---5-----|-----------3----2----1---5-----|
E|------1------------------------|-3----1------------------------|-3----1------------------------|


G|-----------------------------|-----------------------------|-----------------------------|
D|-7----6----5----4----3---2---|-----------------------------|-----------------------------|
A|-----------------------------|-7----6----5----4----3---2---|-5----3----1----0------------|
E|-----------------------------|-----------------------------|---------------------3---1---|


G|---------------------------------|---------------------------------|---------------------------------|
D|---------------------------------|---------------------------------|---------------------------------|
A|---------------------------------|-3-----1-------1--1--1--1--1--1--|---------------------------------|
E|-3-----1-------1--1--1--1--1--1--|---------------------------------|-3-----1-------1--1--1--1--1--1--|


G|---------------------------|---------------------------------|---------------------------------|
D|---------------------------|---------------------------------|---------------------------------|
A|-3-----1-------3------4----|---------------------------------|-3-----1-------1--1--1--1--1--1--|
E|---------------------------|-3-----1-------1--1--1--1--1--1--|---------------------------------|


G|---------------------------------|---------------------------|---------------------------------|
D|---------------------------------|---------------------------|---------------------------------|
A|---------------------------------|-3-----1-------3------4----|---------------------------------|
E|-3-----1-------1--1--1--1--1--1--|---------------------------|-5-----3-------3--3--3--3--3--0--|


G|---------------------------|---------------------------------|---------------------------|
D|---------------------------|---------------------------------|---------------------------|
A|-5-----3-------5------6----|---------------------------------|-5-----3-------6------5----|
E|---------------------------|-5-----3-------3--3--3--3--3--0--|---------------------------|


G|-------------------------------------|-------------------------------------|-------------------------------------|
D|---------10-9---9----------7--9---9--|-------------------------------------|---------10-9---9----------7--9---9--|
A|-------------------------------------|---------10-9---9----------7--9---9--|-------------------------------------|
E|-7---7-------------7---7-------------|-7---7-------------7---7-------------|-7---7-------------7---7-------------|


G|----------------------------------|--------|----------------|------------------|
D|----------------------------------|--------|----------------|--------------3---|
A|---------10-9---9-----------------|--------|----------------|--------3--5------|
E|-7---7-------------7----8----9----|-3------|-3------3----1--|-3----------------|


G|-----------------------------|----------------|----------------|--------------------|
D|-5----3----------------------|----------------|----------------|--------------3-----|
A|-----------3----2----1-------|----------------|----------------|--------3--5-----5--|
E|-------------------------1---|-3------3----1--|-3------3----1--|-3------------------|


G|---------------------3---5-----|-----------------------------|-----------------------------|
D|-5----3---------------------5--|-7----6----5----4----3---2---|-----------------------------|
A|-----------3----2--------------|-----------------------------|-7----6----5----4----3---2---|
E|-------------------------------|-----------------------------|-----------------------------|


G|-----------------------------|---------------------------------|---------------------------------|
D|-----------------------------|---------------------------------|---------------------------------|
A|-5----3----1----0------------|---------------------------------|-3-----1-------1--1--1--1--1--1--|
E|---------------------3---1---|-3-----1-------1--1--1--1--1--1--|---------------------------------|


G|---------------------------------|---------------------------|---------------------------------|
D|---------------------------------|---------------------------|---------------------------------|
A|---------------------------------|-3-----1-------3------4----|---------------------------------|
E|-3-----1-------1--1--1--1--1--1--|---------------------------|-3-----1-------1--1--1--1--1--1--|


G|---------------------------------|---------------------------------|---------------------------|
D|---------------------------------|---------------------------------|---------------------------|
A|-3-----1-------1--1--1--1--1--1--|---------------------------------|-3-----1-------3------4----|
E|---------------------------------|-3-----1-------1--1--1--1--1--1--|---------------------------|


G|---------------------------------|---------------------------|---------------------------------|
D|---------------------------------|---------------------------|---------------------------------|
A|---------------------------------|-5-----3-------5------6----|---------------------------------|
E|-5-----3-------3--3--3--3--3--0--|---------------------------|-5-----3-------3--3--3--3--3--0--|


G|---------------------------|-------------------------------------|-------------------------------------|
D|---------------------------|---------10-9---9----------7--9---9--|-------------------------------------|
A|-5-----3-------6------5----|-------------------------------------|---------10-9---9----------7--9---9--|
E|---------------------------|-7---7-------------7---7-------------|-7---7-------------7---7-------------|


G|-------------------------------------|----------------------------------|--------|
D|---------10-9---9----------7--9---9--|----------------------------------|--------|
A|-------------------------------------|---------10-9---9-----------------|--------|
E|-7---7-------------7---7-------------|-7---7-------------7----8----9----|-3------|


G|----------------|------------------|-----------------------------|---------------------------------|
D|----------------|--------------3---|-5----3----------------------|---------------------------------|
A|----------------|--------3--5------|-----------3----2----1-------|---------------------------------|
E|-3------3----1--|-3----------------|-------------------------1---|-3-----1-------1--1--1--1--1--1--|


G|---------------------------------|---------------------------------|---------------------------|
D|---------------------------------|---------------------------------|---------------------------|
A|-3-----1-------1--1--1--1--1--1--|---------------------------------|-3-----1-------3------4----|
E|---------------------------------|-3-----1-------1--1--1--1--1--1--|---------------------------|


G|---------------------------------|---------------------------------|---------------------------------|
D|---------------------------------|---------------------------------|---------------------------------|
A|---------------------------------|-3-----1-------1--1--1--1--1--1--|---------------------------------|
E|-3-----1-------1--1--1--1--1--1--|---------------------------------|-3-----1-------1--1--1--1--1--1--|


G|---------------------------|---------------------------------|---------------------------------|
D|---------------------------|---------------------------------|---------------------------------|
A|-3-----1-------3------4----|---------------------------------|-5-----3-------3--3--3--3--3--3--|
E|---------------------------|-5-----3-------3--3--3--3--3--0--|---------------------------------|


G|---------------------------------|---------------------------|---------------------------------|
D|---------------------------------|---------------------------|---------------------------------|
A|---------------------------------|-5-----3-------5------6----|---------------------------------|
E|-5-----3-------3--3--3--3--3--0--|---------------------------|-3-----1-------1--1--1--1--1--1--|


G|---------------------------------|---------------------------------|---------------------------|
D|---------------------------------|---------------------------------|---------------------------|
A|-3-----1-------1--1--1--1--1--1--|---------------------------------|-3-----1-------3------4----|
E|---------------------------------|-3-----1-------1--1--1--1--1--1--|---------------------------|


G|-----------------------------|-----------------------------|------------|------------|
D|-----------------------------|-----------------------------|------------|------------|
A|-----------3----2----1---3---|-----------3----2----1---3---|------------|------------|
E|-3----1----------------------|-3----1----------------------|-3------1---|-3------1---|


G|--------|--------|--------|
D|--------|--------|--------|
A|--------|--------|--------|
E|-3------|-3------|--------|