Menu:

 

Search:

 

megadeth - five magics:

 



Title: Five Magics
Artist: 
Album: Rust In Peace
Author: Dave Mustaine


Track 1: Dave Mustaine

E|-----------------------------------|-----------------------------------|-----------------------------------|
B|-----------------------------------|-----------------------------------|-----------------------------------|
G|-----------------------------------|-----------------------------------|-----------------------------------|
D|-----------------------------------|-----------------------------------|-----------------------------------|
A|-7--5--------8----7--5--------8----|-7--5--------8----7--5--------5----|-7--5--------8----7--5--------8----|
E|-------7--5--6----------7--5--6----|-------7--5--6----------7--5--3----|-------7--5--6----------7--5--6----|


E|-----------------------------------|--------|--------|--------|--------|--------|
B|-----------------------------------|--------|--------|--------|--------|--------|
G|-----------------------------------|--------|--------|--------|--------|--------|
D|-----------------------------------|-2------|-2------|-2------|-2------|-2------|
A|-7--5--------8----7--5--------5----|-2------|-2------|-2------|-2------|-2------|
E|-------7--5--6----------7--5--3----|-0------|-0------|-0------|-0------|-0------|


E|--------|--------|--------|--------|--------|--------|--------|--------|--------|
B|--------|--------|--------|--------|--------|--------|--------|--------|--------|
G|--------|--------|--------|--------|--------|--------|--------|--------|--------|
D|-2------|-2------|-2------|-2------|-2------|-2------|-2------|-2------|-2------|
A|-2------|-2------|-2------|-2------|-2------|-2------|-2------|-2------|-2------|
E|-0------|-0------|-0------|-0------|-0------|-0------|-0------|-0------|-0------|


E|--------|-------------|------------------|------------------|------------------|
B|--------|-------------|------------------|------------------|------------------|
G|--------|--------2----|-9-----8----------|------------------|-9-----8----------|
D|-2------|-2-----------|-------------9----|------------------|-------------9----|
A|-2------|-2-----------|------------------|-10----9----------|------------------|
E|-0------|-0-----------|------------------|-------------11---|------------------|


E|------------------|------------------|------------------|------------------|------------------|
B|-------------8----|------------------|------------------|------------------|-------------8----|
G|------------------|-9-----8----------|------------------|-9-----8----------|------------------|
D|------------------|-------------9----|------------------|-------------9----|------------------|
A|-10----9----------|------------------|-10----9----------|------------------|-10----9----------|
E|------------------|------------------|-------------11---|------------------|------------------|


E|---------------------------------|---------------------------------|---------------------------------|
B|---------------------------------|---------------------------------|---------------------------------|
G|-------------------------0-------|-------------------------11------|-------------------------0-------|
D|---------5-----------8-------8---|---------9-----------10------10--|---------5-----------8-------8---|
A|-----7-----------7---------------|-----10----------12--------------|-----7-----------7---------------|
E|-0-----------0-------------------|-0-----------0-------------------|-0-----------0-------------------|


E|------------------------------|---------------------------------|---------------------------------|
B|------------------------------|---------------------------------|---------------------------------|
G|-------------------------11---|-------------------------0-------|-------------------------11------|
D|---------9-----------10-------|---------5-----------8-------8---|---------9-----------10------10--|
A|-----10----------12-----------|-----7-----------7---------------|-----10----------12--------------|
E|-0-----------0----------------|-0-----------0-------------------|-0-----------0-------------------|


E|---------------------------------|---------------------------------|---------------------------------|
B|---------------------------------|---------------------------------|---------------------------------|
G|---------------------------------|---------------------------------|---------------------------------|
D|---------5-----------5-----------|-2---0---2---4---5---4---5---7---|---------5-----------5-----------|
A|-----5-----------5---------------|-2---0---2---4---5---4---5---7---|-----5-----------5---------------|
E|-7-----------6-----------3---2---|-0-------------------------------|-7-----------6-----------3---2---|


E|---------------------------------|---------------------------------|---------------------------------|
B|---------------------------------|---------------------------------|---------------------------------|
G|---------------------------------|---------------------------------|---------------------------------|
D|-2---0---2---4---5---4---5---7---|---------5-----------5-----------|-2---0---2---4---5---4---5---7---|
A|-2---0---2---4---5---4---5---7---|-----5-----------5---------------|-2---0---2---4---5---4---5---7---|
E|-0-------------------------------|-7-----------6-----------3---2---|-0-------------------------------|


E|---------------------------------|--------|--------|--------|--------|--------|--------|
B|---------------------------------|--------|--------|--------|--------|--------|--------|
G|---------------------------------|--------|--------|--------|--------|--------|--------|
D|---------5-----------5-----------|-2------|-2------|-2------|-2------|-2------|-2------|
A|-----5-----------5---------------|-2------|-2------|-2------|-2------|-2------|-2------|
E|-7-----------6-----------3---2---|-0------|-0------|-0------|-0------|-0------|-0------|


E|--------|--------|-------------|------------------|------------------|------------------|
B|--------|--------|-------------|------------------|------------------|------------------|
G|--------|--------|--------2----|-9-----8----------|------------------|-9-----8----------|
D|-2------|-2------|-2-----------|-------------9----|------------------|-------------9----|
A|-2------|-2------|-2-----------|------------------|-10----9----------|------------------|
E|-0------|-0------|-0-----------|------------------|-------------11---|------------------|


E|------------------|------------------|------------------|------------------|------------------|
B|-------------8----|------------------|------------------|------------------|-------------8----|
G|------------------|-9-----8----------|------------------|-9-----8----------|------------------|
D|------------------|-------------9----|------------------|-------------9----|------------------|
A|-10----9----------|------------------|-10----9----------|------------------|-10----9----------|
E|------------------|------------------|-------------11---|------------------|------------------|


E|---------------------------------|---------------------------------|---------------------------------|
B|---------------------------------|---------------------------------|---------------------------------|
G|-------------------------0-------|-------------------------11------|-------------------------0-------|
D|---------5-----------8-------8---|---------9-----------10------10--|---------5-----------8-------8---|
A|-----7-----------7---------------|-----10----------12--------------|-----7-----------7---------------|
E|-0-----------0-------------------|-0-----------0-------------------|-0-----------0-------------------|


E|------------------------------|---------------------------------|---------------------------------|
B|------------------------------|---------------------------------|---------------------------------|
G|-------------------------11---|-------------------------0-------|-------------------------11------|
D|---------9-----------10-------|---------5-----------8-------8---|---------9-----------10------10--|
A|-----10----------12-----------|-----7-----------7---------------|-----10----------12--------------|
E|-0-----------0----------------|-0-----------0-------------------|-0-----------0-------------------|


E|---------------------------------|-------------------------|------------------------------|
B|---------------------------------|-------------------------|------------------------------|
G|---------------------------------|-------------------------|------------------------------|
D|---------5-----------5-----------|-2-----2---2---------3---|-3----------------------------|
A|-----5-----------5---------------|-2-----2---2---------3---|-3----3---3---3---3---3---3---|
E|-7-----------6-----------3---2---|-0-----0-------0--0--1---|-1----1---1---1---1---1---1---|


E|-----------------------------------|---------------------------|-----------------------------|
B|-----------------------------------|---------------------------|-----------------------------|
G|-----------------------------------|--------------4------------|-----------------------------|
D|-------------------------------2---|-2------------4------------|-------------------------3---|
A|-3---3---3---3-------2---------2---|-2------------2------------|-----------------2-------3---|
E|-1---1---1---1---0-------0--0--0---|-0----0---0--------0---0---|-0--0--3-----0-------3---1---|


E|------------------------------|-----------------------------------|---------------------------|
B|------------------------------|-----------------------------------|---------------------------|
G|------------------------------|-----------------------------------|--------------4------------|
D|-3----------------------------|-------------------------------2---|-2------------4------------|
A|-3----3---3---3---3---3---3---|-3---3---3---3-------2---------2---|-2------------2------------|
E|-1----1---1---1---1---1---1---|-1---1---1---1---0-------0--0--0---|-0----0---0--------0---0---|


E|-----------------------------|------------------------------|-----------------------------------|
B|-----------------------------|------------------------------|-----------------------------------|
G|-----------------------------|------------------------------|-----------------------------------|
D|-------------------------3---|-3----------------------------|-------------------------------2---|
A|-----------------2-------3---|-3----3---3---3---3---3---3---|-3---3---3---3-------2---------2---|
E|-0--0--3-----0-------3---1---|-1----1---1---1---1---1---1---|-1---1---1---1---0-------0--0--0---|


E|---------------------------|-----------------------------|------------------------------|
B|---------------------------|-----------------------------|------------------------------|
G|--------------4------------|-----------------------------|------------------------------|
D|-2------------4------------|-------------------------3---|-3----------------------------|
A|-2------------2------------|-----------------2-------3---|-3----3---3---3---3---3---3---|
E|-0----0---0--------0---0---|-0--0--3-----0-------3---1---|-1----1---1---1---1---1---1---|


E|-----------------------------------|---------------------------|-----------------------------|
B|-----------------------------------|---------------------------|-----------------------------|
G|-----------------------------------|--------------4------------|-----------------------------|
D|-------------------------------2---|-2------------4------------|-------------------------3---|
A|-3---3---3---3-------2---------2---|-2------------2------------|-----------------2-------3---|
E|-1---1---1---1---0-------0--0--0---|-0----0---0--------0---0---|-0--0--3-----0-------3---1---|


E|------------------------------|-----------------------------------|---------------------------|
B|------------------------------|-----------------------------------|---------------------------|
G|------------------------------|-----------------------------------|--------------4------------|
D|-3----------------------------|-------------------------------2---|-2------------4------------|
A|-3----3---3---3---3---3---3---|-3---3---3---3-------2---------2---|-2------------2------------|
E|-1----1---1---1---1---1---1---|-1---1---1---1---0-------0--0--0---|-0----0---0--------0---0---|


E|-----------------------------|------------------------------|-----------------------------------|
B|-----------------------------|------------------------------|-----------------------------------|
G|-----------------------------|------------------------------|-----------------------------------|
D|-------------------------3---|-3----------------------------|-------------------------------2---|
A|-----------------2-------3---|-3----3---3---3---3---3---3---|-3---3---3---3-------2---------2---|
E|-0--0--3-----0-------3---1---|-1----1---1---1---1---1---1---|-1---1---1---1---0-------0--0--0---|


E|---------------------------|-----------------------------|------------------------------|
B|---------------------------|-----------------------------|------------------------------|
G|--------------4------------|-----------------------------|------------------------------|
D|-2------------4------------|-------------------------3---|-3----------------------------|
A|-2------------2------------|-----------------2-------3---|-3----3---3---3---3---3---3---|
E|-0----0---0--------0---0---|-0--0--3-----0-------3---1---|-1----1---1---1---1---1---1---|


E|-----------------------------------|---------------------------|-----------------------------|
B|-----------------------------------|---------------------------|-----------------------------|
G|-----------------------------------|--------------4------------|-----------------------------|
D|-------------------------------2---|-2------------4------------|-------------------------3---|
A|-3---3---3---3-------2---------2---|-2------------2------------|-----------------2-------3---|
E|-1---1---1---1---0-------0--0--0---|-0----0---0--------0---0---|-0--0--3-----0-------3---1---|


E|------------------------------|-----------------------------------|-------------------------------------|
B|------------------------------|-----------------------------------|-------------------------------------|
G|------------------------------|-----------------------------------|-------------------------------------|
D|-3----------------------------|-----------------------------------|-----2--2------------------4--4------|
A|-3----3---3---3---3---3---3---|-3---3---3---3-------2-------------|-2-------------3-------4-------------|
E|-1----1---1---1---1---1---1---|-1---1---1---1---0-------1--1--0---|-----------1-------2-------------3---|


E|-----------------------------------|-------------------------------------|-------------------------------------|
B|-----------------------------------|-------------------------------------|-------------------------------------|
G|-----------------------------------|-------------------------------------|-------------------------------------|
D|-5-----------2--2------------------|-4--4------5-----------2--2----------|---------4--4------5-----------2--2--|
A|-5-------2-------------3-------4---|-----------5-------2-------------3---|-----4-------------5-------2---------|
E|-----0-------------1-------2-------|-------3-------0-------------1-------|-2-------------3-------0-------------|


E|-----------------------------------|-------------------------------------|-----------------------------------|
B|-----------------------------------|-------------------------------------|-----------------------------------|
G|-----------------------------------|-------------------------------------|-----------------------------------|
D|-----------------4--4------5-------|-----2--2------------------4--4------|-5-----------2--2------------------|
A|-----3-------4-------------5-------|-2-------------3-------4-------------|-5-------2-------------3-------4---|
E|-1-------2-------------3-------0---|-----------1-------2-------------3---|-----0-------------1-------2-------|


E|-------------------------------------|-------------------------------------|-----------------------------------|
B|-------------------------------------|-------------------------------------|-----------------------------------|
G|-------------------------------------|-------------------------------------|-----------------------------------|
D|-4--4------5-----------2--2----------|---------4--4------5-----------2--2--|-----------------4--4------5-------|
A|-----------5-------2-------------3---|-----4-------------5-------2---------|-----3-------4-------------5-------|
E|-------3-------0-------------1-------|-2-------------3-------0-------------|-1-------2-------------3-------0---|


E|-------------------------------------|-----------------------------------|-------------------------------------|
B|-------------------------------------|-----------------------------------|-------------------------------------|
G|-------------------------------------|-----------------------------------|-------------------------------------|
D|-----2--2------------------4--4------|-5-----------2--2------------------|-4--4------5-----------2--2----------|
A|-2-------------3-------4-------------|-5-------2-------------3-------4---|-----------5-------2-------------3---|
E|-----------1-------2-------------3---|-----0-------------1-------2-------|-------3-------0-------------1-------|


E|-------------------------------------|-----------------------------------|-------------------------------------|
B|-------------------------------------|-----------------------------------|-------------------------------------|
G|-------------------------------------|-----------------------------------|-----9--9------------------11-11-----|
D|---------4--4------5-----------2--2--|-----------------4--4------5-------|-9-------------10------11------------|
A|-----4-------------5-------2---------|-----3-------4-------------5---7---|-----------8-------9-------------10--|
E|-2-------------3-------0-------------|-1-------2-------------3-----------|-------------------------------------|


E|-----------------------------------|-------------------------------------|-------------------------------------|
B|-----------------------------------|-------------------------------------|-------------------------------------|
G|-12----------9--9------------------|-11-11-----12----------9--9------8---|---------7--7------6-----------5--5--|
D|-12------9-------------10------11--|-----------12------9---9--9------8---|-----7---7--7------6-------5---5--5--|
A|-----7-------------8-------9-------|-------10------7-------------6-------|-5-------------4-------3-------------|
E|-----------------------------------|-------------------------------------|-------------------------------------|


E|-----------------------------------|-----------------------|-----------------------|
B|-----------------------------------|-----------------------|-----------------------|
G|-----4-----------------------------|-----------------------|-----------------------|
D|-----4---3---------3---------------|-----------------------|-----------------------|
A|-2-------1---1--1--1---9---7---5---|-4---2-----9---7---5---|-4---3-----9---7---5---|
E|-----------------------7---5---3---|-2---0-----7---5---3---|-2---1-----7---5---3---|


E|---------------------------|-----------------------|-----------------------|-----------------------|
B|---------------------------|-----------------------|-----------------------|-----------------------|
G|---------------------------|-----------------------|-----------------------|-----------------------|
D|---------------------------|-----------------------|-----------------------|-----------------------|
A|-4---3---4-----9---7---5---|-4---5-----9---7---5---|-4---2-----9---7---5---|-4---3-----9---7---5---|
E|-2---1---2-----7---5---3---|-2---3-----7---5---3---|-2---0-----7---5---3---|-2---1-----7---5---3---|


E|---------------------------|-----------------------|---------------------------------|
B|---------------------------|-----------------------|---------------------------------|
G|---------------------------|-----------------------|---------------------------------|
D|---------------------------|-----------------------|-----2-----------2---------------|
A|-4---3---4-----9---7---5---|-4---5-----9---7---5---|-4---2-----------2-----------9---|
E|-2---1---2-----7---5---3---|-2---3-----7---5---3---|-2---0---0---0---0---0---0---7---|


E|---------------------------------|---------------------------------|---------------------------------|
B|---------------------------------|---------------------------------|---------------------------------|
G|---------------------------------|---------------------------------|---------------------------------|
D|-------------3-----------3-------|---------------------------------|-----------------------------5---|
A|-7---5---4---3-----------3-------|-----9---7---5---4---3---4-------|-4-----------9---7---5-------5---|
E|-5---3---2---1---1---1---1---1---|-1---7---5---3---2---1---2---2---|-2---2---2---7---5---3---5---3---|


E|---------------------------------|---------------------------------|---------------------------------|
B|---------------------------------|---------------------------------|---------------------------------|
G|---------------------------------|---------------------------------|---------------------------------|
D|---------5-----------------------|-----2-----------2---------------|-------------3-----------3-------|
A|---------5-----------9---7---5---|-4---2-----------2-----------9---|-7---5---4---3-----------3-------|
E|-3---3---3---3---0---7---5---3---|-2---0---0---0---0---0---0---7---|-5---3---2---1---1---1---1---1---|


E|---------------------------------|---------------------------------|---------------------------------|
B|---------------------------------|---------------------------------|---------------------------------|
G|---------------------------------|---------------------------------|---------------------------------|
D|---------------------------------|-----------------------------5---|---------5-----------------------|
A|-----9---7---5---4---3---4-------|-4-----------9---7---5-------5---|---------5-----------9---7---5---|
E|-1---7---5---3---2---1---2---2---|-2---2---2---7---5---3---5---3---|-3---3---3---3---0---7---5---3---|


E|---------------------------------|---------------------------------|---------------------------------|
B|---------------------------------|---------------------------------|---------------------------------|
G|---------------------------------|---------------------------------|---------------------------------|
D|-----2-----------2---------------|-------------3-----------3-------|---------------------------------|
A|-4---2-----------2-----------9---|-7---5---4---3-----------3-------|-----9---7---5---4---3---4-------|
E|-2---0---0---0---0---0---0---7---|-5---3---2---1---1---1---1---1---|-1---7---5---3---2---1---2---2---|


E|---------------------------------|---------------------------------|---------------------------------|
B|---------------------------------|---------------------------------|---------------------------------|
G|---------------------------------|---------------------------------|---------------------------------|
D|-----------------------------5---|---------5-----------------------|-----2-----------2---------------|
A|-4-----------9---7---5-------5---|---------5-----------9---7---5---|-4---2-----------2-----------9---|
E|-2---2---2---7---5---3---5---3---|-3---3---3---3---0---7---5---3---|-2---0---0---0---0---0---0---7---|


E|---------------------------------|---------------------------------|---------------------------------|
B|---------------------------------|---------------------------------|---------------------------------|
G|---------------------------------|---------------------------------|---------------------------------|
D|-------------3-----------3-------|---------------------------------|-----------------------------5---|
A|-7---5---4---3-----------3-------|-----9---7---5---4---3---4-------|-4-----------9---7---5-------5---|
E|-5---3---2---1---1---1---1---1---|-1---7---5---3---2---1---2---2---|-2---2---2---7---5---3---5---3---|


E|---------------------------------|------------------------------|---------------------------------|
B|---------------------------------|------------------------------|---------------------------------|
G|---------------------------------|------------------------------|---------------------------------|
D|---------5-----------------------|-----3------------------------|---------------------------------|
A|---------5-----------9---7---5---|-4---3------------------------|-------------------------2-------|
E|-3---3---3---3---3---7---5---3---|-2---1----1---1---1---1---1---|-1---1---1---1---1---0-------0---|


E|----------------------------------|---------------------------------------|------------------------------|
B|----------------------------------|---------------------------------------|------------------------------|
G|----------------------------------|---------------------------------------|------------------------------|
D|-2---2----------------------------|---------------------------------------|-3---3------------------------|
A|-2---2----------------------------|-------------------------------2-------|-3---3------------------------|
E|-0---0----0---0--0--0---0--0--0---|-0--0--0---0--0--0---0--0--0-------0---|-1---1----1---1---1---1---1---|


E|---------------------------------|----------------------------------|---------------------------------------|
B|---------------------------------|----------------------------------|---------------------------------------|
G|---------------------------------|----------------------------------|---------------------------------------|
D|---------------------------------|-2---2----------------------------|---------------------------------------|
A|-------------------------2-------|-2---2----------------------------|-------------------------------2-------|
E|-1---1---1---1---1---0-------0---|-0---0----0---0--0--0---0--0--0---|-0--0--0---0--0--0---0--0--0-------0---|


E|------------------------------|---------------------------------|----------------------------------|
B|------------------------------|---------------------------------|----------------------------------|
G|------------------------------|---------------------------------|----------------------------------|
D|-3---3------------------------|---------------------------------|-2---2----------------------------|
A|-3---3------------------------|-------------------------2-------|-2---2----------------------------|
E|-1---1----1---1---1---1---1---|-1---1---1---1---1---0-------0---|-0---0----0---0--0--0---0--0--0---|


E|---------------------------------------|------------------------------|---------------------------------|
B|---------------------------------------|------------------------------|---------------------------------|
G|---------------------------------------|------------------------------|---------------------------------|
D|---------------------------------------|-3---3------------------------|---------------------------------|
A|-------------------------------2-------|-3---3------------------------|-------------------------2-------|
E|-0--0--0---0--0--0---0--0--0-------0---|-1---1----1---1---1---1---1---|-1---1---1---1---1---0-------0---|


E|----------------------------------|---------------------------------------|------------|
B|----------------------------------|---------------------------------------|------------|
G|----------------------------------|---------------------------------------|------------|
D|-2---2----------------------------|---------------------------------------|-3---3------|
A|-2---2----------------------------|-------------------------------2-------|-3---3------|
E|-0---0----0---0--0--0---0--0--0---|-0--0--0---0--0--0---0--0--0-------0---|-1---1------|


E|-----------------------|----------------------------------|---------------------------------------|
B|-----------------------|----------------------------------|---------------------------------------|
G|-----------------------|----------------------------------|---------------------------------------|
D|-----3-----------------|-2---2----------------------------|---------------------------------------|
A|-----3---------2-------|-2---2----------------------------|-------------------------------2-------|
E|-----1-----0-------0---|-0---0----0---0--0--0---0--0--0---|-0--0--0---0--0--0---0--0--0-------0---|


E|------------|-----------------------|----------------------------------|---------------------------------------|
B|------------|-----------------------|----------------------------------|---------------------------------------|
G|------------|-----------------------|----------------------------------|---------------------------------------|
D|-3---3------|-----3-----------------|-2---2----------------------------|---------------------------------------|
A|-3---3------|-----3---------2-------|-2---2----------------------------|-------------------------------2-------|
E|-1---1------|-----1-----0-------0---|-0---0----0---0--0--0---0--0--0---|-0--0--0---0--0--0---0--0--0-------0---|


E|------------|-----------------------|----------------------------------|---------------------------------------|
B|------------|-----------------------|----------------------------------|---------------------------------------|
G|------------|-----------------------|----------------------------------|---------------------------------------|
D|-3---3------|-----3-----------------|-2---2----------------------------|---------------------------------------|
A|-3---3------|-----3---------2-------|-2---2----------------------------|-------------------------------2-------|
E|-1---1------|-----1-----0-------0---|-0---0----0---0--0--0---0--0--0---|-0--0--0---0--0--0---0--0--0-------0---|


E|------------|-------------------------|----------------|--------|--------|--------|
B|------------|-------------------------|----------------|--------|--------|--------|
G|------------|-------------------------|-9--------------|--------|--------|--------|
D|-3---3------|-----3-------------------|-9--------------|--------|--------|--------|
A|-3---3------|-----3---------2---7--7--|-7--------------|--------|--------|--------|
E|-1---1------|-----1-----0-------0--0--|-0--------------|--------|--------|--------|


E|---------------------------------|---------------------------------|---------------------------------|
B|---------------------------------|---------------------------------|---------------------------------|
G|---------------------------------|---------------------------------|---------------------------------|
D|---------------------------------|-----------------9---9---8-------|---------------------------------|
A|-----2-------9-----------8-------|-----9-----------7---7---6---9---|-8---2-------9-----------8-------|
E|-----0-------7-----------6-------|-----7-----------------------7---|-6---0-------7-----------6-------|


E|---------------------------------|-----24--12--22--12--20--12--22--12--20--12--19-|
B|---------------------------------|------------------------------------------------|
G|---------------------------------|------------------------------------------------|
D|-----------------9---9---8-------|------------------------------------------------|
A|-----9-----------7---7---6---9---|-8----------------------------------------------|
E|-----7-----------------------7---|-6----------------------------------------------|


E|----12--24--12--22--12--20--12--22--12--20--12--19-|----12--24--12--22--12--20--12--22--12--20--12--19-|
B|---------------------------------------------------|---------------------------------------------------|
G|---------------------------------------------------|---------------------------------------------------|
D|---------------------------------------------------|---------------------------------------------------|
A|---------------------------------------------------|---------------------------------------------------|
E|---------------------------------------------------|---------------------------------------------------|


E|----12--20--12--19--12--17--12--19--12--17--12--15-|----12--17--12--15--12--14--12--15--12--17--12--19-|
B|---------------------------------------------------|---------------------------------------------------|
G|---------------------------------------------------|---------------------------------------------------|
D|---------------------------------------------------|---------------------------------------------------|
A|---------------------------------------------------|---------------------------------------------------|
E|---------------------------------------------------|---------------------------------------------------|


E|----12--17--12--15--12--14--12--15--12--17--12--19-|----12--17--12--15--12--14--12--15--12--17--12--19-|
B|---------------------------------------------------|---------------------------------------------------|
G|---------------------------------------------------|---------------------------------------------------|
D|---------------------------------------------------|---------------------------------------------------|
A|---------------------------------------------------|---------------------------------------------------|
E|---------------------------------------------------|---------------------------------------------------|


E|----12--17--12--19--12--20--12--19--12--20--12--22-|----12-----------------------------------|
B|---------------------------------------------------|--------17-15------------17-15-----------|
G|---------------------------------------------------|--------------16-16-15---------16-16-15--|
D|---------------------------------------------------|-----------------------------------------|
A|---------------------------------------------------|-----------------------------------------|
E|---------------------------------------------------|-----------------------------------------|


E|--------------------------------------|------------------------------------------------|
B|-----17-15------------17-15-----------|------------------------------------------------|
G|-----------16-16-15---------16-16-15--|-----12-15-12----12-12--------------------------|
D|--------------------------------------|--------------14-------14-14-12--15--14--12--14-|
A|--------------------------------------|------------------------------------------------|
E|--------------------------------------|------------------------------------------------|


E|---------------------------------------------------|-----------------------------------------------------|
B|---------------------------------------------------|-----------------------------------------------------|
G|---------------------------------------------------|-----------------------------------------------------|
D|----12-----12--------------------------------------|--------------------------------12-13-12----12-13-14-|
A|--------14----14-13-12-14-13-12-13-12--------------|--------------13-------13-16-13----------13----------|
E|--------------------------------------15-14-12--15-|----12--12-15----12-15-------------------------------|


E|-------0-----------------------10-------------------|----------------------------------------|
B|-------0-----------------11-12----10-12-14-12-15-12-|-17-12-17-15------------17-15-----------|
G|----------12-9--11-12-9-----------------------------|-------------16-16-15---------16-16-15--|
D|-13-12----------------------------------------------|----------------------------------------|
A|----------------------------------------------------|----------------------------------------|
E|----------------------------------------------------|----------------------------------------|


E|--------------------------------------|-----------------12-12-12-12----12-12-12-12-12-|
B|-----17-15------------17-15-----------|-----17-15----15-------------15----------------|
G|-----------16-16-15---------16-16-15--|-----------16----------------------------------|
D|--------------------------------------|-----------------------------------------------|
A|--------------------------------------|-----------------------------------------------|
E|--------------------------------------|-----------------------------------------------|


E|-12-12----12-12-12-12-12-12----12-12----12-12----|-12-12-17-15-12-----12-------12-12-12----12-12--|
B|-------15-------------------15-------15-------15-|-----------------15----13-13----------15--------|
G|-------------------------------------------------|------------------------------------------------|
D|-------------------------------------------------|------------------------------------------------|
A|-------------------------------------------------|------------------------------------------------|
E|-------------------------------------------------|------------------------------------------------|


E|--------------------------------------------------|--------------------------------------|
B|-15-15-15-12-------12-----------------------------|-----17-15------------17-15-----------|
G|-------------14-14----14--14-12-15-14-12-14-12-14-|-16--------16-16-15---------16-16-15--|
D|--------------------------------------------------|--------------------------------------|
A|--------------------------------------------------|--------------------------------------|
E|--------------------------------------------------|--------------------------------------|


E|--------------------------------------|-----------------------------------------------|
B|-----17-15------------17-15-----------|-----12-15-12----12-12-------------------------|
G|-----------16-16-15---------16-16-15--|--------------15-------15-14-12-15-14-12-14-12-|
D|--------------------------------------|-----------------------------------------------|
A|--------------------------------------|-----------------------------------------------|
E|--------------------------------------|-----------------------------------------------|


E|------------------------------------------------------|-------------------------------------------------|
B|------------------------------------------------------|-------------------------------------------------|
G|-------12---------------------------------------------|-------------------------------------------------|
D|----14-----14--13-12-14-13-12-14-13-12----------------|-------------------------------------------------|
A|---------------------------------------14-13-12-14-13-|-12-12-------12-14-13-12-------0--0--0--0--0--0--|
E|------------------------------------------------------|-------12-15-------------14-12-0--0--0--0--0--0--|


E|-------------------------------0----------|----------------------------------------|
B|-------------------------------0----------|-------17-15------------17-15-----------|
G|-------------------------------0----------|-------------16-16-15---------16-16-15--|
D|------------------------------------14-14-|-14-14----------------------------------|
A|-0--0--0--0--0--0--0--0--0--0-------------|----------------------------------------|
E|-0--0--0--0--0--0--0--0--0--0-------------|----------------------------------------|


E|--------------------------------------|-----24-22------------24-22-----------|-----24-22------------24-22-----------|
B|-----17-15------------17-15-----------|-----------24-24-23---------24-24-23--|-----------24-24-23---------24-24-23--|
G|-----------16-16-15---------16-16-15--|--------------------------------------|--------------------------------------|
D|--------------------------------------|--------------------------------------|--------------------------------------|
A|--------------------------------------|--------------------------------------|--------------------------------------|
E|--------------------------------------|--------------------------------------|--------------------------------------|


E|-----------------|--------|
B|-20--------------|--------|
G|-----21----------|--------|
D|-----------------|--------|
A|-----------------|--------|
E|-----------------|--------|





Track 2: Marty Friedman

E|--------|--------|--------|--------|--------|--------|--------|--------|--------|
B|--------|--------|--------|--------|--------|--------|--------|--------|--------|
G|--------|--------|--------|--------|--------|--------|--------|--------|--------|
D|--------|--------|--------|--------|--------|--------|--------|--------|--------|
A|--------|--------|--------|--------|--------|--------|--------|--------|--------|
E|--------|--------|--------|--------|--------|--------|--------|--------|--------|


E|--------|--------|--------|--------|--------|--------|--------|--------|--------|
B|--------|--------|--------|--------|--------|--------|--------|--------|--------|
G|--------|--------|--------|--------|--------|--------|--------|--------|--------|
D|--------|--------|--------|--------|--------|--------|--------|--------|--------|
A|--------|--------|--------|--------|--------|--------|--------|--------|--------|
E|--------|--------|--------|--------|--------|--------|--------|--------|--------|


E|--------|--------|--------|--------|--------|--------|-8-----7----------|------------------|
B|--------|--------|--------|--------|--------|--------|-------------7----|------------------|
G|--------|--------|--------|--------|--------|--------|------------------|-9-----8----------|
D|--------|--------|--------|--------|--------|--------|------------------|-------------9----|
A|--------|--------|--------|--------|--------|--------|------------------|------------------|
E|--------|--------|--------|--------|--------|--------|------------------|------------------|


E|-8-----7----------|-------------11---|-12-----|-12-----|--------|--------|--------|
B|-------------7----|------------------|--------|--------|--------|--------|--------|
G|------------------|-9-----8----------|--------|--------|--------|--------|--------|
D|------------------|------------------|--------|--------|--------|--------|--------|
A|------------------|------------------|--------|--------|--------|--------|--------|
E|------------------|------------------|--------|--------|--------|--------|--------|


E|--------|--------|--------|--------|--------|--------|--------|--------|--------|
B|--------|--------|--------|--------|--------|--------|--------|--------|--------|
G|--------|--------|--------|--------|--------|--------|--------|--------|--------|
D|--------|--------|--------|--------|--------|--------|--------|--------|--------|
A|--------|--------|--------|--------|--------|--------|--------|--------|--------|
E|--------|--------|--------|--------|--------|--------|--------|--------|--------|


E|--------|--------|--------|--------|--------|--------|--------|--------|--------|
B|--------|--------|--------|--------|--------|--------|--------|--------|--------|
G|--------|--------|--------|--------|--------|--------|--------|--------|--------|
D|--------|--------|--------|--------|--------|--------|--------|--------|--------|
A|--------|--------|--------|--------|--------|--------|--------|--------|--------|
E|--------|--------|--------|--------|--------|--------|--------|--------|--------|


E|--------|--------|--------|-8-----7----------|------------------|-8-----7----------|
B|--------|--------|--------|-------------7----|------------------|-------------7----|
G|--------|--------|--------|------------------|-9-----8----------|------------------|
D|--------|--------|--------|------------------|-------------9----|------------------|
A|--------|--------|--------|------------------|------------------|------------------|
E|--------|--------|--------|------------------|------------------|------------------|


E|-------------11---|-12-----|-12-----|--------|--------|--------|--------|--------|
B|------------------|--------|--------|--------|--------|--------|--------|--------|
G|-9-----8----------|--------|--------|--------|--------|--------|--------|--------|
D|------------------|--------|--------|--------|--------|--------|--------|--------|
A|------------------|--------|--------|--------|--------|--------|--------|--------|
E|------------------|--------|--------|--------|--------|--------|--------|--------|


E|--------|--------|--------|--------|----------------|------------------------------------------|
B|--------|--------|--------|--------|----------------|------------------------------------------|
G|--------|--------|--------|--------|----------------|------------------------------------------|
D|--------|--------|--------|--------|----------------|------------------------------14-14-14-15-|
A|--------|--------|--------|--------|----------------|------------12-14-12-12-14-15-------------|
E|--------|--------|--------|--------|------------13--|-13---12-13-------------------------------|


E|----------------------------------------19--1217-12----|----17-------15--------------------------------------|
B|-------------------------17-------17-18-------------17-|-12----12-15----15-12-----12-15-12----12-------------|
G|-------14-16-14-14-16-17----17-17----------------------|----------------------14-----------14----14-12----14-|
D|-14-15-------------------------------------------------|-----------------------------------------------14----|
A|-------------------------------------------------------|-----------------------------------------------------|
E|-------------------------------------------------------|-----------------------------------------------------|


E|-----------------------|--------------------|--------|--------|----------------------|
B|-----------------------|--------------------|--------|--------|----------------10-13-|
G|-12--------------------|--------------------|--------|--------|----------------------|
D|-------14--12----------|--------------------|--------|--------|----------------------|
A|---------------14--12--|-12--8---8----------|--------|--------|----------------------|
E|-----------------------|--------------------|--------|--------|----------------------|


E|-13----------------------------------------------|---------------------------------------------------|
B|----13-10----13-10-------10----------------------|---------------------------------------------------|
G|----------12-------12-10----12-10----12-10-------|-10------------------------------------------------|
D|----------------------------------12-------12-10-|-----10-12-10----12-10-------10--------------------|
A|-------------------------------------------------|--------------12-------12-10----10-12-10-----------|
E|-------------------------------------------------|-----------------------------------------13----10--|


E|--------------------------------|---------------------------|--------|--------|--------|
B|--------------------------------|---------------------------|--------|--------|--------|
G|--------------------------------|-7---7---7----7----7-------|--------|--------|--------|
D|------5---7---7--7--5---7---5---|---------------------------|--------|--------|--------|
A|--------------------------------|---------------------------|--------|--------|--------|
E|-5------------------------------|---------------------------|--------|--------|--------|


E|--------|-19-15-------15-17-------17-13-15----13----------|-15-12-------12-13-------13----12----------------|
B|--------|-------17-18-------18-14----------17----17-15-13-|-------13-15-------15-12----15----13-15-13-12----|
G|--------|-------------------------------------------------|----------------------------------------------14-|
D|--------|-------------------------------------------------|-------------------------------------------------|
A|--------|-------------------------------------------------|-------------------------------------------------|
E|--------|-------------------------------------------------|-------------------------------------------------|


E|---------------------------|----------------------------------|--------------------|
B|-----------------------14--|-14--14-12-14---14--14------------|--------------------|
G|-12----9---9---12--12--14--|-14--14-12-14---14--14--12----13--|-13----13-13--------|
D|---------------------------|---------------------------14-----|--------------------|
A|---------------------------|----------------------------------|--------------------|
E|---------------------------|----------------------------------|--------------------|


E|--------|--------|-------------------17-|-21-17----17-20-17---1713-17-17-13-17-13-10-13-13-10-13-10-13-9--|
B|--------|--------|----------------18----|-------18----------18--------------------------------------------|
G|--------|--------|----------------------|-----------------------------------------------------------------|
D|--------|--------|----------------------|-----------------------------------------------------------------|
A|--------|--------|----------------------|-----------------------------------------------------------------|
E|--------|--------|----------------------|-----------------------------------------------------------------|


E|-11-8--10-9--5--8--5--8--5-----5------------------|--------------------|--------------------|
B|----------------------------8-----6---------------|--------------------|--------------------|
G|-------------------------------------7-----4------|--------------------|--------------------|
D|----------------------------------------7-----15--|--------------------|-----2-----2---2----|
A|--------------------------------------------------|--------------------|-----2-----2---2----|
E|--------------------------------------------------|--------------------|-----0-----0---0----|


E|---------------------------|--------------|-------------------15--|-14-15-14-----14--15-----------------------|
B|---------------------------|--------------|-----------------------|----------17----------17--15-17-15-----15--|
G|---------------------------|--------------|-----------------------|-----------------------------------16------|
D|------2---2----------------|--------2-----|-----2---2-----2-------|-------------------------------------------|
A|------2---2----------------|--------2-----|-----2---2-----2-------|-------------------------------------------|
E|------0---0----------------|--------0-----|-----0---0-----0-------|-------------------------------------------|


E|--------------------------------|---------------------------|-----------------------------------8-----------8--9--11-|
B|-17--17---16--15-16-15----------|---------------------------|-----8--9--11-9--8--9--11-9--8--9--7--8--9--11----------|
G|-----------------------17--14---|-14------------------------|-9------------------------------------------------------|
D|--------------------------------|-----17--16--17--14----14--|--------------------------------------------------------|
A|--------------------------------|---------------------------|--------------------------------------------------------|
E|--------------------------------|---------------------------|--------------------------------------------------------|


E|-139-8-12-11-9--------9-------------|--------------------------------------|--------------------------------------|
B|----------------12-11-----12--------|-12--11-12-11-------------------------|---------15--14-15-14-----------------|
G|------------------------------------|--------------12--14--14--14--11--12--|----------------------16--17--17--17--|
D|--------------------------------14--|--------------------------------------|-14--17-------------------------------|
A|------------------------------------|--------------------------------------|--------------------------------------|
E|------------------------------------|--------------------------------------|--------------------------------------|


E|-----------------19--15----------19--|-15-------15-17-------18-15-------------------------15-|
B|------------------------19-17--------|----15-19-------19-15-------17-------------------17----|
G|-14--15------16---------------16-----|-------------------------------18-15----15-18-18-------|
D|---------17--------------------------|-------------------------------------17----------------|
A|-------------------------------------|-------------------------------------------------------|
E|-------------------------------------|-------------------------------------------------------|


E|-18-19-18-15----15-19-151915--15-19-19--18--19--|-19-----------------|-----------------|
B|-------------19-------------19------------------|--------------------|-----------------|
G|------------------------------------------------|--------------------|-----------------|
D|------------------------------------------------|--------------------|-----------------|
A|------------------------------------------------|--------------------|-----------------|
E|------------------------------------------------|--------------------|-----------------|


E|--------|--------|--------|--------|--------|--------|--------|--------|--------|
B|--------|--------|--------|--------|--------|--------|--------|--------|--------|
G|--------|--------|--------|--------|--------|--------|--------|--------|--------|
D|--------|--------|--------|--------|--------|--------|--------|--------|--------|
A|--------|--------|--------|--------|--------|--------|--------|--------|--------|
E|--------|--------|--------|--------|--------|--------|--------|--------|--------|


E|--------|--------|--------|--------|--------|--------|--------|--------|--------|
B|--------|--------|--------|--------|--------|--------|--------|--------|--------|
G|--------|--------|--------|--------|--------|--------|--------|--------|--------|
D|--------|--------|--------|--------|--------|--------|--------|--------|--------|
A|--------|--------|--------|--------|--------|--------|--------|--------|--------|
E|--------|--------|--------|--------|--------|--------|--------|--------|--------|


E|--------|--------|--------|--------|--------|--------|--------|--------|--------|
B|--------|--------|--------|--------|--------|--------|--------|--------|--------|
G|--------|--------|--------|--------|--------|--------|--------|--------|--------|
D|--------|--------|--------|--------|--------|--------|--------|--------|--------|
A|--------|--------|--------|--------|--------|--------|--------|--------|--------|
E|--------|--------|--------|--------|--------|--------|--------|--------|--------|


E|--------|--------|--------|--------|--------|--------|--------|--------|--------|
B|--------|--------|--------|--------|--------|--------|--------|--------|--------|
G|--------|--------|--------|--------|--------|--------|--------|--------|--------|
D|--------|--------|--------|--------|--------|--------|--------|--------|--------|
A|--------|--------|--------|--------|--------|--------|--------|--------|--------|
E|--------|--------|--------|--------|--------|--------|--------|--------|--------|


E|--------|--------|--------|--------|--------|--------|--------|--------|--------|
B|--------|--------|--------|--------|--------|--------|--------|--------|--------|
G|--------|--------|--------|--------|--------|--------|--------|--------|--------|
D|--------|--------|--------|--------|--------|--------|--------|--------|--------|
A|--------|--------|--------|--------|--------|--------|--------|--------|--------|
E|--------|--------|--------|--------|--------|--------|--------|--------|--------|


E|--------|--------|--------|--------|--------|--------|--------|--------|--------|
B|--------|--------|--------|--------|--------|--------|--------|--------|--------|
G|--------|--------|--------|--------|--------|--------|--------|--------|--------|
D|--------|--------|--------|--------|--------|--------|--------|--------|--------|
A|--------|--------|--------|--------|--------|--------|--------|--------|--------|
E|--------|--------|--------|--------|--------|--------|--------|--------|--------|


E|--------|--------|--------|--------|--------|--------|--------|-----------------------------------------------|
B|--------|--------|--------|--------|--------|--------|--------|-----------------------------------------------|
G|--------|--------|--------|--------|--------|--------|--------|-----------------------------------------------|
D|--------|--------|--------|--------|--------|--------|--------|-----------------------------------------------|
A|--------|--------|--------|--------|--------|--------|--------|-----------------------------------------------|
E|--------|--------|--------|--------|--------|--------|--------|-----0--0--0--0--7--7--0--0--0--0--6--6--0--0--|


E|--------------|-----------------------------------------------|--------------|--------|
B|--------------|-----------------------------------------------|--------------|--------|
G|--------------|-----------------------------------------------|--------------|--------|
D|--------------|-----------------------------------------------|--------------|--------|
A|--------------|-----------------------------------------------|--------------|--------|
E|-0--0---------|-----0--0--0--0--7--7--0--0--0--0--6--6--0--0--|-0--0---------|--------|


E|--------|--------|--------|--------|--------|--------|--------|--------|--------|
B|--------|--------|--------|--------|--------|--------|--------|--------|--------|
G|--------|--------|--------|--------|--------|--------|--------|--------|--------|
D|--------|--------|--------|--------|--------|--------|--------|--------|--------|
A|--------|--------|--------|--------|--------|--------|--------|--------|--------|
E|--------|--------|--------|--------|--------|--------|--------|--------|--------|


E|--------|--------|--------|--------|--------|--------|--------|--------|--------|
B|--------|--------|--------|--------|--------|--------|--------|--------|--------|
G|--------|--------|--------|--------|--------|--------|--------|--------|--------|
D|--------|--------|--------|--------|--------|--------|--------|--------|--------|
A|--------|--------|--------|--------|--------|--------|--------|--------|--------|
E|--------|--------|--------|--------|--------|--------|--------|--------|--------|


E|--------|--------|--------|--------|--------|--------|--------|--------|--------|
B|--------|--------|--------|--------|--------|--------|--------|--------|--------|
G|--------|--------|--------|--------|--------|--------|--------|--------|--------|
D|--------|--------|--------|--------|--------|--------|--------|--------|--------|
A|--------|--------|--------|--------|--------|--------|--------|--------|--------|
E|--------|--------|--------|--------|--------|--------|--------|--------|--------|


E|--------|--------|--------|--------|--------|--------|--------|--------|
B|--------|--------|--------|--------|--------|--------|--------|--------|
G|--------|--------|--------|--------|--------|--------|--------|--------|
D|--------|--------|--------|--------|--------|--------|--------|--------|
A|--------|--------|--------|--------|--------|--------|--------|--------|
E|--------|--------|--------|--------|--------|--------|--------|--------|





Track 3: Dave Mustaine

E|--------|--------|--------|--------|--------|--------|--------|--------|--------|
B|--------|--------|--------|--------|--------|--------|--------|--------|--------|
G|--------|--------|--------|--------|--------|--------|--------|--------|--------|
D|--------|--------|--------|--------|--------|--------|--------|--------|--------|
A|--------|--------|--------|--------|--------|--------|--------|--------|--------|
E|--------|--------|--------|--------|--------|--------|--------|--------|--------|


E|--------|--------|--------|--------|--------|--------|--------|--------|--------|
B|--------|--------|--------|--------|--------|--------|--------|--------|--------|
G|--------|--------|--------|--------|--------|--------|--------|--------|--------|
D|--------|--------|--------|--------|--------|--------|--------|--------|--------|
A|--------|--------|--------|--------|--------|--------|--------|--------|--------|
E|--------|--------|--------|--------|--------|--------|--------|--------|--------|


E|--------|--------|--------|--------|--------|--------|--------|--------|--------|
B|--------|--------|--------|--------|--------|--------|--------|--------|--------|
G|--------|--------|--------|--------|--------|--------|--------|--------|--------|
D|--------|--------|--------|--------|--------|--------|--------|--------|--------|
A|--------|--------|--------|--------|--------|--------|--------|--------|--------|
E|--------|--------|--------|--------|--------|--------|--------|--------|--------|


E|--------|--------|--------|--------|--------|--------|--------|--------|--------|
B|--------|--------|--------|--------|--------|--------|--------|--------|--------|
G|--------|--------|--------|--------|--------|--------|--------|--------|--------|
D|--------|--------|--------|--------|--------|--------|--------|--------|--------|
A|--------|--------|--------|--------|--------|--------|--------|--------|--------|
E|--------|--------|--------|--------|--------|--------|--------|--------|--------|


E|--------|--------|--------|--------|--------|--------|--------|--------|--------|
B|--------|--------|--------|--------|--------|--------|--------|--------|--------|
G|--------|--------|--------|--------|--------|--------|--------|--------|--------|
D|--------|--------|--------|--------|--------|--------|--------|--------|--------|
A|--------|--------|--------|--------|--------|--------|--------|--------|--------|
E|--------|--------|--------|--------|--------|--------|--------|--------|--------|


E|--------|--------|--------|--------|--------|--------|--------|--------|--------|
B|--------|--------|--------|--------|--------|--------|--------|--------|--------|
G|--------|--------|--------|--------|--------|--------|--------|--------|--------|
D|--------|--------|--------|--------|--------|--------|--------|--------|--------|
A|--------|--------|--------|--------|--------|--------|--------|--------|--------|
E|--------|--------|--------|--------|--------|--------|--------|--------|--------|


E|--------|--------|--------|--------|--------|--------|--------|--------|--------|
B|--------|--------|--------|--------|--------|--------|--------|--------|--------|
G|--------|--------|--------|--------|--------|--------|--------|--------|--------|
D|--------|--------|--------|--------|--------|--------|--------|--------|--------|
A|--------|--------|--------|--------|--------|--------|--------|--------|--------|
E|--------|--------|--------|--------|--------|--------|--------|--------|--------|


E|--------|--------|--------|--------|--------|--------|-----------------|--------|
B|--------|--------|--------|--------|--------|--------|-----------------|--------|
G|--------|--------|--------|--------|--------|--------|-----------------|--------|
D|--------|--------|--------|--------|--------|--------|-----------------|--------|
A|--------|--------|--------|--------|--------|--------|-----------------|--------|
E|--------|--------|--------|--------|--------|--------|-----------------|--------|


E|--------|--------|--------|--------|--------|--------|--------|--------|--------|
B|--------|--------|--------|--------|--------|--------|--------|--------|--------|
G|--------|--------|--------|--------|--------|--------|--------|--------|--------|
D|--------|--------|--------|--------|--------|--------|--------|--------|--------|
A|--------|--------|--------|--------|--------|--------|--------|--------|--------|
E|--------|--------|--------|--------|--------|--------|--------|--------|--------|


E|--------|--------|--------|--------|--------|--------|--------|--------|--------|
B|--------|--------|--------|--------|--------|--------|--------|--------|--------|
G|--------|--------|--------|--------|--------|--------|--------|--------|--------|
D|--------|--------|--------|--------|--------|--------|--------|--------|--------|
A|--------|--------|--------|--------|--------|--------|--------|--------|--------|
E|--------|--------|--------|--------|--------|--------|--------|--------|--------|


E|--------|--------|--------|--------|--------|--------|--------|--------|--------|
B|--------|--------|--------|--------|--------|--------|--------|--------|--------|
G|--------|--------|--------|--------|--------|--------|--------|--------|--------|
D|--------|--------|--------|--------|--------|--------|--------|--------|--------|
A|--------|--------|--------|--------|--------|--------|--------|--------|--------|
E|--------|--------|--------|--------|--------|--------|--------|--------|--------|


E|--------|--------|--------|--------|--------|--------|--------|--------|--------|
B|--------|--------|--------|--------|--------|--------|--------|--------|--------|
G|--------|--------|--------|--------|--------|--------|--------|--------|--------|
D|--------|--------|--------|--------|--------|--------|--------|--------|--------|
A|--------|--------|--------|--------|--------|--------|--------|--------|--------|
E|--------|--------|--------|--------|--------|--------|--------|--------|--------|


E|--------|--------|--------|--------|--------|--------|--------|--------|--------|
B|--------|--------|--------|--------|--------|--------|--------|--------|--------|
G|--------|--------|--------|--------|--------|--------|--------|--------|--------|
D|--------|--------|--------|--------|--------|--------|--------|--------|--------|
A|--------|--------|--------|--------|--------|--------|--------|--------|--------|
E|--------|--------|--------|--------|--------|--------|--------|--------|--------|


E|--------|--------|--------|--------|--------|--------|--------|--------|--------|
B|--------|--------|--------|--------|--------|--------|--------|--------|--------|
G|--------|--------|--------|--------|--------|--------|--------|--------|--------|
D|--------|--------|--------|--------|--------|--------|--------|--------|--------|
A|--------|--------|--------|--------|--------|--------|--------|--------|--------|
E|--------|--------|--------|--------|--------|--------|--------|--------|--------|


E|--------|--------|--------|--------|--------|--------|--------|--------|--------|
B|--------|--------|--------|--------|--------|--------|--------|--------|--------|
G|--------|--------|--------|--------|--------|--------|--------|--------|--------|
D|--------|--------|--------|--------|--------|--------|--------|--------|--------|
A|--------|--------|--------|--------|--------|--------|--------|--------|--------|
E|--------|--------|--------|--------|--------|--------|--------|--------|--------|


E|--------|--------|--------|--------|--------|--------|--------|--------|--------|
B|--------|--------|--------|--------|--------|--------|--------|--------|--------|
G|--------|--------|--------|--------|--------|--------|--------|--------|--------|
D|--------|--------|--------|--------|--------|--------|--------|--------|--------|
A|--------|--------|--------|--------|--------|--------|--------|--------|--------|
E|--------|--------|--------|--------|--------|--------|--------|--------|--------|


E|--------|--------|--------|--------|--------|--------|--------|--------|--------|
B|--------|--------|--------|--------|--------|--------|--------|--------|--------|
G|--------|--------|--------|--------|--------|--------|--------|--------|--------|
D|--------|--------|--------|--------|--------|--------|--------|--------|--------|
A|--------|--------|--------|--------|--------|--------|--------|--------|--------|
E|--------|--------|--------|--------|--------|--------|--------|--------|--------|


E|--------|--------|--------|--------|--------|--------|--------|--------|--------|
B|--------|--------|--------|--------|--------|--------|--------|--------|--------|
G|--------|--------|--------|--------|--------|--------|--------|--------|--------|
D|--------|--------|--------|--------|--------|--------|--------|--------|--------|
A|--------|--------|--------|--------|--------|--------|--------|--------|--------|
E|--------|--------|--------|--------|--------|--------|--------|--------|--------|


E|--------|--------|--------|--------|--------|--------|--------|--------|--------|
B|--------|--------|--------|--------|--------|--------|--------|--------|--------|
G|--------|--------|--------|--------|--------|--------|--------|--------|--------|
D|--------|--------|--------|--------|--------|--------|--------|--------|--------|
A|--------|--------|--------|--------|--------|--------|--------|--------|--------|
E|--------|--------|--------|--------|--------|--------|--------|--------|--------|


E|--------|--------|--------|--------|--------|--------|--------|--------|--------|
B|--------|--------|--------|--------|--------|--------|--------|--------|--------|
G|--------|--------|--------|--------|--------|--------|--------|--------|--------|
D|--------|--------|--------|--------|--------|--------|--------|--------|--------|
A|--------|--------|--------|--------|--------|--------|--------|--------|--------|
E|--------|--------|--------|--------|--------|--------|--------|--------|--------|


E|--------|--------|--------|--------|--------|--------|--------|--------|--------|
B|--------|--------|--------|--------|--------|--------|--------|--------|--------|
G|--------|--------|--------|--------|--------|--------|--------|--------|--------|
D|--------|--------|--------|--------|--------|--------|--------|--------|--------|
A|--------|--------|--------|--------|--------|--------|--------|--------|--------|
E|--------|--------|--------|--------|--------|--------|--------|--------|--------|


E|--------|--------|--------|--------|--------|--------|--------|--------|--------|
B|--------|--------|--------|--------|--------|--------|--------|--------|--------|
G|--------|--------|--------|--------|--------|--------|--------|--------|--------|
D|--------|--------|--------|--------|--------|--------|--------|--------|--------|
A|--------|--------|--------|--------|--------|--------|--------|--------|--------|
E|--------|--------|--------|--------|--------|--------|--------|--------|--------|


E|--------|--------|--------|--------|--------|--------|--------|--------|--------|
B|--------|--------|--------|--------|--------|--------|--------|--------|--------|
G|--------|--------|--------|--------|--------|--------|--------|--------|--------|
D|--------|--------|--------|--------|--------|--------|--------|--------|--------|
A|--------|--------|--------|--------|--------|--------|--------|--------|--------|
E|--------|--------|--------|--------|--------|--------|--------|--------|--------|


E|--------|--------|--------|--------|--------|--------|--------|--------|
B|--------|--------|--------|--------|--------|--------|--------|--------|
G|--------|--------|--------|--------|--------|--------|--------|--------|
D|--------|--------|--------|--------|--------|--------|--------|--------|
A|--------|--------|--------|--------|--------|--------|--------|--------|
E|--------|--------|--------|--------|--------|--------|--------|--------|





Track 4: Marty Friedman

E|--------|--------|--------|--------|--------|--------|--------|--------|--------|
B|--------|--------|--------|--------|--------|--------|--------|--------|--------|
G|--------|--------|--------|--------|--------|--------|--------|--------|--------|
D|--------|--------|--------|--------|--------|--------|--------|--------|--------|
A|--------|--------|--------|--------|--------|--------|--------|--------|--------|
E|--------|--------|--------|--------|--------|--------|--------|--------|--------|


E|--------|--------|--------|--------|--------|--------|--------|--------|--------|
B|--------|--------|--------|--------|--------|--------|--------|--------|--------|
G|--------|--------|--------|--------|--------|--------|--------|--------|--------|
D|--------|--------|--------|--------|--------|--------|--------|--------|--------|
A|--------|--------|--------|--------|--------|--------|--------|--------|--------|
E|--------|--------|--------|--------|--------|--------|--------|--------|--------|


E|--------|--------|--------|--------|--------|--------|--------|--------|--------|
B|--------|--------|--------|--------|--------|--------|--------|--------|--------|
G|--------|--------|--------|--------|--------|--------|--------|--------|--------|
D|--------|--------|--------|--------|--------|--------|--------|--------|--------|
A|--------|--------|--------|--------|--------|--------|--------|--------|--------|
E|--------|--------|--------|--------|--------|--------|--------|--------|--------|


E|--------|--------|--------|--------|--------|--------|--------|--------|--------|
B|--------|--------|--------|--------|--------|--------|--------|--------|--------|
G|--------|--------|--------|--------|--------|--------|--------|--------|--------|
D|--------|--------|--------|--------|--------|--------|--------|--------|--------|
A|--------|--------|--------|--------|--------|--------|--------|--------|--------|
E|--------|--------|--------|--------|--------|--------|--------|--------|--------|


E|--------|--------|--------|--------|--------|--------|--------|--------|--------|
B|--------|--------|--------|--------|--------|--------|--------|--------|--------|
G|--------|--------|--------|--------|--------|--------|--------|--------|--------|
D|--------|--------|--------|--------|--------|--------|--------|--------|--------|
A|--------|--------|--------|--------|--------|--------|--------|--------|--------|
E|--------|--------|--------|--------|--------|--------|--------|--------|--------|


E|--------|--------|--------|--------|--------|--------|--------|--------|--------|
B|--------|--------|--------|--------|--------|--------|--------|--------|--------|
G|--------|--------|--------|--------|--------|--------|--------|--------|--------|
D|--------|--------|--------|--------|--------|--------|--------|--------|--------|
A|--------|--------|--------|--------|--------|--------|--------|--------|--------|
E|--------|--------|--------|--------|--------|--------|--------|--------|--------|


E|--------|--------|--------|--------|--------|--------|--------|--------|--------|
B|--------|--------|--------|--------|--------|--------|--------|--------|--------|
G|--------|--------|--------|--------|--------|--------|--------|--------|--------|
D|--------|--------|--------|--------|--------|--------|--------|--------|--------|
A|--------|--------|--------|--------|--------|--------|--------|--------|--------|
E|--------|--------|--------|--------|--------|--------|--------|--------|--------|


E|--------|--------|--------|--------|--------|--------|--------|--------|--------|
B|--------|--------|--------|--------|--------|--------|--------|--------|--------|
G|--------|--------|--------|--------|--------|--------|--------|--------|--------|
D|--------|--------|--------|--------|--------|--------|--------|--------|--------|
A|--------|--------|--------|--------|--------|--------|--------|--------|--------|
E|--------|--------|--------|--------|--------|--------|--------|--------|--------|


E|--------|--------|--------|--------|--------|--------|--------|--------|--------|
B|--------|--------|--------|--------|--------|--------|--------|--------|--------|
G|--------|--------|--------|--------|--------|--------|--------|--------|--------|
D|--------|--------|--------|--------|--------|--------|--------|--------|--------|
A|--------|--------|--------|--------|--------|--------|--------|--------|--------|
E|--------|--------|--------|--------|--------|--------|--------|--------|--------|


E|--------|--------|--------|--------|--------|--------|--------|--------|--------|
B|--------|--------|--------|--------|--------|--------|--------|--------|--------|
G|--------|--------|--------|--------|--------|--------|--------|--------|--------|
D|--------|--------|--------|--------|--------|--------|--------|--------|--------|
A|--------|--------|--------|--------|--------|--------|--------|--------|--------|
E|--------|--------|--------|--------|--------|--------|--------|--------|--------|


E|--------|--------|--------|--------|--------|--------|--------|--------|--------|
B|--------|--------|--------|--------|--------|--------|--------|--------|--------|
G|--------|--------|--------|--------|--------|--------|--------|--------|--------|
D|--------|--------|--------|--------|--------|--------|--------|--------|--------|
A|--------|--------|--------|--------|--------|--------|--------|--------|--------|
E|--------|--------|--------|--------|--------|--------|--------|--------|--------|


E|--------|--------|--------|--------|--------|--------|--------|--------|--------|
B|--------|--------|--------|--------|--------|--------|--------|--------|--------|
G|--------|--------|--------|--------|--------|--------|--------|--------|--------|
D|--------|--------|--------|--------|--------|--------|--------|--------|--------|
A|--------|--------|--------|--------|--------|--------|--------|--------|--------|
E|--------|--------|--------|--------|--------|--------|--------|--------|--------|


E|--------|--------|--------|--------|--------|--------|--------|--------|--------|
B|--------|--------|--------|--------|--------|--------|--------|--------|--------|
G|--------|--------|--------|--------|--------|--------|--------|--------|--------|
D|--------|--------|--------|--------|--------|--------|--------|--------|--------|
A|--------|--------|--------|--------|--------|--------|--------|--------|--------|
E|--------|--------|--------|--------|--------|--------|--------|--------|--------|


E|--------|--------|--------|--------|--------|--------|--------|--------|--------|
B|--------|--------|--------|--------|--------|--------|--------|--------|--------|
G|--------|--------|--------|--------|--------|--------|--------|--------|--------|
D|--------|--------|--------|--------|--------|--------|--------|--------|--------|
A|--------|--------|--------|--------|--------|--------|--------|--------|--------|
E|--------|--------|--------|--------|--------|--------|--------|--------|--------|


E|--------|--------|--------|--------|--------|--------|--------|--------|--------|
B|--------|--------|--------|--------|--------|--------|--------|--------|--------|
G|--------|--------|--------|--------|--------|--------|--------|--------|--------|
D|--------|--------|--------|--------|--------|--------|--------|--------|--------|
A|--------|--------|--------|--------|--------|--------|--------|--------|--------|
E|--------|--------|--------|--------|--------|--------|--------|--------|--------|


E|--------|--------|--------|--------|--------|--------|--------|--------|--------|
B|--------|--------|--------|--------|--------|--------|--------|--------|--------|
G|--------|--------|--------|--------|--------|--------|--------|--------|--------|
D|--------|--------|--------|--------|--------|--------|--------|--------|--------|
A|--------|--------|--------|--------|--------|--------|--------|--------|--------|
E|--------|--------|--------|--------|--------|--------|--------|--------|--------|


E|--------|--------|--------|--------|--------|--------|--------|--------|--------|
B|--------|--------|--------|--------|--------|--------|--------|--------|--------|
G|--------|--------|--------|--------|--------|--------|--------|--------|--------|
D|--------|--------|--------|--------|--------|--------|--------|--------|--------|
A|--------|--------|--------|--------|--------|--------|--------|--------|--------|
E|--------|--------|--------|--------|--------|--------|--------|--------|--------|


E|--------|--------|--------|--------|--------|--------|--------|--------|--------|
B|--------|--------|--------|--------|--------|--------|--------|--------|--------|
G|--------|--------|--------|--------|--------|--------|--------|--------|--------|
D|--------|--------|--------|--------|--------|--------|--------|--------|--------|
A|--------|--------|--------|--------|--------|--------|--------|--------|--------|
E|--------|--------|--------|--------|--------|--------|--------|--------|--------|


E|--------|--------|--------|--------|--------|--------|--------|--------|--------|
B|--------|--------|--------|--------|--------|--------|--------|--------|--------|
G|--------|--------|--------|--------|--------|--------|--------|--------|--------|
D|--------|--------|--------|--------|--------|--------|--------|--------|--------|
A|--------|--------|--------|--------|--------|--------|--------|--------|--------|
E|--------|--------|--------|--------|--------|--------|--------|--------|--------|


E|--------|--------|--------|--------|---------------------------------------|----------------|
B|--------|--------|--------|--------|---------------------------------------|----------------|
G|--------|--------|--------|--------|---------------------------------------|----------------|
D|--------|--------|--------|--------|-----------------------9---9---8-------|----------------|
A|--------|--------|--------|--------|-----------------------7---7---6---9---|-8--------------|
E|--------|--------|--------|--------|-----7--7--0--0--0--0--------------7---|-6--------------|


E|---------------------------------------|----------------|--------|--------|--------|
B|---------------------------------------|----------------|--------|--------|--------|
G|---------------------------------------|----------------|--------|--------|--------|
D|-----------------------9---9---8-------|----------------|--------|--------|--------|
A|-----------------------7---7---6---9---|-8--------------|--------|--------|--------|
E|-----7--7--0--0--0--0--------------7---|-6--------------|--------|--------|--------|


E|--------|--------|--------|--------|--------|--------|--------|--------|--------|
B|--------|--------|--------|--------|--------|--------|--------|--------|--------|
G|--------|--------|--------|--------|--------|--------|--------|--------|--------|
D|--------|--------|--------|--------|--------|--------|--------|--------|--------|
A|--------|--------|--------|--------|--------|--------|--------|--------|--------|
E|--------|--------|--------|--------|--------|--------|--------|--------|--------|


E|--------|--------|--------|--------|--------|--------|--------|--------|--------|
B|--------|--------|--------|--------|--------|--------|--------|--------|--------|
G|--------|--------|--------|--------|--------|--------|--------|--------|--------|
D|--------|--------|--------|--------|--------|--------|--------|--------|--------|
A|--------|--------|--------|--------|--------|--------|--------|--------|--------|
E|--------|--------|--------|--------|--------|--------|--------|--------|--------|


E|--------|--------|--------|--------|--------|--------|--------|--------|--------|
B|--------|--------|--------|--------|--------|--------|--------|--------|--------|
G|--------|--------|--------|--------|--------|--------|--------|--------|--------|
D|--------|--------|--------|--------|--------|--------|--------|--------|--------|
A|--------|--------|--------|--------|--------|--------|--------|--------|--------|
E|--------|--------|--------|--------|--------|--------|--------|--------|--------|


E|--------|--------|--------|--------|--------|
B|--------|--------|--------|--------|--------|
G|--------|--------|--------|--------|--------|
D|--------|--------|--------|--------|--------|
A|--------|--------|--------|--------|--------|
E|--------|--------|--------|--------|--------|





Track 5: Dave Mustaine

E|--------|--------|--------|--------|--------|--------|--------|--------|--------|
B|--------|--------|--------|--------|--------|--------|--------|--------|--------|
G|--------|--------|--------|--------|--------|--------|--------|--------|--------|
D|--------|--------|--------|--------|--------|--------|--------|--------|--------|
A|--------|--------|--------|--------|--------|--------|--------|--------|--------|
E|--------|--------|--------|--------|--------|--------|--------|--------|--------|


E|--------|--------|--------|--------|--------|--------|--------|--------|--------|
B|--------|--------|--------|--------|--------|--------|--------|--------|--------|
G|--------|--------|--------|--------|--------|--------|--------|--------|--------|
D|--------|--------|--------|--------|--------|--------|--------|--------|--------|
A|--------|--------|--------|--------|--------|--------|--------|--------|--------|
E|--------|--------|--------|--------|--------|--------|--------|--------|--------|


E|--------|--------|--------|--------|--------|--------|--------|--------|--------|
B|--------|--------|--------|--------|--------|--------|--------|--------|--------|
G|--------|--------|--------|--------|--------|--------|--------|--------|--------|
D|--------|--------|--------|--------|--------|--------|--------|--------|--------|
A|--------|--------|--------|--------|--------|--------|--------|--------|--------|
E|--------|--------|--------|--------|--------|--------|--------|--------|--------|


E|--------|--------|--------|--------|--------|--------|--------|--------|--------|
B|--------|--------|--------|--------|--------|--------|--------|--------|--------|
G|--------|--------|--------|--------|--------|--------|--------|--------|--------|
D|--------|--------|--------|--------|--------|--------|--------|--------|--------|
A|--------|--------|--------|--------|--------|--------|--------|--------|--------|
E|--------|--------|--------|--------|--------|--------|--------|--------|--------|


E|--------|--------|--------|--------|--------|--------|--------|--------|--------|
B|--------|--------|--------|--------|--------|--------|--------|--------|--------|
G|--------|--------|--------|--------|--------|--------|--------|--------|--------|
D|--------|--------|--------|--------|--------|--------|--------|--------|--------|
A|--------|--------|--------|--------|--------|--------|--------|--------|--------|
E|--------|--------|--------|--------|--------|--------|--------|--------|--------|


E|--------|--------|--------|--------|--------|--------|--------|--------|--------|
B|--------|--------|--------|--------|--------|--------|--------|--------|--------|
G|--------|--------|--------|--------|--------|--------|--------|--------|--------|
D|--------|--------|--------|--------|--------|--------|--------|--------|--------|
A|--------|--------|--------|--------|--------|--------|--------|--------|--------|
E|--------|--------|--------|--------|--------|--------|--------|--------|--------|


E|--------|--------|--------|--------|--------|--------|--------|--------|--------|
B|--------|--------|--------|--------|--------|--------|--------|--------|--------|
G|--------|--------|--------|--------|--------|--------|--------|--------|--------|
D|--------|--------|--------|--------|--------|--------|--------|--------|--------|
A|--------|--------|--------|--------|--------|--------|--------|--------|--------|
E|--------|--------|--------|--------|--------|--------|--------|--------|--------|


E|--------|--------|--------|--------|--------|--------|--------|--------|--------|
B|--------|--------|--------|--------|--------|--------|--------|--------|--------|
G|--------|--------|--------|--------|--------|--------|--------|--------|--------|
D|--------|--------|--------|--------|--------|--------|--------|--------|--------|
A|--------|--------|--------|--------|--------|--------|--------|--------|--------|
E|--------|--------|--------|--------|--------|--------|--------|--------|--------|


E|--------|--------|--------|--------|--------|--------|--------|--------|--------|
B|--------|--------|--------|--------|--------|--------|--------|--------|--------|
G|--------|--------|--------|--------|--------|--------|--------|--------|--------|
D|--------|--------|--------|--------|--------|--------|--------|--------|--------|
A|--------|--------|--------|--------|--------|--------|--------|--------|--------|
E|--------|--------|--------|--------|--------|--------|--------|--------|--------|


E|--------|--------|--------|--------|--------|--------|--------|--------|--------|
B|--------|--------|--------|--------|--------|--------|--------|--------|--------|
G|--------|--------|--------|--------|--------|--------|--------|--------|--------|
D|--------|--------|--------|--------|--------|--------|--------|--------|--------|
A|--------|--------|--------|--------|--------|--------|--------|--------|--------|
E|--------|--------|--------|--------|--------|--------|--------|--------|--------|


E|--------|--------|--------|--------|--------|--------|--------|--------|--------|
B|--------|--------|--------|--------|--------|--------|--------|--------|--------|
G|--------|--------|--------|--------|--------|--------|--------|--------|--------|
D|--------|--------|--------|--------|--------|--------|--------|--------|--------|
A|--------|--------|--------|--------|--------|--------|--------|--------|--------|
E|--------|--------|--------|--------|--------|--------|--------|--------|--------|


E|--------|--------|--------|--------|--------|--------|--------|--------|--------|
B|--------|--------|--------|--------|--------|--------|--------|--------|--------|
G|--------|--------|--------|--------|--------|--------|--------|--------|--------|
D|--------|--------|--------|--------|--------|--------|--------|--------|--------|
A|--------|--------|--------|--------|--------|--------|--------|--------|--------|
E|--------|--------|--------|--------|--------|--------|--------|--------|--------|


E|--------|--------|--------|--------|--------|--------|--------|--------|--------|
B|--------|--------|--------|--------|--------|--------|--------|--------|--------|
G|--------|--------|--------|--------|--------|--------|--------|--------|--------|
D|--------|--------|--------|--------|--------|--------|--------|--------|--------|
A|--------|--------|--------|--------|--------|--------|--------|--------|--------|
E|--------|--------|--------|--------|--------|--------|--------|--------|--------|


E|--------|--------|--------|--------|--------|--------|--------|--------|--------|
B|--------|--------|--------|--------|--------|--------|--------|--------|--------|
G|--------|--------|--------|--------|--------|--------|--------|--------|--------|
D|--------|--------|--------|--------|--------|--------|--------|--------|--------|
A|--------|--------|--------|--------|--------|--------|--------|--------|--------|
E|--------|--------|--------|--------|--------|--------|--------|--------|--------|


E|--------|--------|--------|--------|--------|--------|--------|--------|--------|
B|--------|--------|--------|--------|--------|--------|--------|--------|--------|
G|--------|--------|--------|--------|--------|--------|--------|--------|--------|
D|--------|--------|--------|--------|--------|--------|--------|--------|--------|
A|--------|--------|--------|--------|--------|--------|--------|--------|--------|
E|--------|--------|--------|--------|--------|--------|--------|--------|--------|


E|--------|--------|--------|--------|--------|--------|--------|--------|--------|
B|--------|--------|--------|--------|--------|--------|--------|--------|--------|
G|--------|--------|--------|--------|--------|--------|--------|--------|--------|
D|--------|--------|--------|--------|--------|--------|--------|--------|--------|
A|--------|--------|--------|--------|--------|--------|--------|--------|--------|
E|--------|--------|--------|--------|--------|--------|--------|--------|--------|


E|--------|--------|--------|--------|--------|--------|--------|--------|--------|
B|--------|--------|--------|--------|--------|--------|--------|--------|--------|
G|--------|--------|--------|--------|--------|--------|--------|--------|--------|
D|--------|--------|--------|--------|--------|--------|--------|--------|--------|
A|--------|--------|--------|--------|--------|--------|--------|--------|--------|
E|--------|--------|--------|--------|--------|--------|--------|--------|--------|


E|--------|--------|--------|--------|--------|--------|--------|--------|--------|
B|--------|--------|--------|--------|--------|--------|--------|--------|--------|
G|--------|--------|--------|--------|--------|--------|--------|--------|--------|
D|--------|--------|--------|--------|--------|--------|--------|--------|--------|
A|--------|--------|--------|--------|--------|--------|--------|--------|--------|
E|--------|--------|--------|--------|--------|--------|--------|--------|--------|


E|--------|--------|--------|--------|--------|--------|--------|--------|--------|
B|--------|--------|--------|--------|--------|--------|--------|--------|--------|
G|--------|--------|--------|--------|--------|--------|--------|--------|--------|
D|--------|--------|--------|--------|--------|--------|--------|--------|--------|
A|--------|--------|--------|--------|--------|--------|--------|--------|--------|
E|--------|--------|--------|--------|--------|--------|--------|--------|--------|


E|--------|--------|--------|--------|--------|--------|--------|-----------------------------------------------|
B|--------|--------|--------|--------|--------|--------|--------|-----------------------------------------------|
G|--------|--------|--------|--------|--------|--------|--------|-----------------------------------------------|
D|--------|--------|--------|--------|--------|--------|--------|-----------------------------------------------|
A|--------|--------|--------|--------|--------|--------|--------|-----------------------------------------------|
E|--------|--------|--------|--------|--------|--------|--------|-----0--0--0--0--7--7--0--0--0--0--6--6--0--0--|


E|-----------------------------------------|----------------|--------|--------|--------|
B|-----------------------------------------|----------------|--------|--------|--------|
G|-----------------------------------------|----------------|--------|--------|--------|
D|-------------------------9---9---8-------|----------------|--------|--------|--------|
A|-------------------------7---7---6---9---|-8--------------|--------|--------|--------|
E|-0--0--7--7--0--0--0--0--------------7---|-6--------------|--------|--------|--------|


E|--------|--------|--------|--------|--------|--------|--------|--------|--------|
B|--------|--------|--------|--------|--------|--------|--------|--------|--------|
G|--------|--------|--------|--------|--------|--------|--------|--------|--------|
D|--------|--------|--------|--------|--------|--------|--------|--------|--------|
A|--------|--------|--------|--------|--------|--------|--------|--------|--------|
E|--------|--------|--------|--------|--------|--------|--------|--------|--------|


E|--------|--------|--------|--------|--------|--------|--------|--------|--------|
B|--------|--------|--------|--------|--------|--------|--------|--------|--------|
G|--------|--------|--------|--------|--------|--------|--------|--------|--------|
D|--------|--------|--------|--------|--------|--------|--------|--------|--------|
A|--------|--------|--------|--------|--------|--------|--------|--------|--------|
E|--------|--------|--------|--------|--------|--------|--------|--------|--------|


E|--------|--------|--------|--------|--------|--------|--------|--------|--------|
B|--------|--------|--------|--------|--------|--------|--------|--------|--------|
G|--------|--------|--------|--------|--------|--------|--------|--------|--------|
D|--------|--------|--------|--------|--------|--------|--------|--------|--------|
A|--------|--------|--------|--------|--------|--------|--------|--------|--------|
E|--------|--------|--------|--------|--------|--------|--------|--------|--------|


E|--------|--------|--------|
B|--------|--------|--------|
G|--------|--------|--------|
D|--------|--------|--------|
A|--------|--------|--------|
E|--------|--------|--------|





Track 6: Dave Mustaine

E|--------|--------|--------|--------|--------|--------|--------|--------|--------|
B|--------|--------|--------|--------|--------|--------|--------|--------|--------|
G|--------|--------|--------|--------|--------|--------|--------|--------|--------|
D|--------|--------|--------|--------|--------|--------|--------|--------|--------|
A|--------|--------|--------|--------|--------|--------|--------|--------|--------|
E|--------|--------|--------|--------|--------|--------|--------|--------|--------|


E|--------|--------|--------|--------|--------|--------|--------|--------|--------|
B|--------|--------|--------|--------|--------|--------|--------|--------|--------|
G|--------|--------|--------|--------|--------|--------|--------|--------|--------|
D|--------|--------|--------|--------|--------|--------|--------|--------|--------|
A|--------|--------|--------|--------|--------|--------|--------|--------|--------|
E|--------|--------|--------|--------|--------|--------|--------|--------|--------|


E|--------|--------|--------|--------|--------|--------|--------|--------|--------|
B|--------|--------|--------|--------|--------|--------|--------|--------|--------|
G|--------|--------|--------|--------|--------|--------|--------|--------|--------|
D|--------|--------|--------|--------|--------|--------|--------|--------|--------|
A|--------|--------|--------|--------|--------|--------|--------|--------|--------|
E|--------|--------|--------|--------|--------|--------|--------|--------|--------|


E|--------|--------|--------|--------|--------|--------|--------|--------|--------|
B|--------|--------|--------|--------|--------|--------|--------|--------|--------|
G|--------|--------|--------|--------|--------|--------|--------|--------|--------|
D|--------|--------|--------|--------|--------|--------|--------|--------|--------|
A|--------|--------|--------|--------|--------|--------|--------|--------|--------|
E|--------|--------|--------|--------|--------|--------|--------|--------|--------|


E|--------|--------|--------|--------|--------|--------|--------|--------|--------|
B|--------|--------|--------|--------|--------|--------|--------|--------|--------|
G|--------|--------|--------|--------|--------|--------|--------|--------|--------|
D|--------|--------|--------|--------|--------|--------|--------|--------|--------|
A|--------|--------|--------|--------|--------|--------|--------|--------|--------|
E|--------|--------|--------|--------|--------|--------|--------|--------|--------|


E|--------|--------|--------|--------|--------|--------|--------|--------|--------|
B|--------|--------|--------|--------|--------|--------|--------|--------|--------|
G|--------|--------|--------|--------|--------|--------|--------|--------|--------|
D|--------|--------|--------|--------|--------|--------|--------|--------|--------|
A|--------|--------|--------|--------|--------|--------|--------|--------|--------|
E|--------|--------|--------|--------|--------|--------|--------|--------|--------|


E|--------|--------|--------|--------|--------|--------|--------|--------|--------|
B|--------|--------|--------|--------|--------|--------|--------|--------|--------|
G|--------|--------|--------|--------|--------|--------|--------|--------|--------|
D|--------|--------|--------|--------|--------|--------|--------|--------|--------|
A|--------|--------|--------|--------|--------|--------|--------|--------|--------|
E|--------|--------|--------|--------|--------|--------|--------|--------|--------|


E|--------|--------|--------|--------|--------|--------|--------|--------|--------|
B|--------|--------|--------|--------|--------|--------|--------|--------|--------|
G|--------|--------|--------|--------|--------|--------|--------|--------|--------|
D|--------|--------|--------|--------|--------|--------|--------|--------|--------|
A|--------|--------|--------|--------|--------|--------|--------|--------|--------|
E|--------|--------|--------|--------|--------|--------|--------|--------|--------|


E|--------|--------|--------|--------|--------|--------|--------|--------|--------|
B|--------|--------|--------|--------|--------|--------|--------|--------|--------|
G|--------|--------|--------|--------|--------|--------|--------|--------|--------|
D|--------|--------|--------|--------|--------|--------|--------|--------|--------|
A|--------|--------|--------|--------|--------|--------|--------|--------|--------|
E|--------|--------|--------|--------|--------|--------|--------|--------|--------|


E|--------|--------|--------|--------|--------|--------|--------|--------|--------|
B|--------|--------|--------|--------|--------|--------|--------|--------|--------|
G|--------|--------|--------|--------|--------|--------|--------|--------|--------|
D|--------|--------|--------|--------|--------|--------|--------|--------|--------|
A|--------|--------|--------|--------|--------|--------|--------|--------|--------|
E|--------|--------|--------|--------|--------|--------|--------|--------|--------|


E|--------|--------|--------|--------|--------|--------|--------|--------|--------|
B|--------|--------|--------|--------|--------|--------|--------|--------|--------|
G|--------|--------|--------|--------|--------|--------|--------|--------|--------|
D|--------|--------|--------|--------|--------|--------|--------|--------|--------|
A|--------|--------|--------|--------|--------|--------|--------|--------|--------|
E|--------|--------|--------|--------|--------|--------|--------|--------|--------|


E|--------|--------|--------|--------|--------|--------|--------|--------|--------|
B|--------|--------|--------|--------|--------|--------|--------|--------|--------|
G|--------|--------|--------|--------|--------|--------|--------|--------|--------|
D|--------|--------|--------|--------|--------|--------|--------|--------|--------|
A|--------|--------|--------|--------|--------|--------|--------|--------|--------|
E|--------|--------|--------|--------|--------|--------|--------|--------|--------|


E|--------|--------|--------|--------|--------|--------|--------|--------|--------|
B|--------|--------|--------|--------|--------|--------|--------|--------|--------|
G|--------|--------|--------|--------|--------|--------|--------|--------|--------|
D|--------|--------|--------|--------|--------|--------|--------|--------|--------|
A|--------|--------|--------|--------|--------|--------|--------|--------|--------|
E|--------|--------|--------|--------|--------|--------|--------|--------|--------|


E|--------|--------|--------|--------|--------|--------|--------|--------|--------|
B|--------|--------|--------|--------|--------|--------|--------|--------|--------|
G|--------|--------|--------|--------|--------|--------|--------|--------|--------|
D|--------|--------|--------|--------|--------|--------|--------|--------|--------|
A|--------|--------|--------|--------|--------|--------|--------|--------|--------|
E|--------|--------|--------|--------|--------|--------|--------|--------|--------|


E|--------|--------|--------|--------|--------|--------|--------|--------|--------|
B|--------|--------|--------|--------|--------|--------|--------|--------|--------|
G|--------|--------|--------|--------|--------|--------|--------|--------|--------|
D|--------|--------|--------|--------|--------|--------|--------|--------|--------|
A|--------|--------|--------|--------|--------|--------|--------|--------|--------|
E|--------|--------|--------|--------|--------|--------|--------|--------|--------|


E|--------|--------|--------|--------|--------|--------|--------|--------|--------|
B|--------|--------|--------|--------|--------|--------|--------|--------|--------|
G|--------|--------|--------|--------|--------|--------|--------|--------|--------|
D|--------|--------|--------|--------|--------|--------|--------|--------|--------|
A|--------|--------|--------|--------|--------|--------|--------|--------|--------|
E|--------|--------|--------|--------|--------|--------|--------|--------|--------|


E|--------|--------|--------|--------|--------|--------|--------|--------|--------|
B|--------|--------|--------|--------|--------|--------|--------|--------|--------|
G|--------|--------|--------|--------|--------|--------|--------|--------|--------|
D|--------|--------|--------|--------|--------|--------|--------|--------|--------|
A|--------|--------|--------|--------|--------|--------|--------|--------|--------|
E|--------|--------|--------|--------|--------|--------|--------|--------|--------|


E|--------|--------|--------|--------|--------|--------|--------|--------|--------|
B|--------|--------|--------|--------|--------|--------|--------|--------|--------|
G|--------|--------|--------|--------|--------|--------|--------|--------|--------|
D|--------|--------|--------|--------|--------|--------|--------|--------|--------|
A|--------|--------|--------|--------|--------|--------|--------|--------|--------|
E|--------|--------|--------|--------|--------|--------|--------|--------|--------|


E|--------|--------|--------|--------|--------|--------|--------|--------|--------|
B|--------|--------|--------|--------|--------|--------|--------|--------|--------|
G|--------|--------|--------|--------|--------|--------|--------|--------|--------|
D|--------|--------|--------|--------|--------|--------|--------|--------|--------|
A|--------|--------|--------|--------|--------|--------|--------|--------|--------|
E|--------|--------|--------|--------|--------|--------|--------|--------|--------|


E|--------|--------|--------|--------|--------|--------|--------|--------|--------|
B|--------|--------|--------|--------|--------|--------|--------|--------|--------|
G|--------|--------|--------|--------|--------|--------|--------|--------|--------|
D|--------|--------|--------|--------|--------|--------|--------|--------|--------|
A|--------|--------|--------|--------|--------|--------|--------|--------|--------|
E|--------|--------|--------|--------|--------|--------|--------|--------|--------|


E|-----------------------------------------------|-----------------------------------------|
B|-----------------------------------------------|-----------------------------------------|
G|-----------------------------------------------|-----------------------------------------|
D|-----------------------------------------------|-------------------------9---9---8-------|
A|-----------------------------------------------|-------------------------7---7---6---9---|
E|-----0--0--0--0--7--7--0--0--0--0--6--6--0--0--|-0--0--7--7--0--0--0--0--------------7---|


E|-----------------------------------------------|-----------------------------------------|
B|-----------------------------------------------|-----------------------------------------|
G|-----------------------------------------------|-----------------------------------------|
D|-----------------------------------------------|-------------------------9---9---8-------|
A|-8---------------------------------------------|-------------------------7---7---6---9---|
E|-6---0--0--0--0--7--7--0--0--0--0--6--6--0--0--|-0--0--7--7--0--0--0--0--------------7---|


E|-----------------------------------------------|-----------------------------------------|
B|-----------------------------------------------|-----------------------------------------|
G|-----------------------------------------------|-----------------------------------------|
D|-----------------------------------------------|-------------------------9---9---8-------|
A|-8---------------------------------------------|-------------------------7---7---6---9---|
E|-6---0--0--0--0--7--7--0--0--0--0--6--6--0--0--|-0--0--7--7--0--0--0--0--------------7---|


E|-----------------------------------------------|-----------------------------------------|
B|-----------------------------------------------|-----------------------------------------|
G|-----------------------------------------------|-----------------------------------------|
D|-----------------------------------------------|-------------------------9---9---8-------|
A|-8---------------------------------------------|-------------------------7---7---6---9---|
E|-6---0--0--0--0--7--7--0--0--0--0--6--6--0--0--|-0--0--7--7--0--0--0--0--------------7---|


E|-----------------------------------------------|-----------------------------------------|
B|-----------------------------------------------|-----------------------------------------|
G|-----------------------------------------------|-----------------------------------------|
D|-----------------------------------------------|-------------------------9---9---8-------|
A|-8---------------------------------------------|-------------------------7---7---6---9---|
E|-6---0--0--0--0--7--7--0--0--0--0--6--6--0--0--|-0--0--7--7--0--0--0--0--------------7---|


E|--------------------------------------|--------------------------------------|-----------------------------------------------|
B|--------------------------------------|--------------------------------------|-----------------------------------------------|
G|--------------------------------------|--------------------------------------|-----------------------------------------------|
D|--------------------------------------|--------------------------------------|-----------------------------------------------|
A|-8---7--5--------8----7--5--------8---|-----7--5--------8----7--5--------5---|-----------------------------------------------|
E|-6---------7--5--6----------7--5--6---|-----------7--5--6----------7--5--3---|-----0--0--0--0--7--7--0--0--0--0--6--6--0--0--|


E|-----------------------------------------|-----------------------------------------------|
B|-----------------------------------------|-----------------------------------------------|
G|-----------------------------------------|-----------------------------------------------|
D|-------------------------9---9---8-------|-----------------------------------------------|
A|-------------------------7---7---6---9---|-8---------------------------------------------|
E|-0--0--7--7--0--0--0--0--------------7---|-6---0--0--0--0--7--7--0--0--0--0--6--6--0--0--|


E|-----------------------------------------|--------------------------------------|
B|-----------------------------------------|--------------------------------------|
G|-----------------------------------------|--------------------------------------|
D|-------------------------9---9---8-------|--------------------------------------|
A|-------------------------7---7---6---9---|-8---7--5--------8----7--5--------8---|
E|-0--0--7--7--0--0--0--0--------------7---|-6---------7--5--6----------7--5--6---|


E|--------------------------------------|-----------------------------------------------|
B|--------------------------------------|-----------------------------------------------|
G|--------------------------------------|-----------------------------------------------|
D|--------------------------------------|-----------------------------------------------|
A|-----7--5--------8----7--5--------5---|-----------------------------------------------|
E|-----------7--5--6----------7--5--3---|-----0--0--0--0--7--7--0--0--0--0--6--6--0--0--|


E|-----------------------------------------|-----------------------------------------------|
B|-----------------------------------------|-----------------------------------------------|
G|-----------------------------------------|-----------------------------------------------|
D|-------------------------9---9---8-------|-----------------------------------------------|
A|-------------------------7---7---6---9---|-8---------------------------------------------|
E|-0--0--7--7--0--0--0--0--------------7---|-6---0--0--0--0--7--7--0--0--0--0--6--6--0--0--|


E|-----------------------------------------|--------------------------------------|
B|-----------------------------------------|--------------------------------------|
G|-----------------------------------------|--------------------------------------|
D|-------------------------9---9---8-------|--------------------------------------|
A|-------------------------7---7---6---9---|-8---7--5--------8----7--5--------8---|
E|-0--0--7--7--0--0--0--0--------------7---|-6---------7--5--6----------7--5--6---|


E|--------------------------------------|-----------------------------------------------|
B|--------------------------------------|-----------------------------------------------|
G|--------------------------------------|-----------------------------------------------|
D|--------------------------------------|-----------------------------------------------|
A|-----7--5--------8----7--5--------5---|-----------------------------------------------|
E|-----------7--5--6----------7--5--3---|-----0--0--0--0--7--7--0--0--0--0--6--6--0--0--|


E|-----------------------------------------|-----------------------------------------------|
B|-----------------------------------------|-----------------------------------------------|
G|-----------------------------------------|-----------------------------------------------|
D|-------------------------9---9---8-------|-----------------------------------------------|
A|-------------------------7---7---6---9---|-8---------------------------------------------|
E|-0--0--7--7--0--0--0--0--------------7---|-6---0--0--0--0--7--7--0--0--0--0--6--6--0--0--|


E|-----------------------------------------|--------------------------------------|
B|-----------------------------------------|--------------------------------------|
G|-----------------------------------------|--------------------------------------|
D|-------------------------9---9---8-------|--------------------------------------|
A|-------------------------7---7---6---9---|-8---7--5--------8----7--5--------8---|
E|-0--0--7--7--0--0--0--0--------------7---|-6---------7--5--6----------7--5--6---|


E|--------------------------------------|--------------------------------------|--------------------------------------|
B|--------------------------------------|--------------------------------------|--------------------------------------|
G|--------------------------------------|--------------------------------------|--------------------------------------|
D|--------------------------------------|--------------------------------------|--------------------------------------|
A|-----7--5--------8----7--5--------5---|-----7--5--------8----7--5--------8---|-----7--5--------8----7--5--------5---|
E|-----------7--5--6----------7--5--3---|-----------7--5--6----------7--5--6---|-----------7--5--6----------7--5--3---|


E|--------------------|----------------|
B|--------------------|----------------|
G|--------------------|----------------|
D|-----2--------------|----------------|
A|-----2--------------|----------------|
E|-----0--------------|----------------|





Track 7: Bass

G|-----------------------------------|-----------------------------------|-----------------------------------|
D|-----------------------------------|-----------------------------------|-----------------------------------|
A|-7--5-------------7--5-------------|-7--5-------------7--5-------------|-7--5-------------7--5-------------|
E|-------7--5--6----------7--5--6----|-------7--5--6----------7--5--3----|-------7--5--6----------7--5--6----|


G|-----------------------------------|-------------------------0-------|-------------------------11------|
D|-----------------------------------|---------5-----------8-------8---|---------9-----------10------10--|
A|-7--5-------------7--5-------------|-----7-----------7---------------|-----10----------12--------------|
E|-------7--5--6----------7--5--3----|-0-----------0-------------------|-0-----------0-------------------|


G|-------------------------0-------|-------------------------11---|-------------------------0-------|
D|---------5-----------8-------8---|---------9-----------10-------|---------5-----------8-------8---|
A|-----7-----------7---------------|-----10----------12-----------|-----7-----------7---------------|
E|-0-----------0-------------------|-0-----------0----------------|-0-----------0-------------------|


G|-------------------------11------|-------------------------0-------|-------------------------11---|
D|---------9-----------10------10--|---------5-----------8-------8---|---------9-----------10-------|
A|-----10----------12--------------|-----7-----------7---------------|-----10----------12-----------|
E|-0-----------0-------------------|-0-----------0-------------------|-0-----------0----------------|


G|-------------------------0-------|-------------------------11------|-------------------------0-------|
D|---------5-----------8-------8---|---------9-----------10------10--|---------5-----------8-------8---|
A|-----7-----------7---------------|-----10----------12--------------|-----7-----------7---------------|
E|-0-----------0-------------------|-0-----------0-------------------|-0-----------0-------------------|


G|-------------------------11---|-------------------------0-------|-------------------------11------|
D|---------9-----------10-------|---------5-----------8-------8---|---------9-----------10------10--|
A|-----10----------12-----------|-----7-----------7---------------|-----10----------12--------------|
E|-0-----------0----------------|-0-----------0-------------------|-0-----------0-------------------|


G|-------------------------0-------|-------------------------11---|-------------------------0-------|
D|---------5-----------8-------8---|---------9-----------10-------|---------5-----------8-------8---|
A|-----7-----------7---------------|-----10----------12-----------|-----7-----------7---------------|
E|-0-----------0-------------------|-0-----------0----------------|-0-----------0-------------------|


G|-------------------------11------|-------------------------0-------|-------------------------11---|
D|---------9-----------10------10--|---------5-----------8-------8---|---------9-----------10-------|
A|-----10----------12--------------|-----7-----------7---------------|-----10----------12-----------|
E|-0-----------0-------------------|-0-----------0-------------------|-0-----------0----------------|


G|-------------------------0-------|-------------------------11------|-------------------------0-------|
D|---------5-----------8-------8---|---------9-----------10------10--|---------5-----------8-------8---|
A|-----7-----------7---------------|-----10----------12--------------|-----7-----------7---------------|
E|-0-----------0-------------------|-0-----------0-------------------|-0-----------0-------------------|


G|-------------------------11---|-------------------------0-------|-------------------------11------|
D|---------9-----------10-------|---------5-----------8-------8---|---------9-----------10------10--|
A|-----10----------12-----------|-----7-----------7---------------|-----10----------12--------------|
E|-0-----------0----------------|-0-----------0-------------------|-0-----------0-------------------|


G|-------------------------0-------|-------------------------11---|-------------------------0-------|
D|---------5-----------8-------8---|---------9-----------10-------|---------5-----------8-------8---|
A|-----7-----------7---------------|-----10----------12-----------|-----7-----------7---------------|
E|-0-----------0-------------------|-0-----------0----------------|-0-----------0-------------------|


G|-------------------------11------|---------------------------------|---------------------------------|
D|---------9-----------10------10--|---------5-----------5-----------|---------------------------------|
A|-----10----------12--------------|-----5-----------5---------------|-2---0---2---4---5---4---5---7---|
E|-0-----------0-------------------|-7-----------6-----------3---2---|---------------------------------|


G|---------------------------------|---------------------------------|---------------------------------|
D|---------5-----------5-----------|---------------------------------|---------5-----------5-----------|
A|-----5-----------5---------------|-2---0---2---4---5---4---5---7---|-----5-----------5---------------|
E|-7-----------6-----------3---2---|---------------------------------|-7-----------6-----------3---2---|


G|---------------------------------|---------------------------------|--------|-------------------------0-------|
D|---------------------------------|---------5-----------5-----------|--------|---------5-----------8-------8---|
A|-2---0---2---4---5---4---5---7---|-----5-----------5---------------|--------|-----7-----------7---------------|
E|---------------------------------|-7-----------6-----------3---2---|-0------|-0-----------0-------------------|


G|-------------------------11------|-------------------------0-------|-------------------------11---|
D|---------9-----------10------10--|---------5-----------8-------8---|---------9-----------10-------|
A|-----10----------12--------------|-----7-----------7---------------|-----10----------12-----------|
E|-0-----------0-------------------|-0-----------0-------------------|-0-----------0----------------|


G|-------------------------0-------|-------------------------11------|-------------------------0-------|
D|---------5-----------8-------8---|---------9-----------10------10--|---------5-----------8-------8---|
A|-----7-----------7---------------|-----10----------12--------------|-----7-----------7---------------|
E|-0-----------0-------------------|-0-----------0-------------------|-0-----------0-------------------|


G|-------------------------11---|-------------------------0-------|-------------------------11------|
D|---------9-----------10-------|---------5-----------8-------8---|---------9-----------10------10--|
A|-----10----------12-----------|-----7-----------7---------------|-----10----------12--------------|
E|-0-----------0----------------|-0-----------0-------------------|-0-----------0-------------------|


G|-------------------------0-------|-------------------------11---|-------------------------0-------|
D|---------5-----------8-------8---|---------9-----------10-------|---------5-----------8-------8---|
A|-----7-----------7---------------|-----10----------12-----------|-----7-----------7---------------|
E|-0-----------0-------------------|-0-----------0----------------|-0-----------0-------------------|


G|-------------------------11------|-------------------------0-------|-------------------------11---|
D|---------9-----------10------10--|---------5-----------8-------8---|---------9-----------10-------|
A|-----10----------12--------------|-----7-----------7---------------|-----10----------12-----------|
E|-0-----------0-------------------|-0-----------0-------------------|-0-----------0----------------|


G|-------------------------0-------|-------------------------11------|-------------------------0-------|
D|---------5-----------8-------8---|---------9-----------10------10--|---------5-----------8-------8---|
A|-----7-----------7---------------|-----10----------12--------------|-----7-----------7---------------|
E|-0-----------0-------------------|-0-----------0-------------------|-0-----------0-------------------|


G|-------------------------11---|-------------------------0-------|-------------------------11------|
D|---------9-----------10-------|---------5-----------8-------8---|---------9-----------10------10--|
A|-----10----------12-----------|-----7-----------7---------------|-----10----------12--------------|
E|-0-----------0----------------|-0-----------0-------------------|-0-----------0-------------------|


G|---------------------------------|--------|-------------------------|------------------------------|
D|---------5-----------5-----------|--------|-------------------------|------------------------------|
A|-----5-----------5---------------|--------|-------------------------|------------------------------|
E|-7-----------6-----------3---2---|-0------|-0-----0---0---0--0--1---|-1----1---1---1---1---1---1---|


G|-----------------------------------|---------------------------|-----------------------------|
D|-----------------------------------|---------------------------|-----------------------------|
A|---------------------2-------------|--------------2------------|-----------------2-----------|
E|-1---1---1---1---0-------0--0--0---|-0----0---0--------0---0---|-0--0--3-----0-------3---1---|


G|------------------------------|-----------------------------------|---------------------------|
D|------------------------------|-----------------------------------|---------------------------|
A|------------------------------|---------------------2-------------|--------------2------------|
E|-1----1---1---1---1---1---1---|-1---1---1---1---0-------0--0--0---|-0----0---0--------0---0---|


G|-----------------------------|------------------------------|-----------------------------------|
D|-----------------------------|------------------------------|-----------------------------------|
A|-----------------2-----------|------------------------------|---------------------2-------------|
E|-0--0--3-----0-------3---1---|-1----1---1---1---1---1---1---|-1---1---1---1---0-------0--0--0---|


G|---------------------------|-----------------------------|------------------------------|
D|---------------------------|-----------------------------|------------------------------|
A|--------------2------------|-----------------2-----------|------------------------------|
E|-0----0---0--------0---0---|-0--0--3-----0-------3---1---|-1----1---1---1---1---1---1---|


G|-----------------------------------|---------------------------|-----------------------------|
D|-----------------------------------|---------------------------|-----------------------------|
A|---------------------2-------------|--------------2------------|-----------------2-----------|
E|-1---1---1---1---0-------0--0--0---|-0----0---0--------0---0---|-0--0--3-----0-------3---1---|


G|------------------------------|-----------------------------------|---------------------------|
D|------------------------------|-----------------------------------|---------------------------|
A|------------------------------|---------------------2-------------|--------------2------------|
E|-1----1---1---1---1---1---1---|-1---1---1---1---0-------0--0--0---|-0----0---0--------0---0---|


G|-----------------------------|------------------------------|-----------------------------------|
D|-----------------------------|------------------------------|-----------------------------------|
A|-----------------2-----------|------------------------------|---------------------2-------------|
E|-0--0--3-----0-------3---1---|-1----1---1---1---1---1---1---|-1---1---1---1---0-------0--0--0---|


G|---------------------------|-----------------------------|------------------------------|
D|---------------------------|-----------------------------|------------------------------|
A|--------------2------------|-----------------2-----------|------------------------------|
E|-0----0---0--------0---0---|-0--0--3-----0-------3---1---|-1----1---1---1---1---1---1---|


G|-----------------------------------|---------------------------|-----------------------------|
D|-----------------------------------|---------------------------|-----------------------------|
A|---------------------2-------------|--------------2------------|-----------------2-----------|
E|-1---1---1---1---0-------0--0--0---|-0----0---0--------0---0---|-0--0--3-----0-------3---1---|


G|------------------------------|-----------------------------------|--------------------|
D|------------------------------|-----------------------------------|--------------------|
A|------------------------------|---------------------2-------------|--------------------|
E|-1----1---1---1---1---1---1---|-1---1---1---1---0-------1--1--0---|--------------------|


G|--------------------|---------------------------|-----------------|-----------------------|
D|--------------------|---------------------------|-----------------|-----------------------|
A|--------------------|---------------------------|-----------------|-----------------------|
E|-----0-----0---0----|------0---0----------------|-----------0-----|-----0---0-----0---0---|


G|---------------------------------|---------------------------------|---------------------------------|
D|-----2-------------------4-------|-------------2-------------------|-4-------------------2-----------|
A|-2-----------3-------4-----------|-5-------2-----------3-------4---|---------5-------2-----------3---|
E|---------1-------2-----------3---|-----0-----------1-------2-------|-----3-------0-----------1-------|


G|---------------------------------|---------------------------------|---------------------------------|
D|---------4-------------------2---|-----------------4---------------|-----2-------------------4-------|
A|-----4-----------5-------2-------|-----3-------4-----------5-------|-2-----------3-------4-----------|
E|-2-----------3-------0-----------|-1-------2-----------3-------0---|---------1-------2-----------3---|


G|---------------------------------|---------------------------------|---------------------------------|
D|-------------2-------------------|-4-------------------2-----------|---------4-------------------2---|
A|-5-------2-----------3-------4---|---------5-------2-----------3---|-----4-----------5-------2-------|
E|-----0-----------1-------2-------|-----3-------0-----------1-------|-2-----------3-------0-----------|


G|---------------------------------|-----9-------------------11------|-------------9-------------------|
D|-----------------4---------------|-9-----------10------11----------|-12------9-----------10------11--|
A|-----3-------4-----------5---7---|---------8-------9-----------10--|-----7-----------8-------9-------|
E|-1-------2-----------3-----------|---------------------------------|---------------------------------|


G|-11------------------9-----------|---------7-------------------5---|---------------------------------|
D|---------12------9-----------8---|-----7-----------6-------5-------|-----4---------------------------|
A|-----10------7-----------6-------|-5-----------4-------3-----------|-2-------1---1---0---------------|
E|---------------------------------|---------------------------------|---------------------7---5---3---|


G|-----------------------|-----------------------|---------------------------|-----------------------|
D|-----------------------|-----------------------|---------------------------|-----------------------|
A|-----------------------|-----------------------|---------------------------|-----------------------|
E|-2---0-----7---5---3---|-2---1-----7---5---3---|-0---1---2-----7---5---3---|-5---3-----7---5---3---|


G|-----------------------|-----------------------|---------------------------|-----------------------|
D|-----------------------|-----------------------|---------------------------|-----------------------|
A|-----------------------|-----------------------|---------------------------|-----------------------|
E|-2---0-----7---5---3---|-2---1-----7---5---3---|-0---1---2-----7---5---3---|-5---3-----7---5---3---|


G|---------------------------------|---------------------------------|---------------------------------|
D|---------------------------------|---------------------------------|---------------------------------|
A|---------------------------------|---------------------------------|---------------------------------|
E|-2---0---0---0---0---0---0---7---|-5---3---2---1---1---1---1---1---|-1---7---5---3---0---1---2---2---|


G|---------------------------------|---------------------------------|---------------------------------|
D|---------------------------------|---------------------------------|---------------------------------|
A|---------------------------------|---------------------------------|---------------------------------|
E|-2---2---2---7---5---3---5---3---|-3---3---3---3---3---7---5---3---|-2---0---0---0---0---0---0---7---|


G|---------------------------------|---------------------------------|---------------------------------|
D|---------------------------------|---------------------------------|---------------------------------|
A|---------------------------------|---------------------------------|---------------------------------|
E|-5---3---2---1---1---1---1---1---|-1---7---5---3---0---1---2---2---|-2---2---2---7---5---3---5---3---|


G|---------------------------------|---------------------------------|---------------------------------|
D|---------------------------------|---------------------------------|---------------------------------|
A|---------------------------------|---------------------------------|---------------------------------|
E|-3---3---3---3---3---7---5---3---|-2---0---0---0---0---0---0---7---|-5---3---2---1---1---1---1---1---|


G|---------------------------------|---------------------------------|---------------------------------|
D|---------------------------------|---------------------------------|---------------------------------|
A|---------------------------------|---------------------------------|---------------------------------|
E|-1---7---5---3---0---1---2---2---|-2---2---2---7---5---3---5---3---|-3---3---3---3---3---7---5---3---|


G|---------------------------------|---------------------------------|---------------------------------|
D|---------------------------------|---------------------------------|---------------------------------|
A|---------------------------------|---------------------------------|---------------------------------|
E|-2---0---0---0---0---0---0---7---|-5---3---2---1---1---1---1---1---|-1---7---5---3---0---1---2---2---|


G|---------------------------------|---------------------------------|------------------------------|
D|---------------------------------|---------------------------------|------------------------------|
A|---------------------------------|---------------------------------|------------------------------|
E|-2---2---2---7---5---3---5---3---|-3---3---3---3---3---7---5---3---|-2---1----1---1---1---1---1---|


G|---------------------------------|----------------------------------|---------------------------------------|
D|---------------------------------|----------------------------------|---------------------------------------|
A|-------------------------2-------|----------------------------------|-------------------------------2-------|
E|-1---1---1---1---1---0-------0---|-0---0----0---0--0--0---0--0--0---|-0--0--0---0--0--0---0--0--0-------0---|


G|------------------------------|---------------------------------|----------------------------------|
D|------------------------------|---------------------------------|----------------------------------|
A|------------------------------|-------------------------2-------|----------------------------------|
E|-1---1----1---1---1---1---1---|-1---1---1---1---1---0-------0---|-0---0----0---0--0--0---0--0--0---|


G|---------------------------------------|------------------------------|---------------------------------|
D|---------------------------------------|------------------------------|---------------------------------|
A|-------------------------------2-------|------------------------------|-------------------------2-------|
E|-0--0--0---0--0--0---0--0--0-------0---|-1---1----1---1---1---1---1---|-1---1---1---1---1---0-------0---|


G|----------------------------------|---------------------------------------|------------------------------|
D|----------------------------------|---------------------------------------|------------------------------|
A|----------------------------------|-------------------------------2-------|------------------------------|
E|-0---0----0---0--0--0---0--0--0---|-0--0--0---0--0--0---0--0--0-------0---|-1---1----1---1---1---1---1---|


G|---------------------------------|----------------------------------|---------------------------------------|
D|---------------------------------|----------------------------------|---------------------------------------|
A|-------------------------2-------|----------------------------------|-------------------------------2-------|
E|-1---1---1---1---1---0-------0---|-0---0----0---0--0--0---0--0--0---|-0--0--0---0--0--0---0--0--0-------0---|


G|------------|-----------------------|----------------------------------|---------------------------------------|
D|------------|-----------------------|----------------------------------|---------------------------------------|
A|------------|---------------2-------|----------------------------------|-------------------------------2-------|
E|-1---1------|-----1-----0-------0---|-0---0----0---0--0--0---0--0--0---|-0--0--0---0--0--0---0--0--0-------0---|


G|------------|-----------------------|----------------------------------|---------------------------------------|
D|------------|-----------------------|----------------------------------|---------------------------------------|
A|------------|---------------2-------|----------------------------------|-------------------------------2-------|
E|-1---1------|-----1-----0-------0---|-0---0----0---0--0--0---0--0--0---|-0--0--0---0--0--0---0--0--0-------0---|


G|------------|-----------------------|----------------------------------|---------------------------------------|
D|------------|-----------------------|----------------------------------|---------------------------------------|
A|------------|---------------2-------|----------------------------------|-------------------------------2-------|
E|-1---1------|-----1-----0-------0---|-0---0----0---0--0--0---0--0--0---|-0--0--0---0--0--0---0--0--0-------0---|


G|------------|-------------------------|------------------------|------------|------------|
D|------------|-------------------------|------------------------|------------|------------|
A|------------|---------------2---------|------------------------|------------|------------|
E|-1---1------|-----1-----0-------0--0--|-0---0------------------|------------|------------|


G|------------|---------------------------------|---------------------------------|
D|------------|---------------------------------|---------------------------------|
A|------------|---------------------------------|-----------------7---7---6-------|
E|------------|-----0-------7-----------6-------|-----7-----------------------7---|


G|---------------------------------|---------------------------------|---------------------------------|
D|---------------------------------|---------------------------------|---------------------------------|
A|---------------------------------|-----------------7---7---6-------|---------------------------------|
E|-6---0-------7-----------6-------|-----7-----------------------7---|-6---0---0---7---0---0---6---0---|


G|---------------------------------|---------------------------------|---------------------------------|
D|---------------------------------|---------------------------------|---------------------------------|
A|-----------------7---7---6-------|---------------------------------|-----------------7---7---6-------|
E|-0---7---0---0---------------7---|-6---0---0---7---0---0---6---0---|-0---7---0---0---------------7---|


G|---------------------------------|---------------------------------|---------------------------------|
D|---------------------------------|---------------------------------|---------------------------------|
A|---------------------------------|-----------------7---7---6-------|---------------------------------|
E|-6---0---0---7---0---0---6---0---|-0---7---0---0---------------7---|-6---0---0---7---0---0---6---0---|


G|---------------------------------|--------------------------------------|--------------------------------------|
D|---------------------------------|--------------------------------------|--------------------------------------|
A|-----------------7---7---6-------|-----7--5-------------7--5------------|-----7--5-------------7--5------------|
E|-0---7---0---0---------------7---|-6---------7--5--6----------7--5--6---|-----------7--5--6----------7--5--3---|


G|---------------------------------|---------------------------------|---------------------------------|
D|---------------------------------|---------------------------------|---------------------------------|
A|---------------------------------|-----------------7---7---6-------|---------------------------------|
E|-----0---0---7---0---0---6---0---|-0---7---0---0---------------7---|-6---0---0---7---0---0---6---0---|


G|---------------------------------|--------------------------------------|--------------------------------------|
D|---------------------------------|--------------------------------------|--------------------------------------|
A|-----------------7---7---6-------|-----7--5-------------7--5------------|-----7--5-------------7--5------------|
E|-0---7---0---0---------------7---|-6---------7--5--6----------7--5--6---|-----------7--5--6----------7--5--3---|


G|---------------------------------|---------------------------------|---------------------------------|
D|---------------------------------|---------------------------------|---------------------------------|
A|---------------------------------|-----------------7---7---6-------|---------------------------------|
E|-----0---0---7---0---0---6---0---|-0---7---0---0---------------7---|-6---0---0---7---0---0---6---0---|


G|---------------------------------|--------------------------------------|--------------------------------------|
D|---------------------------------|--------------------------------------|--------------------------------------|
A|-----------------7---7---6-------|-----7--5-------------7--5------------|-----7--5-------------7--5------------|
E|-0---7---0---0---------------7---|-6---------7--5--6----------7--5--6---|-----------7--5--6----------7--5--3---|


G|---------------------------------|---------------------------------|---------------------------------|
D|---------------------------------|---------------------------------|---------------------------------|
A|---------------------------------|-----------------7---7---6-------|---------------------------------|
E|-----0---0---7---0---0---6---0---|-0---7---0---0---------------7---|-6---0---0---7---0---0---6---0---|


G|---------------------------------|--------------------------------------|--------------------------------------|
D|---------------------------------|--------------------------------------|--------------------------------------|
A|-----------------7---7---6-------|-----7--5-------------7--5------------|-----7--5-------------7--5------------|
E|-0---7---0---0---------------7---|-6---------7--5--6----------7--5--6---|-----------7--5--6----------7--5--3---|


G|--------------------------------------|--------------------------------------|------------------------|
D|--------------------------------------|--------------------------------------|------------------------|
A|-----7--5-------------7--5------------|-----7--5-------------7--5------------|------------------------|
E|-----------7--5--6----------7--5--6---|-----------7--5--6----------7--5--3---|-----0------------------|