Menu:

 

Search:

 

megadeth - duke nukem theme grab bag:

 



Title: Duke Nukem Theme: Grab Bag
Artist: 
Album: Duke Nukem: Music To Score By
Author: Lee Jackson


Track 1: Guitar I

E|------------------------------|----------------|------------------------------|----------------|
B|------------------------------|----------------|------------------------------|----------------|
G|------------------------------|----------------|------------------------------|----------------|
D|------------------------------|----------------|------------------------------|----------------|
A|-2---2-------2--------2---2---|-----2----------|-2---2-------2--------3---3---|-----3----------|
E|-0---0-------0--------0---0---|-----0----------|-0---0-------0--------1---1---|-----1----------|


E|------------------------------|----------------|------------------------------|----------------|
B|------------------------------|----------------|------------------------------|----------------|
G|------------------------------|----------------|------------------------------|----------------|
D|------------------------------|----------------|------------------------------|----------------|
A|-2---2-------2--------2---2---|-----2----------|-2---2-------2--------3---3---|-----3----------|
E|-0---0-------0--------0---0---|-----0----------|-0---0-------0--------1---1---|-----1----------|


E|---------------------------------|---------------------------------|-----------------------------------|
B|---------------------------------|---------------------------------|-----------------------------------|
G|---------------------------------|---------------------------------|-----------------------------------|
D|---------------------------------|---------------------------------|-----------------------------------|
A|-----5---5---7---------------7---|-7---9---------------9---9---10--|-------------2--3--2---------------|
E|-0---3---3---5---0---0---0---5---|-5---7---0---0---0---7---7---8---|-0---0---0-------------5---3---0---|


E|------------------|---------------------------------|---------------------------------|
B|------------------|---------------------------------|---------------------------------|
G|-5-----5-----5----|---------------------------------|---------------------------------|
D|-5-----5-----5----|---------------------------------|---------------------------------|
A|-3-----3-----3----|-----5---5---7---------------7---|-7---9---------------9---9---10--|
E|------------------|-0---3---3---5---0---0---0---5---|-5---7---0---0---0---7---7---8---|


E|-----------------------------------|------------------|---------------------------------|
B|-----------------------------------|------------------|---------------------------------|
G|-----------------------------------|-5-----5-----5----|---------------------------------|
D|-----------------------------------|-5-----5-----5----|---------------------------------|
A|-------------2--3--2---------------|-3-----3-----3----|-----5---5---7---------------7---|
E|-0---0---0-------------5---3---0---|------------------|-0---3---3---5---0---0---0---5---|


E|---------------------------------|-----------------------------------|------------------|
B|---------------------------------|-----------------------------------|------------------|
G|---------------------------------|-----------------------------------|-5-----5-----5----|
D|---------------------------------|-----------------------------------|-5-----5-----5----|
A|-7---9---------------9---9---10--|-------------2--3--2---------------|-3-----3-----3----|
E|-5---7---0---0---0---7---7---8---|-0---0---0-------------5---3---0---|------------------|


E|---------------------------------|---------------------------------|-----------------------------------|
B|---------------------------------|---------------------------------|-----------------------------------|
G|---------------------------------|---------------------------------|-----------------------------------|
D|---------------------------------|---------------------------------|-----------------------------------|
A|-----5---5---7---------------7---|-7---9---------------9---9---10--|-------------2--3--2---------------|
E|-0---3---3---5---0---0---0---5---|-5---7---0---0---0---7---7---8---|-0---0---0-------------5---3---0---|


E|------------------|------------------------|------------------------------|----------------|
B|------------------|------------------------|------------------------------|----------------|
G|-5-----5-----5----|-5---5---5----5----5----|------------------------------|----------------|
D|-5-----5-----5----|-5---5---5----5----5----|------------------------------|----------------|
A|-3-----3-----3----|-3---3---3----3----3----|-3---3-------3--------3---3---|-----3----------|
E|------------------|------------------------|-1---1-------1--------1---1---|-----1----------|


E|------------------------------|----------------|---------------------------------|
B|------------------------------|----------------|---------------------------------|
G|------------------------------|----------------|---------------------------------|
D|------------------------------|----------------|---------------------------------|
A|-3---3-------3--------3---3---|-----3----------|---------------------------------|
E|-1---1-------1--------1---1---|-----1----------|-0---0---0---0---0---0---0---0---|


E|-----------------------------------|---------------------------------|-------------------------------------|
B|-----------------------------------|---------------------------------|-------------------------------------|
G|-----------------------------------|---------------------------------|-------------------------------------|
D|-----------------------------------|---------------------------------|-------------------------------------|
A|-----------------------------------|---------------------------------|-------------------------------------|
E|-0---0---0---0---0---0---0--0--0---|-0---0---0---0---0---0---0---0---|-0---0---0---0---0--0--0---0--0--0---|


E|---------------------------------|-----------------------------------|---------------------------------|
B|---------------------------------|-----------------------------------|---------------------------------|
G|---------------------------------|-----------------------------------|---------------------------------|
D|---------------------------------|-----------------------------------|---------------------------------|
A|---------------------------------|-----------------------------------|---------------------------------|
E|-0---0---0---0---0---0---0---0---|-0---0---0---0---0---0---0--0--0---|-0---0---0---0---0---0---0---0---|


E|-----------------------------------------|---------------------------------|-----------------------------------|
B|-----------------------------------------|---------------------------------|-----------------------------------|
G|-----------------------------------------|---------------------------------|-----------------------------------|
D|-----------------------------------------|---------------------------------|-----------------------------------|
A|-----------------------------------------|---------------------------------|-----------------------------------|
E|-0--0--0---0--0--0---0--0--0---0--0--0---|-0---0---0---0---0---0---0---0---|-0---0---0---0---0---0---0--0--0---|


E|---------------------------------|-------------------------------------|---------------------------------|
B|---------------------------------|-------------------------------------|---------------------------------|
G|---------------------------------|-------------------------------------|---------------------------------|
D|---------------------------------|-------------------------------------|---------------------------------|
A|---------------------------------|-------------------------------------|---------------------------------|
E|-0---0---0---0---0---0---0---0---|-0---0---0---0---0--0--0---0--0--0---|-0---0---0---0---0---0---0---0---|


E|-----------------------------------|---------------------------------|-------------------------------------|
B|-----------------------------------|---------------------------------|-------------------------------------|
G|-----------------------------------|---------------------------------|-------------------------------------|
D|-----------------------------------|---------5-----------5-----------|-------------------------------------|
A|-----------------------------------|-3---3---3---3---3---3---3---3---|-2---2---2--2--2---2---2---2--2--2---|
E|-0---0---0---0---0---0---0--0--0---|---------------------------------|-------------------------------------|


E|---------------------------------|-----------------------------------|---------------------------------|
B|---------------------------------|-----------------------------------|---------------------------------|
G|---------------------------------|-----------------------------------|---------------------------------|
D|---------------------------------|-----------------------------------|---------------------------------|
A|---------2-----------2-----------|-2-----------2---------------------|---------2-----------2-----------|
E|-0---0---0---0---0---0---0---0---|-0---0---0---0---0---0---0--0--0---|-0---0---0---0---0---0---0---0---|


E|-------------------------------------|---------------------------------|-----------------------------------|
B|-------------------------------------|---------------------------------|-----------------------------------|
G|-------------------------------------|---------------------------------|-----------------------------------|
D|-------------------------------------|---------------------------------|-----------------------------------|
A|-2-----------------------------------|---------2-----------2-----------|-2-----------2---------------------|
E|-0---0---0---0---0--0--0---0--0--0---|-0---0---0---0---0---0---0---0---|-0---0---0---0---0---0---0--0--0---|


E|---------------------------------|-------------------------------------|------------------------------|
B|---------------------------------|-------------------------------------|------------------------------|
G|---------------------------------|-------------------------------------|------------------------------|
D|---------5-----------5-----------|-------------------------------------|------------------------------|
A|-3---3---3---3---3---3---3---3---|-2---2---2--2--2---2---2---2--2--2---|-3---3-------3--------3---3---|
E|---------------------------------|-------------------------------------|-1---1-------1--------1---1---|


E|----------------|------------------------------|----------------|---------------------------------|
B|----------------|------------------------------|----------------|---------------------------------|
G|----------------|------------------------------|----------------|---------------------------------|
D|----------------|------------------------------|----------------|---------------------------------|
A|-----3----------|-3---3-------3--------3---3---|-----3----------|-----5---5---7---------------7---|
E|-----1----------|-1---1-------1--------1---1---|-----1----------|-0---3---3---5---0---0---0---5---|


E|---------------------------------|-----------------------------------|------------------|
B|---------------------------------|-----------------------------------|------------------|
G|---------------------------------|-----------------------------------|-5-----5-----5----|
D|---------------------------------|-----------------------------------|-5-----5-----5----|
A|-7---9---------------9---9---10--|-------------2--3--2---------------|-3-----3-----3----|
E|-5---7---0---0---0---7---7---8---|-0---0---0-------------5---3---0---|------------------|


E|---------------------------------|---------------------------------|-----------------------------------|
B|---------------------------------|---------------------------------|-----------------------------------|
G|---------------------------------|---------------------------------|-----------------------------------|
D|---------------------------------|---------------------------------|-----------------------------------|
A|-----5---5---7---------------7---|-7---9---------------9---9---10--|-------------2--3--2---------------|
E|-0---3---3---5---0---0---0---5---|-5---7---0---0---0---7---7---8---|-0---0---0-------------5---3---0---|


E|------------------|---------------------------------|---------------------------------|
B|------------------|---------------------------------|---------------------------------|
G|-5-----5-----5----|---------------------------------|---------------------------------|
D|-5-----5-----5----|---------------------------------|---------------------------------|
A|-3-----3-----3----|-----5---5---7---------------7---|-7---9---------------9---9---10--|
E|------------------|-0---3---3---5---0---0---0---5---|-5---7---0---0---0---7---7---8---|


E|-----------------------------------|------------------|---------------------------------|
B|-----------------------------------|------------------|---------------------------------|
G|-----------------------------------|-5-----5-----5----|---------------------------------|
D|-----------------------------------|-5-----5-----5----|---------------------------------|
A|-------------2--3--2---------------|-3-----3-----3----|-----5---5---7---------------7---|
E|-0---0---0-------------5---3---0---|------------------|-0---3---3---5---0---0---0---5---|


E|---------------------------------|-----------------------------------|------------------|
B|---------------------------------|-----------------------------------|------------------|
G|---------------------------------|-----------------------------------|-5-----5-----5----|
D|---------------------------------|-----------------------------------|-5-----5-----5----|
A|-7---9---------------9---9---10--|-------------2--3--2---------------|-3-----3-----3----|
E|-5---7---0---0---0---7---7---8---|-0---0---0-------------5---3---0---|------------------|


E|------------------------|------------------------------|----------------|------------------------------|
B|------------------------|------------------------------|----------------|------------------------------|
G|-5---5---5----5----5----|------------------------------|----------------|------------------------------|
D|-5---5---5----5----5----|------------------------------|----------------|------------------------------|
A|-3---3---3----3----3----|-3---3-------3--------3---3---|-----3----------|-3---3-------3--------3---3---|
E|------------------------|-1---1-------1--------1---1---|-----1----------|-1---1-------1--------1---1---|


E|----------------|---------------------------------|-----------------------------------|
B|----------------|---------------------------------|-----------------------------------|
G|----------------|---------------------------------|-----------------------------------|
D|----------------|---------------------------------|-----------------------------------|
A|-----3----------|---------2-----------2-----------|-2-----------2---------------------|
E|-----1----------|-0---0---0---0---0---0---0---0---|-0---0---0---0---0---0---0--0--0---|


E|---------------------------------|-------------------------------------|---------------------------------|
B|---------------------------------|-------------------------------------|---------------------------------|
G|---------------------------------|-------------------------------------|---------------------------------|
D|---------------------------------|-------------------------------------|---------------------------------|
A|---------2-----------2-----------|-2-----------------------------------|---------2-----------2-----------|
E|-0---0---0---0---0---0---0---0---|-0---0---0---0---0--0--0---0--0--0---|-0---0---0---0---0---0---0---0---|


E|-----------------------------------|---------------------------------|-------------------------------------|
B|-----------------------------------|---------------------------------|-------------------------------------|
G|-----------------------------------|---------------------------------|-------------------------------------|
D|-----------------------------------|---------5-----------5-----------|-------------------------------------|
A|-2-----------2---------------------|-3---3---3---3---3---3---3---3---|-2---2---2--2--2---2---2---2--2--2---|
E|-0---0---0---0---0---0---0--0--0---|---------------------------------|-------------------------------------|


E|---------------------------------|-----------------------------------|---------------------------------|
B|---------------------------------|-----------------------------------|---------------------------------|
G|---------------------------------|-----------------------------------|---------------------------------|
D|---------------------------------|-----------------------------------|---------------------------------|
A|---------2-----------2-----------|-2-----------2---------------------|---------2-----------2-----------|
E|-0---0---0---0---0---0---0---0---|-0---0---0---0---0---0---0--0--0---|-0---0---0---0---0---0---0---0---|


E|-------------------------------------|---------------------------------|-----------------------------------|
B|-------------------------------------|---------------------------------|-----------------------------------|
G|-------------------------------------|---------------------------------|-----------------------------------|
D|-------------------------------------|---------------------------------|-----------------------------------|
A|-2-----------------------------------|---------2-----------2-----------|-2-----------2---------------------|
E|-0---0---0---0---0--0--0---0--0--0---|-0---0---0---0---0---0---0---0---|-0---0---0---0---0---0---0--0--0---|


E|---------------------------------|---------------------|-------------|--------|--------|
B|---------------------------------|---------------------|-------------|--------|--------|
G|---------------------------------|---------------------|-------------|--------|--------|
D|---------5-----------5-----------|-4----9----9---------|--------10---|--------|--------|
A|-3---3---3---3---3---3---3---3---|-2--------------9----|-9-----------|--------|--------|
E|---------------------------------|---------------------|-------------|--------|--------|


E|--------|--------|--------|--------|--------|--------|------6--------------|------6--------------|
B|--------|--------|--------|--------|--------|--------|-----------6---------|-----------7---------|
G|--------|--------|--------|--------|--------|--------|-6--------------6----|-6--------------6----|
D|--------|--------|--------|--------|--------|--------|---------------------|---------------------|
A|--------|--------|--------|--------|--------|--------|---------------------|---------------------|
E|--------|--------|--------|--------|--------|--------|---------------------|---------------------|


E|------6--------------|------6--------------|------6--------------|------6--------------|
B|-----------7---------|-----------6---------|-----------6---------|-----------7---------|
G|-8--------------8----|-6--------------6----|-6--------------6----|-6--------------6----|
D|---------------------|---------------------|---------------------|---------------------|
A|---------------------|---------------------|---------------------|---------------------|
E|---------------------|---------------------|---------------------|---------------------|


E|------9--------------|------------------------------|----------------|------------------------------|
B|-----------11--------|------------------------------|----------------|------------------------------|
G|-11-------------11---|------------------------------|----------------|------------------------------|
D|---------------------|------------------------------|----------------|------------------------------|
A|---------------------|-3---3-------3--------3---3---|-----3----------|-3---3-------3--------3---3---|
E|---------------------|-1---1-------1--------1---1---|-----1----------|-1---1-------1--------1---1---|


E|----------------|------------------------------|----------------|------------------------------|
B|----------------|------------------------------|----------------|------------------------------|
G|----------------|------------------------------|----------------|------------------------------|
D|----------------|------------------------------|----------------|------------------------------|
A|-----3----------|-3---3-------3--------3---3---|-----3----------|-3---3-------3--------3---3---|
E|-----1----------|-1---1-------1--------1---1---|-----1----------|-1---1-------1--------1---1---|


E|----------------|------------------------------|----------------|------------------------------|
B|----------------|------------------------------|----------------|------------------------------|
G|----------------|------------------------------|----------------|------------------------------|
D|----------------|------------------------------|----------------|------------------------------|
A|-----3----------|-3---3-------3--------3---3---|-----3----------|-3---3-------3--------3---3---|
E|-----1----------|-1---1-------1--------1---1---|-----1----------|-1---1-------1--------1---1---|


E|----------------|------------------------------|----------------|------------------------------|
B|----------------|------------------------------|----------------|------------------------------|
G|----------------|------------------------------|----------------|------------------------------|
D|----------------|------------------------------|----------------|------------------------------|
A|-----3----------|-3---3-------3--------3---3---|-----3----------|-3---3-------3--------3---3---|
E|-----1----------|-1---1-------1--------1---1---|-----1----------|-1---1-------1--------1---1---|


E|----------------|------------------------------|----------------|------------------------------|
B|----------------|------------------------------|----------------|------------------------------|
G|----------------|------------------------------|----------------|------------------------------|
D|----------------|------------------------------|----------------|------------------------------|
A|-----3----------|-3---3-------3--------3---3---|-----3----------|-3---3-------3--------2---2---|
E|-----1----------|-1---1-------1--------1---1---|-----1----------|-1---1-------1--------0---0---|


E|----------------|------------------------------|----------------|------------------------------|
B|----------------|------------------------------|----------------|------------------------------|
G|----------------|------------------------------|----------------|------------------------------|
D|----------------|------------------------------|----------------|------------------------------|
A|-----2----------|-3---3-------3--------3---3---|-----3----------|-3---3-------3--------2---2---|
E|-----0----------|-1---1-------1--------1---1---|-----1----------|-1---1-------1--------0---0---|


E|----------------|---------------------------------|---------------------------------|
B|----------------|---------------------------------|---------------------------------|
G|----------------|---------------------------------|---------------------------------|
D|----------------|---------------------------------|---------------------------------|
A|-----2----------|-----5---5---7---------------7---|-7---9---------------9---9---10--|
E|-----0----------|-0---3---3---5---0---0---0---5---|-5---7---0---0---0---7---7---8---|


E|-----------------------------------|---------------------------------|---------------------------------|
B|-----------------------------------|---------------------------------|---------------------------------|
G|-----------------------------------|---------------------------------|---------------------------------|
D|-----------------------------------|---------------------------------|---------------------------------|
A|-------------2--3--2---------------|-----5---5---7---------------7---|-7---9---------------9---9---10--|
E|-0---0---0-------------5---3---0---|-0---3---3---5---0---0---0---5---|-5---7---0---0---0---7---7---8---|


E|-----------------------------------|---------------------------------|---------------------------------|
B|-----------------------------------|---------------------------------|---------------------------------|
G|-----------------------------------|---------------------------------|---------------------------------|
D|-----------------------------------|---------------------------------|---------------------------------|
A|-------------2--3--2---------------|-----5---5---7---------------7---|-7---9---------------9---9---10--|
E|-0---0---0-------------5---3---0---|-0---3---3---5---0---0---0---5---|-5---7---0---0---0---7---7---8---|


E|-----------------------------------|---------------------------------|---------------------------------|
B|-----------------------------------|---------------------------------|---------------------------------|
G|-----------------------------------|---------------------------------|---------------------------------|
D|-----------------------------------|---------------------------------|---------------------------------|
A|-------------2--3--2---------------|-----5---5---7---------------7---|-7---9---------------9---9---10--|
E|-0---0---0-------------5---3---0---|-0---3---3---5---0---0---0---5---|-5---7---0---0---0---7---7---8---|





Track 2: Solo I

E|--------|--------|--------|--------|--------|--------|--------|--------|--------|
B|--------|--------|--------|--------|--------|--------|--------|--------|--------|
G|--------|--------|--------|--------|--------|--------|--------|--------|--------|
D|--------|--------|--------|--------|--------|--------|--------|--------|--------|
A|--------|--------|--------|--------|--------|--------|--------|--------|--------|
E|--------|--------|--------|--------|--------|--------|--------|--------|--------|


E|--------|--------|------------------|--------|--------|--------|------------------|
B|--------|--------|-8-----8-----8----|--------|--------|--------|-8-----8-----8----|
G|--------|--------|-7-----7-----7----|--------|--------|--------|-7-----7-----7----|
D|--------|--------|------------------|--------|--------|--------|------------------|
A|--------|--------|------------------|--------|--------|--------|------------------|
E|--------|--------|------------------|--------|--------|--------|------------------|


E|--------|--------|--------|------------------|--------|--------|--------|------------------|
B|--------|--------|--------|-8-----8-----8----|--------|--------|--------|-8-----8-----8----|
G|--------|--------|--------|-7-----7-----7----|--------|--------|--------|-7-----7-----7----|
D|--------|--------|--------|------------------|--------|--------|--------|------------------|
A|--------|--------|--------|------------------|--------|--------|--------|------------------|
E|--------|--------|--------|------------------|--------|--------|--------|------------------|


E|------------------------|--------|--------|--------|--------|--------|--------|--------|
B|-8---8---8----8----8----|--------|--------|--------|--------|--------|--------|--------|
G|-7---7---7----7----7----|--------|--------|--------|--------|--------|--------|--------|
D|------------------------|--------|--------|--------|--------|--------|--------|--------|
A|------------------------|--------|--------|--------|--------|--------|--------|--------|
E|------------------------|--------|--------|--------|--------|--------|--------|--------|


E|--------|--------|--------|--------|--------|------------------------------|-----------------|
B|--------|--------|--------|--------|--------|------------------------------|-----------------|
G|--------|--------|--------|--------|--------|------------------------------|-----------------|
D|--------|--------|--------|--------|--------|-9---9---9---9---9----9---9---|-9----10---10----|
A|--------|--------|--------|--------|--------|------------------------------|-----------------|
E|--------|--------|--------|--------|--------|------------------------------|-----------------|


E|------------------------------|---------------------|------------------------------|
B|------------------------------|---------------------|------------------------------|
G|------------------------------|---------------------|------------------------------|
D|-7---7---7---7---7----7---7---|-7----5----4----5----|-9---9---9---9---9----9---9---|
A|------------------------------|---------------------|------------------------------|
E|------------------------------|---------------------|------------------------------|


E|------------------------|------------------------------|--------|-19--19--19--19--19---19--19--|
B|------------------------|------------------------------|--------|-12--12--12--12--12---12--12--|
G|------------------------|------------------------------|--------|------------------------------|
D|-9----9--9----7---------|------------------7---7---4---|-4------|------------------------------|
A|-------------------10---|-10--7----10------------------|--------|------------------------------|
E|------------------------|------------------------------|--------|------------------------------|


E|-19--19--19---19----|-17--17--17--17--17---17--17--|-17---15---14---15---|-19--19--19--19--19---19--19--|
B|-12--12--12---12----|-10--10--10--10--10---10--10--|-10---8----7----8----|-12--12--12--12--12---12--12--|
G|--------------------|------------------------------|---------------------|------------------------------|
D|--------------------|------------------------------|---------------------|------------------------------|
A|--------------------|------------------------------|---------------------|------------------------------|
E|--------------------|------------------------------|---------------------|------------------------------|


E|-19---19-19---17--------|-15--12---15------17--17---|-14-----|--------|--------|
B|-12---12-12---10---20---|------------------10--10---|-7------|--------|--------|
G|-------------------12---|-12--9----12---------------|--------|--------|--------|
D|------------------------|---------------------------|--------|--------|--------|
A|------------------------|---------------------------|--------|--------|--------|
E|------------------------|---------------------------|--------|--------|--------|


E|--------|--------|--------|--------|--------|------------------|--------|--------|
B|--------|--------|--------|--------|--------|-8-----8-----8----|--------|--------|
G|--------|--------|--------|--------|--------|-7-----7-----7----|--------|--------|
D|--------|--------|--------|--------|--------|------------------|--------|--------|
A|--------|--------|--------|--------|--------|------------------|--------|--------|
E|--------|--------|--------|--------|--------|------------------|--------|--------|


E|--------|------------------|--------|--------|--------|------------------|--------|
B|--------|-8-----8-----8----|--------|--------|--------|-8-----8-----8----|--------|
G|--------|-7-----7-----7----|--------|--------|--------|-7-----7-----7----|--------|
D|--------|------------------|--------|--------|--------|------------------|--------|
A|--------|------------------|--------|--------|--------|------------------|--------|
E|--------|------------------|--------|--------|--------|------------------|--------|


E|--------|--------|------------------|------------------------|--------|--------|
B|--------|--------|-8-----8-----8----|-8---8---8----8----8----|--------|--------|
G|--------|--------|-7-----7-----7----|-7---7---7----7----7----|--------|--------|
D|--------|--------|------------------|------------------------|--------|--------|
A|--------|--------|------------------|------------------------|--------|--------|
E|--------|--------|------------------|------------------------|--------|--------|


E|--------|--------|------------------------------|-----------------|------------------------------|
B|--------|--------|-12--12--12--12--12---12--12--|-12---13---13----|-10--10--10--10--10---10--10--|
G|--------|--------|------------------------------|-----------------|------------------------------|
D|--------|--------|-9---9---9---9---9----9---9---|-9----10---10----|-7---7---7---7---7----7---7---|
A|--------|--------|------------------------------|-----------------|------------------------------|
E|--------|--------|------------------------------|-----------------|------------------------------|


E|---------------------|------------------------------|---------------------|---------------------------|
B|-10---8----7----8----|-12--12--12--12--12---12--13--|-13---12---10--------|------------------10--10---|
G|---------------------|------------------------------|----------------12---|-12--9----12---------------|
D|-7----5----4----5----|-9---9---9---9---9----9---10--|-10---9----7---------|------------------7---7----|
A|---------------------|------------------------------|----------------10---|-10--7----10---------------|
E|---------------------|------------------------------|---------------------|---------------------------|


E|------------15---|-19--19--19--19--19---19--19--|-19--19--20---20----|-17--17--17--17--17---17--17--|
B|-7-----7----8----|-12--12--12--12--12---12--12--|-12--12--13---13----|-10--10--10--10--10---10--10--|
G|-----------------|------------------------------|--------------------|------------------------------|
D|-4-----4---------|------------------------------|--------------------|------------------------------|
A|-----------------|------------------------------|--------------------|------------------------------|
E|-----------------|------------------------------|--------------------|------------------------------|


E|-17---15---14---15---|-19--19--19--19--19---19--20--|-20---19---17--------|------------------17--17--14--|
B|-10---8----7----8----|-12--12--12--12--12---12--13--|-13---12---10---20---|-20--17---20------10--10--7---|
G|---------------------|------------------------------|----------------12---|-12--9----12------------------|
D|---------------------|------------------------------|---------------------|------------------------------|
A|---------------------|------------------------------|---------------------|------------------------------|
E|---------------------|------------------------------|---------------------|------------------------------|


E|-14-----|-14----14----|--------|--------|--------|--------|--------|--------|--------|
B|-7------|-7-----7-----|--------|--------|--------|--------|--------|--------|--------|
G|--------|-------------|--------|--------|--------|--------|--------|--------|--------|
D|--------|-------------|--------|--------|--------|--------|--------|--------|--------|
A|--------|-------------|--------|--------|--------|--------|--------|--------|--------|
E|--------|-------------|--------|--------|--------|--------|--------|--------|--------|


E|--------|------13-------13--13--13--|-13---14---14----|-14------------------------------|
B|--------|-16-------16---------------|-----------------|-----16--16--16--14--14--16--14--|
G|--------|---------------------------|-----------------|---------------------------------|
D|--------|---------------------------|-----------------|---------------------------------|
A|--------|---------------------------|-----------------|---------------------------------|
E|--------|---------------------------|-----------------|---------------------------------|


E|------------------------|------13--13--13---13--13--|-13---13---11--------|------------------------------|
B|-14--14---14--13---14---|-14------------------------|----------------14---|-14----------14------14---14--|
G|------------------------|---------------------------|---------------------|------15-15-------------------|
D|------------------------|---------------------------|---------------------|------------------------------|
A|------------------------|---------------------------|---------------------|------------------------------|
E|------------------------|---------------------------|---------------------|------------------------------|


E|----------------|-----------------|--------|-------5-----|-11----11----10--11--|
B|-14--13--13-----|-13--------------|--------|-------6-----|-13----13----12--13--|
G|----------------|-----------------|--------|-------------|---------------------|
D|----------------|------12---------|--------|-------------|---------------------|
A|----------------|-----------12----|--------|-------------|---------------------|
E|----------------|-----------------|--------|-------------|---------------------|


E|-11--10--11---10--11--10--11--|-10----10----9---10--|-10--9---10---9---10--9---10--|
B|-13--12--13---12--13--12--13--|-11----11----10--11--|-11--10--11---10--11--10--11--|
G|------------------------------|---------------------|------------------------------|
D|------------------------------|---------------------|------------------------------|
A|------------------------------|---------------------|------------------------------|
E|------------------------------|---------------------|------------------------------|


E|-8-----8-----7---8---|-8---7---8----7---8---7---8---|-4---5----4---5----4---5---|
B|-9-----9-----8---9---|-9---8---9----8---9---8---9---|-6---6----6---6----5---6---|
G|---------------------|------------------------------|---------------------------|
D|---------------------|------------------------------|---------------------------|
A|---------------------|------------------------------|---------------------------|
E|---------------------|------------------------------|---------------------------|


E|-5---4---5----4---5---4---5---|-4-----------------------------------------------|
B|-6---5---6----5---6---5---6---|-----6---4---------------4-----------------------|
G|------------------------------|-------------5---3-----------5---3---------------|
D|------------------------------|---------------------6---------------6---3-------|
A|------------------------------|---------------------------------------------6---|
E|------------------------------|-------------------------------------------------|


E|-------------------------------------------------|-----------------|--------|--------|
B|-------------------------------------------------|-----------------|--------|--------|
G|-5---3-------------------5---3-------------------|-----------------|--------|--------|
D|---------6---3-------------------6---------------|-----------------|--------|--------|
A|-----------------6---3---------------3-----------|-----------------|-12-----|--------|
E|-----------------------------------------6---4---|-1-----1---13----|-12-----|--------|


E|--------|--------|--------|--------|--------|--------|--------|--------|--------|
B|--------|--------|--------|--------|--------|--------|--------|--------|--------|
G|--------|--------|--------|--------|--------|--------|--------|--------|--------|
D|--------|--------|--------|--------|--------|--------|--------|--------|--------|
A|--------|--------|--------|--------|--------|--------|--------|--------|--------|
E|--------|--------|--------|--------|--------|--------|--------|--------|--------|


E|--------|--------|--------|--------|--------|--------|--------|--------|--------|
B|--------|--------|--------|--------|--------|--------|--------|--------|--------|
G|--------|--------|--------|--------|--------|--------|--------|--------|--------|
D|--------|--------|--------|--------|--------|--------|--------|--------|--------|
A|--------|--------|--------|--------|--------|--------|--------|--------|--------|
E|--------|--------|--------|--------|--------|--------|--------|--------|--------|





Track 3: Guitar II

E|--------|--------|--------|--------|--------|--------|--------|--------|--------|
B|--------|--------|--------|--------|--------|--------|--------|--------|--------|
G|--------|--------|--------|--------|--------|--------|--------|--------|--------|
D|--------|--------|--------|--------|--------|--------|--------|--------|--------|
A|--------|--------|--------|--------|--------|--------|--------|--------|--------|
E|--------|--------|--------|--------|--------|--------|--------|--------|--------|


E|--------|--------|--------|--------|--------|--------|--------|--------|--------|
B|--------|--------|--------|--------|--------|--------|--------|--------|--------|
G|--------|--------|--------|--------|--------|--------|--------|--------|--------|
D|--------|--------|--------|--------|--------|--------|--------|--------|--------|
A|--------|--------|--------|--------|--------|--------|--------|--------|--------|
E|--------|--------|--------|--------|--------|--------|--------|--------|--------|


E|--------|--------|--------|--------|--------|--------|--------|--------|--------|
B|--------|--------|--------|--------|--------|--------|--------|--------|--------|
G|--------|--------|--------|--------|--------|--------|--------|--------|--------|
D|--------|--------|--------|--------|--------|--------|--------|--------|--------|
A|--------|--------|--------|--------|--------|--------|--------|--------|--------|
E|--------|--------|--------|--------|--------|--------|--------|--------|--------|


E|--------|--------|--------|--------|--------|--------|--------|--------|--------|
B|--------|--------|--------|--------|--------|--------|--------|--------|--------|
G|--------|--------|--------|--------|--------|--------|--------|--------|--------|
D|--------|--------|--------|--------|--------|--------|--------|--------|--------|
A|--------|--------|--------|--------|--------|--------|--------|--------|--------|
E|--------|--------|--------|--------|--------|--------|--------|--------|--------|


E|--------|--------|--------|--------|--------|---------------------------------|-----------------------------------|
B|--------|--------|--------|--------|--------|---------------------------------|-----------------------------------|
G|--------|--------|--------|--------|--------|---------------------------------|-----------------------------------|
D|--------|--------|--------|--------|--------|---------------------------------|-----------------------------------|
A|--------|--------|--------|--------|--------|---------------------------------|-----------------------------------|
E|--------|--------|--------|--------|--------|-0---0---0---0---0---0---0---0---|-0---0---0---0---0---0---0--0--0---|


E|---------------------------------|--------|--------|--------|--------|--------|---------------------------------|
B|---------------------------------|--------|--------|--------|--------|--------|---------------------------------|
G|---------------------------------|--------|--------|--------|--------|--------|---------------------------------|
D|---------5-----------5-----------|-4------|--------|--------|--------|--------|---------------------------------|
A|-3---3---3---3---3---3---3---3---|-2------|--------|--------|--------|--------|---------2-----------2-----------|
E|---------------------------------|--------|--------|--------|--------|--------|-0---0---0---0---0---0---0---0---|


E|-----------------------------------|---------------------------------|--------|--------|
B|-----------------------------------|---------------------------------|--------|--------|
G|-----------------------------------|---------------------------------|--------|--------|
D|-----------------------------------|---------5-----------5-----------|-4------|--------|
A|-2-----------2---------------------|-3---3---3---3---3---3---3---3---|-2------|--------|
E|-0---0---0---0---0---0---0--0--0---|---------------------------------|--------|--------|


E|--------|--------|--------|--------|--------|--------|--------|--------|--------|
B|--------|--------|--------|--------|--------|--------|--------|--------|--------|
G|--------|--------|--------|--------|--------|--------|--------|--------|--------|
D|--------|--------|--------|--------|--------|--------|--------|--------|--------|
A|--------|--------|--------|--------|--------|--------|--------|--------|--------|
E|--------|--------|--------|--------|--------|--------|--------|--------|--------|


E|--------|--------|--------|--------|--------|--------|--------|--------|--------|
B|--------|--------|--------|--------|--------|--------|--------|--------|--------|
G|--------|--------|--------|--------|--------|--------|--------|--------|--------|
D|--------|--------|--------|--------|--------|--------|--------|--------|--------|
A|--------|--------|--------|--------|--------|--------|--------|--------|--------|
E|--------|--------|--------|--------|--------|--------|--------|--------|--------|


E|--------|--------|--------|--------|--------|--------|--------|--------|--------|
B|--------|--------|--------|--------|--------|--------|--------|--------|--------|
G|--------|--------|--------|--------|--------|--------|--------|--------|--------|
D|--------|--------|--------|--------|--------|--------|--------|--------|--------|
A|--------|--------|--------|--------|--------|--------|--------|--------|--------|
E|--------|--------|--------|--------|--------|--------|--------|--------|--------|


E|--------|---------------------------------|-----------------------------------|---------------------------------|
B|--------|---------------------------------|-----------------------------------|---------------------------------|
G|--------|---------------------------------|-----------------------------------|---------------------------------|
D|--------|---------------------------------|-----------------------------------|---------5-----------5-----------|
A|--------|---------2-----------2-----------|-2-----------2---------------------|-3---3---3---3---3---3---3---3---|
E|--------|-0---0---0---0---0---0---0---0---|-0---0---0---0---0---0---0--0--0---|---------------------------------|


E|--------|--------|--------|--------|--------|--------|--------|--------|---------------------|
B|--------|--------|--------|--------|--------|--------|--------|--------|---------------------|
G|--------|-9------|-12-----|-7------|-12-----|-9------|-12-----|-5------|-----------8----8----|
D|-4------|-9------|-10-----|-7------|-10-----|-9------|-10-----|-5------|-4----4--------------|
A|-2------|--------|--------|--------|--------|--------|--------|--------|-2----2--------------|
E|--------|--------|--------|--------|--------|--------|--------|--------|---------------------|


E|---------------------|--------|--------|--------|--------|--------|--------|--------|
B|-----------15---13---|--------|--------|--------|--------|--------|--------|--------|
G|-14---14-------------|--------|--------|--------|--------|--------|--------|--------|
D|---------------------|--------|--------|--------|--------|--------|--------|--------|
A|---------------------|--------|--------|--------|--------|--------|--------|--------|
E|---------------------|--------|--------|--------|--------|--------|--------|--------|


E|--------|--------|--------|--------|--------|--------|--------|--------|--------|
B|--------|--------|--------|--------|--------|--------|--------|--------|--------|
G|--------|--------|--------|--------|--------|--------|--------|--------|--------|
D|--------|--------|--------|--------|--------|--------|--------|--------|--------|
A|--------|--------|--------|--------|--------|--------|--------|--------|--------|
E|--------|--------|--------|--------|--------|--------|--------|--------|--------|


E|--------|--------|--------|--------|--------|--------|--------|--------|--------|
B|--------|--------|--------|--------|--------|--------|--------|--------|--------|
G|--------|--------|--------|--------|--------|--------|--------|--------|--------|
D|--------|--------|--------|--------|--------|--------|--------|--------|--------|
A|--------|--------|--------|--------|--------|--------|--------|--------|--------|
E|--------|--------|--------|--------|--------|--------|--------|--------|--------|


E|--------|--------|--------|--------|--------|--------|--------|--------|--------|
B|--------|--------|--------|--------|--------|--------|--------|--------|--------|
G|--------|--------|--------|--------|--------|--------|--------|--------|--------|
D|--------|--------|--------|--------|--------|--------|--------|--------|--------|
A|--------|--------|--------|--------|--------|--------|--------|--------|--------|
E|--------|--------|--------|--------|--------|--------|--------|--------|--------|


E|--------|--------|--------|--------|--------|--------|--------|--------|--------|
B|--------|--------|--------|--------|--------|--------|--------|--------|--------|
G|--------|--------|--------|--------|--------|--------|--------|--------|--------|
D|--------|--------|--------|--------|--------|--------|--------|--------|--------|
A|--------|--------|--------|--------|--------|--------|--------|--------|--------|
E|--------|--------|--------|--------|--------|--------|--------|--------|--------|


E|--------|--------|--------|--------|--------|--------|--------|
B|--------|--------|--------|--------|--------|--------|--------|
G|--------|--------|--------|--------|--------|--------|--------|
D|--------|--------|--------|--------|--------|--------|--------|
A|--------|--------|--------|--------|--------|--------|--------|
E|--------|--------|--------|--------|--------|--------|--------|





Track 4: Solo II

E|--------|--------|--------|--------|--------|--------|--------|--------|--------|
B|--------|--------|--------|--------|--------|--------|--------|--------|--------|
G|--------|--------|--------|--------|--------|--------|--------|--------|--------|
D|--------|--------|--------|--------|--------|--------|--------|--------|--------|
A|--------|--------|--------|--------|--------|--------|--------|--------|--------|
E|--------|--------|--------|--------|--------|--------|--------|--------|--------|


E|--------|--------|--------|--------|--------|--------|--------|--------|--------|
B|--------|--------|--------|--------|--------|--------|--------|--------|--------|
G|--------|--------|--------|--------|--------|--------|--------|--------|--------|
D|--------|--------|--------|--------|--------|--------|--------|--------|--------|
A|--------|--------|--------|--------|--------|--------|--------|--------|--------|
E|--------|--------|--------|--------|--------|--------|--------|--------|--------|


E|--------|--------|--------|--------|--------|--------|--------|--------|--------|
B|--------|--------|--------|--------|--------|--------|--------|--------|--------|
G|--------|--------|--------|--------|--------|--------|--------|--------|--------|
D|--------|--------|--------|--------|--------|--------|--------|--------|--------|
A|--------|--------|--------|--------|--------|--------|--------|--------|--------|
E|--------|--------|--------|--------|--------|--------|--------|--------|--------|


E|--------|--------|--------|--------|--------|--------|--------|--------|--------|
B|--------|--------|--------|--------|--------|--------|--------|--------|--------|
G|--------|--------|--------|--------|--------|--------|--------|--------|--------|
D|--------|--------|--------|--------|--------|--------|--------|--------|--------|
A|--------|--------|--------|--------|--------|--------|--------|--------|--------|
E|--------|--------|--------|--------|--------|--------|--------|--------|--------|


E|--------|--------|--------|--------|--------|--------|--------|--------|--------|
B|--------|--------|--------|--------|--------|--------|--------|--------|--------|
G|--------|--------|--------|--------|--------|--------|--------|--------|--------|
D|--------|--------|--------|--------|--------|--------|--------|--------|--------|
A|--------|--------|--------|--------|--------|--------|--------|--------|--------|
E|--------|--------|--------|--------|--------|--------|--------|--------|--------|


E|--------|--------|--------|--------|--------|--------|--------|--------|--------|
B|--------|--------|--------|--------|--------|--------|--------|--------|--------|
G|--------|--------|--------|--------|--------|--------|--------|--------|--------|
D|--------|--------|--------|--------|--------|--------|--------|--------|--------|
A|--------|--------|--------|--------|--------|--------|--------|--------|--------|
E|--------|--------|--------|--------|--------|--------|--------|--------|--------|


E|--------|--------|--------|--------|--------|--------|--------|--------|--------|
B|--------|--------|--------|--------|--------|--------|--------|--------|--------|
G|--------|--------|--------|--------|--------|--------|--------|--------|--------|
D|--------|--------|--------|--------|--------|--------|--------|--------|--------|
A|--------|--------|--------|--------|--------|--------|--------|--------|--------|
E|--------|--------|--------|--------|--------|--------|--------|--------|--------|


E|--------|--------|--------|--------|--------|--------|--------|--------|--------|
B|--------|--------|--------|--------|--------|--------|--------|--------|--------|
G|--------|--------|--------|--------|--------|--------|--------|--------|--------|
D|--------|--------|--------|--------|--------|--------|--------|--------|--------|
A|--------|--------|--------|--------|--------|--------|--------|--------|--------|
E|--------|--------|--------|--------|--------|--------|--------|--------|--------|


E|--------|--------|--------|--------|--------|--------|--------|--------|--------|
B|--------|--------|--------|--------|--------|--------|--------|--------|--------|
G|--------|--------|--------|--------|--------|--------|--------|--------|--------|
D|--------|--------|--------|--------|--------|--------|--------|--------|--------|
A|--------|--------|--------|--------|--------|--------|--------|--------|--------|
E|--------|--------|--------|--------|--------|--------|--------|--------|--------|


E|--------|--------|--------|--------|--------|--------|--------|--------|--------|
B|--------|--------|--------|--------|--------|--------|--------|--------|--------|
G|--------|--------|--------|--------|--------|--------|--------|--------|--------|
D|--------|--------|--------|--------|--------|--------|--------|--------|--------|
A|--------|--------|--------|--------|--------|--------|--------|--------|--------|
E|--------|--------|--------|--------|--------|--------|--------|--------|--------|


E|--------|--------|--------|--------|--------|-------15-15-15-15-15------|--------|
B|--------|--------|--------|--------|--------|-15------------------------|--------|
G|--------|--------|--------|--------|--------|-15------------------------|--------|
D|--------|--------|--------|--------|--------|---------------------------|--------|
A|--------|--------|--------|--------|--------|---------------------------|--------|
E|--------|--------|--------|--------|--------|---------------------------|--------|


E|-------15-15-15-15-15------|--------|-------15-15-15-15-15------|---------------------------|
B|-15------------------------|--------|-15------------------------|---------------------------|
G|-15------------------------|--------|-15------------------------|-----------------------8---|
D|---------------------------|--------|---------------------------|-------11--11--12--12------|
A|---------------------------|--------|---------------------------|---------------------------|
E|---------------------------|--------|---------------------------|---------------------------|


E|---------------------------------|-------------10--10--11--12------|-12----------|
B|---------------------11--11--13--|-13--14--14----------------------|-------------|
G|-8---10--10--12--12--------------|-------------7---7---8---9-------|-------------|
D|---------------------8---8---10--|-10--11--11----------------------|-------------|
A|-------------10--10--------------|---------------------------------|-------------|
E|---------------------------------|---------------------------------|-------------|


E|--------|--------|--------|--------|--------|--------|--------|--------|--------|
B|--------|--------|--------|--------|--------|--------|--------|--------|--------|
G|--------|--------|--------|--------|--------|--------|--------|--------|--------|
D|--------|--------|--------|--------|--------|--------|--------|--------|--------|
A|--------|--------|--------|--------|--------|--------|--------|--------|--------|
E|--------|--------|--------|--------|--------|--------|--------|--------|--------|


E|--------|--------|--------|--------|--------|--------|--------|--------|--------|
B|--------|--------|--------|--------|--------|--------|--------|--------|--------|
G|--------|--------|--------|--------|--------|--------|--------|--------|--------|
D|--------|--------|--------|--------|--------|--------|--------|--------|--------|
A|--------|--------|--------|--------|--------|--------|--------|--------|--------|
E|--------|--------|--------|--------|--------|--------|--------|--------|--------|


E|--------|--------|--------|--------|--------|--------|--------|--------|--------|
B|--------|--------|--------|--------|--------|--------|--------|--------|--------|
G|--------|--------|--------|--------|--------|--------|--------|--------|--------|
D|--------|--------|--------|--------|--------|--------|--------|--------|--------|
A|--------|--------|--------|--------|--------|--------|--------|--------|--------|
E|--------|--------|--------|--------|--------|--------|--------|--------|--------|


E|--------|--------|--------|--------|--------|--------|--------|--------|--------|
B|--------|--------|--------|--------|--------|--------|--------|--------|--------|
G|--------|--------|--------|--------|--------|--------|--------|--------|--------|
D|--------|--------|--------|--------|--------|--------|--------|--------|--------|
A|--------|--------|--------|--------|--------|--------|--------|--------|--------|
E|--------|--------|--------|--------|--------|--------|--------|--------|--------|


E|--------|--------|--------|--------|--------|
B|--------|--------|--------|--------|--------|
G|--------|--------|--------|--------|--------|
D|--------|--------|--------|--------|--------|
A|--------|--------|--------|--------|--------|
E|--------|--------|--------|--------|--------|





Track 5: Solo III

E|--------|--------|--------|--------|--------|--------|--------|--------|--------|
B|--------|--------|--------|--------|--------|--------|--------|--------|--------|
G|--------|--------|--------|--------|--------|--------|--------|--------|--------|
D|--------|--------|--------|--------|--------|--------|--------|--------|--------|
A|--------|--------|--------|--------|--------|--------|--------|--------|--------|
E|--------|--------|--------|--------|--------|--------|--------|--------|--------|


E|--------|--------|--------|--------|--------|--------|--------|--------|--------|
B|--------|--------|--------|--------|--------|--------|--------|--------|--------|
G|--------|--------|--------|--------|--------|--------|--------|--------|--------|
D|--------|--------|--------|--------|--------|--------|--------|--------|--------|
A|--------|--------|--------|--------|--------|--------|--------|--------|--------|
E|--------|--------|--------|--------|--------|--------|--------|--------|--------|


E|--------|--------|--------|--------|--------|--------|--------|--------|--------|
B|--------|--------|--------|--------|--------|--------|--------|--------|--------|
G|--------|--------|--------|--------|--------|--------|--------|--------|--------|
D|--------|--------|--------|--------|--------|--------|--------|--------|--------|
A|--------|--------|--------|--------|--------|--------|--------|--------|--------|
E|--------|--------|--------|--------|--------|--------|--------|--------|--------|


E|--------|--------|--------|--------|--------|--------|--------|--------|--------|
B|--------|--------|--------|--------|--------|--------|--------|--------|--------|
G|--------|--------|--------|--------|--------|--------|--------|--------|--------|
D|--------|--------|--------|--------|--------|--------|--------|--------|--------|
A|--------|--------|--------|--------|--------|--------|--------|--------|--------|
E|--------|--------|--------|--------|--------|--------|--------|--------|--------|


E|--------|--------|--------|--------|--------|--------|--------|--------|--------|
B|--------|--------|--------|--------|--------|--------|--------|--------|--------|
G|--------|--------|--------|--------|--------|--------|--------|--------|--------|
D|--------|--------|--------|--------|--------|--------|--------|--------|--------|
A|--------|--------|--------|--------|--------|--------|--------|--------|--------|
E|--------|--------|--------|--------|--------|--------|--------|--------|--------|


E|--------|--------|--------|--------|--------|--------|--------|--------|--------|
B|--------|--------|--------|--------|--------|--------|--------|--------|--------|
G|--------|--------|--------|--------|--------|--------|--------|--------|--------|
D|--------|--------|--------|--------|--------|--------|--------|--------|--------|
A|--------|--------|--------|--------|--------|--------|--------|--------|--------|
E|--------|--------|--------|--------|--------|--------|--------|--------|--------|


E|--------|--------|--------|--------|--------|--------|--------|--------|--------|
B|--------|--------|--------|--------|--------|--------|--------|--------|--------|
G|--------|--------|--------|--------|--------|--------|--------|--------|--------|
D|--------|--------|--------|--------|--------|--------|--------|--------|--------|
A|--------|--------|--------|--------|--------|--------|--------|--------|--------|
E|--------|--------|--------|--------|--------|--------|--------|--------|--------|


E|--------|--------|--------|--------|--------|--------|--------|--------|--------|
B|--------|--------|--------|--------|--------|--------|--------|--------|--------|
G|--------|--------|--------|--------|--------|--------|--------|--------|--------|
D|--------|--------|--------|--------|--------|--------|--------|--------|--------|
A|--------|--------|--------|--------|--------|--------|--------|--------|--------|
E|--------|--------|--------|--------|--------|--------|--------|--------|--------|


E|--------|--------|--------|--------|--------|--------|--------|--------|--------|
B|--------|--------|--------|--------|--------|--------|--------|--------|--------|
G|--------|--------|--------|--------|--------|--------|--------|--------|--------|
D|--------|--------|--------|--------|--------|--------|--------|--------|--------|
A|--------|--------|--------|--------|--------|--------|--------|--------|--------|
E|--------|--------|--------|--------|--------|--------|--------|--------|--------|


E|--------|--------|--------|--------|--------|--------|--------|--------|--------|
B|--------|--------|--------|--------|--------|--------|--------|--------|--------|
G|--------|--------|--------|--------|--------|--------|--------|--------|--------|
D|--------|--------|--------|--------|--------|--------|--------|--------|--------|
A|--------|--------|--------|--------|--------|--------|--------|--------|--------|
E|--------|--------|--------|--------|--------|--------|--------|--------|--------|


E|--------|--------|--------|--------|--------|--------------------|---------------------------|
B|--------|--------|--------|--------|--------|--------------------|---------------------------|
G|--------|--------|--------|--------|--------|----------------2---|-----3-------6---6----6----|
D|--------|--------|--------|--------|--------|-12-----------------|---------------------------|
A|--------|--------|--------|--------|--------|--------------------|---------------------------|
E|--------|--------|--------|--------|--------|--------------------|---------------------------|


E|-----------------------|---------------------------|-----------------------|---------------------------------|
B|-------------------2---|-----3-------5---5----5----|-5---------------------|---------------------------------|
G|-6-----------------2---|-----3-------6---6----6----|-6---------------------|-----------------------------8---|
D|-----------------------|---------------------------|-------------------8---|-8---10--10--11--11--12--12------|
A|-----------------------|---------------------------|-----------------------|---------------------------------|
E|-----------------------|---------------------------|-----------------------|---------------------------------|


E|---------------------------------|-------------10--10---11---12--|--------|--------|
B|---------------------11--11--13--|-13--14--14--------------------|--------|--------|
G|-8---10--10--12--12--------------|-------------------------------|--------|--------|
D|---------------------------------|-------------------------------|--------|--------|
A|---------------------------------|-------------------------------|--------|--------|
E|---------------------------------|-------------------------------|--------|--------|


E|--------|--------|--------|--------|--------|--------|--------|--------|--------|
B|--------|--------|--------|--------|--------|--------|--------|--------|--------|
G|--------|--------|--------|--------|--------|--------|--------|--------|--------|
D|--------|--------|--------|--------|--------|--------|--------|--------|--------|
A|--------|--------|--------|--------|--------|--------|--------|--------|--------|
E|--------|--------|--------|--------|--------|--------|--------|--------|--------|


E|--------|--------|--------|--------|--------|--------|--------|--------|--------|
B|--------|--------|--------|--------|--------|--------|--------|--------|--------|
G|--------|--------|--------|--------|--------|--------|--------|--------|--------|
D|--------|--------|--------|--------|--------|--------|--------|--------|--------|
A|--------|--------|--------|--------|--------|--------|--------|--------|--------|
E|--------|--------|--------|--------|--------|--------|--------|--------|--------|


E|--------|--------|--------|--------|--------|--------|--------|--------|--------|
B|--------|--------|--------|--------|--------|--------|--------|--------|--------|
G|--------|--------|--------|--------|--------|--------|--------|--------|--------|
D|--------|--------|--------|--------|--------|--------|--------|--------|--------|
A|--------|--------|--------|--------|--------|--------|--------|--------|--------|
E|--------|--------|--------|--------|--------|--------|--------|--------|--------|


E|--------|--------|--------|--------|--------|--------|--------|--------|--------|
B|--------|--------|--------|--------|--------|--------|--------|--------|--------|
G|--------|--------|--------|--------|--------|--------|--------|--------|--------|
D|--------|--------|--------|--------|--------|--------|--------|--------|--------|
A|--------|--------|--------|--------|--------|--------|--------|--------|--------|
E|--------|--------|--------|--------|--------|--------|--------|--------|--------|


E|--------|--------|--------|--------|
B|--------|--------|--------|--------|
G|--------|--------|--------|--------|
D|--------|--------|--------|--------|
A|--------|--------|--------|--------|
E|--------|--------|--------|--------|





Track 6: Bass

G|------------------------------|----------------|------------------------------|----------------|
D|------------------------------|----------------|------------------------------|----------------|
A|------------------------------|----------------|------------------------------|----------------|
E|-0---0-------0--------0---0---|-----0----------|-0---0-------0--------1---1---|-----1----------|


G|------------------------------|----------------|------------------------------|----------------|
D|------------------------------|----------------|------------------------------|----------------|
A|------------------------------|----------------|------------------------------|----------------|
E|-0---0-------0--------0---0---|-----0----------|-0---0-------0--------1---1---|-----1----------|


G|---------------------------------|---------------------------------|-----------------------------------|
D|---------------------------------|---------------------------------|-----------------------------------|
A|---------------------------------|---------------------------------|-------------2--3--2---------------|
E|-0---3---0---5---0---0---0---5---|-0---7---0---0---0---7---0---8---|-0---0---0-------------5---3---0---|


G|------------------|---------------------------------|---------------------------------|
D|------------------|---------------------------------|---------------------------------|
A|-3-----------3----|---------------------------------|---------------------------------|
E|-------3----------|-0---3---0---5---0---0---0---5---|-0---7---0---0---0---7---0---8---|


G|-----------------------------------|------------------|---------------------------------|
D|-----------------------------------|------------------|---------------------------------|
A|-------------2--3--2---------------|-3-----------3----|---------------------------------|
E|-0---0---0-------------5---3---0---|-------3----------|-0---3---0---5---0---0---0---5---|


G|---------------------------------|-----------------------------------|------------------|
D|---------------------------------|-----------------------------------|------------------|
A|---------------------------------|-------------2--3--2---------------|-3-----------3----|
E|-0---7---0---0---0---7---0---8---|-0---0---0-------------5---3---0---|-------3----------|


G|---------------------------------|---------------------------------|-----------------------------------|
D|---------------------------------|---------------------------------|-----------------------------------|
A|---------------------------------|---------------------------------|-------------2--3--2---------------|
E|-0---3---0---5---0---0---0---5---|-0---7---0---0---0---7---0---8---|-0---0---0-------------5---3---0---|


G|------------------|------------------------|------------------------------|----------------|
D|------------------|------------------------|------------------------------|----------------|
A|-3-----------3----|-3------------3---------|------------------------------|----------------|
E|-------3----------|-----3---3---------3----|-1---1-------1--------1---1---|-----1----------|


G|------------------------------|----------------|--------|--------|--------|--------|
D|------------------------------|----------------|--------|--------|--------|--------|
A|------------------------------|----------------|--------|--------|--------|--------|
E|-1---1-------1--------1---1---|-----1----------|--------|--------|--------|--------|


G|--------|--------|--------|--------|--------|--------|--------|--------|--------|
D|--------|--------|--------|--------|--------|--------|--------|--------|--------|
A|--------|--------|--------|--------|--------|--------|--------|--------|--------|
E|--------|--------|--------|--------|--------|--------|--------|--------|--------|


G|--------|--------|--------|--------|-------------|--------|--------|--------|-------------|
D|--------|--------|--------|--------|-------------|--------|--------|--------|-------------|
A|--------|--------|--------|--------|-------------|--------|--------|--------|-------------|
E|--------|--------|--------|-0------|-0------0----|-0------|-0------|-0------|-0------0----|


G|--------|--------|------------------------------|----------------|------------------------------|
D|--------|--------|------------------------------|----------------|------------------------------|
A|-3------|-2------|------------------------------|----------------|------------------------------|
E|--------|--------|-1---1-------1--------1---1---|-----1----------|-1---1-------1--------1---1---|


G|----------------|---------------------------------|---------------------------------|
D|----------------|---------------------------------|---------------------------------|
A|----------------|---------------------------------|---------------------------------|
E|-----1----------|-0---3---0---5---0---0---0---5---|-0---7---0---0---0---7---0---8---|


G|-----------------------------------|------------------|---------------------------------|
D|-----------------------------------|------------------|---------------------------------|
A|-------------2--3--2---------------|-3-----------3----|---------------------------------|
E|-0---0---0-------------5---3---0---|-------3----------|-0---3---0---5---0---0---0---5---|


G|---------------------------------|-----------------------------------|------------------|
D|---------------------------------|-----------------------------------|------------------|
A|---------------------------------|-------------2--3--2---------------|-3-----------3----|
E|-0---7---0---0---0---7---0---8---|-0---0---0-------------5---3---0---|-------3----------|


G|---------------------------------|---------------------------------|-----------------------------------|
D|---------------------------------|---------------------------------|-----------------------------------|
A|---------------------------------|---------------------------------|-------------2--3--2---------------|
E|-0---3---0---5---0---0---0---5---|-0---7---0---0---0---7---0---8---|-0---0---0-------------5---3---0---|


G|------------------|---------------------------------|---------------------------------|
D|------------------|---------------------------------|---------------------------------|
A|-3-----------3----|---------------------------------|---------------------------------|
E|-------3----------|-0---3---0---5---0---0---0---5---|-0---7---0---0---0---7---0---8---|


G|-----------------------------------|------------------|------------------------|
D|-----------------------------------|------------------|------------------------|
A|-------------2--3--2---------------|-3-----------3----|-3------------3---------|
E|-0---0---0-------------5---3---0---|-------3----------|-----3---3---------3----|


G|------------------------------|----------------|------------------------------|----------------|
D|------------------------------|----------------|------------------------------|----------------|
A|------------------------------|----------------|------------------------------|----------------|
E|-1---1-------1--------1---1---|-----1----------|-1---1-------1--------1---1---|-----1----------|


G|---------------------------------|---------------------------------|---------------------------------|
D|---------------------------------|---------------------------------|---------------------------------|
A|---------------------------------|---------------------------------|---------------------------------|
E|-0---0---0---0---0---0---0---0---|-0---0---0---0---0---0---0---0---|-0---0---0---0---0---0---0---0---|


G|---------------------------------|---------------------------------|---------------------------------|
D|---------------------------------|---------------------------------|---------------------------------|
A|---------------------------------|---------------------------------|---------------------------------|
E|-0---0---0---0---0---0---0---0---|-0---0---0---0---0---0---0---0---|-0---0---0---0---0---0---0---0---|


G|---------------------------------|---------------------------------|---------------------------------|
D|---------------------------------|---------------------------------|---------------------------------|
A|-3---3---3---3---3---3---3---3---|-2---2---2---2---2---2---2---2---|---------------------------------|
E|---------------------------------|---------------------------------|-0---0---0---0---0---0---0---0---|


G|---------------------------------|---------------------------------|---------------------------------|
D|---------------------------------|---------------------------------|---------------------------------|
A|---------------------------------|---------------------------------|---------------------------------|
E|-0---0---0---0---0---0---0---0---|-0---0---0---0---0---0---0---0---|-0---0---0---0---0---0---0---0---|


G|---------------------------------|---------------------------------|---------------------------------|
D|---------------------------------|---------------------------------|---------------------------------|
A|---------------------------------|---------------------------------|-3---3---3---3---3---3---3---3---|
E|-0---0---0---0---0---0---0---0---|-0---0---0---0---0---0---0---0---|---------------------------------|


G|---------------------|---------------------|---------------------------------|---------------------------------|
D|---------------------|---------------------|---------------------------------|---------------------------------|
A|-2----2----2----2----|-2----2----2----0----|---------------------------------|---------------------------------|
E|---------------------|---------------------|-3---3---3---3---3---3---3---3---|-3---3---3---3---3---3---3---3---|


G|---------------------------------|---------------------------------|---------------------------------|
D|---------------------------------|---------------------------------|---------------------------------|
A|---------------------------------|---------------------------------|---------------------------------|
E|-3---3---3---3---3---3---3---3---|-3---3---3---3---3---3---3---3---|-3---3---3---3---3---3---3---3---|


G|---------------------------------|---------------------------------|---------------------------------|
D|---------------------------------|---------------------------------|---------------------------------|
A|---------------------------------|-6---6---6---6---6---6---6---6---|-5---5---5---5---5---5---5---5---|
E|-3---3---3---3---3---3---3---3---|---------------------------------|---------------------------------|


G|---------------------------------|---------------------------------|---------------------------------|
D|---------------------------------|---------------------------------|---------------------------------|
A|-1---1---1---1---1---1---1---1---|-1---1---1---1---1---1---1---1---|-1---1---1---1---1---1---1---1---|
E|---------------------------------|---------------------------------|---------------------------------|


G|---------------------------------|---------------------------------|---------------------------------|
D|---------------------------------|---------------------------------|---------------------------------|
A|-1---1---1---1---1---1---1---1---|-1---1---1---1---1---1---1---1---|-1---1---1---1---1---1---1---1---|
E|---------------------------------|---------------------------------|---------------------------------|


G|---------------------------------|------------------------------|----------------|
D|---------------------------------|------------------------------|----------------|
A|---------------------------------|------------------------------|----------------|
E|-2---2---2---2---2---2---2---2---|-1---1-------1--------1---1---|-----1----------|


G|------------------------------|----------------|------------------------------|----------------|
D|------------------------------|----------------|------------------------------|----------------|
A|------------------------------|----------------|------------------------------|----------------|
E|-1---1-------1--------1---1---|-----1----------|-1---1-------1--------1---1---|-----1----------|


G|------------------------------|----------------|------------------------------|----------------|
D|------------------------------|----------------|------------------------------|----------------|
A|------------------------------|----------------|------------------------------|----------------|
E|-1---1-------1--------1---1---|-----1----------|-1---1-------1--------1---1---|-----1----------|


G|------------------------------|----------------|------------------------------|----------------|
D|------------------------------|----------------|------------------------------|----------------|
A|------------------------------|----------------|------------------------------|----------------|
E|-1---1-------1--------1---1---|-----1----------|-1---1-------1--------1---1---|-----1----------|


G|------------------------------|----------------|------------------------------|----------------|
D|------------------------------|----------------|------------------------------|----------------|
A|------------------------------|----------------|------------------------------|----------------|
E|-1---1-------1--------1---1---|-----1----------|-1---1-------1--------1---1---|-----1----------|


G|------------------------------|----------------|------------------------------|----------------|
D|------------------------------|----------------|------------------------------|----------------|
A|------------------------------|----------------|------------------------------|----------------|
E|-1---1-------1--------0---0---|-----0----------|-1---1-------1--------1---1---|-----1----------|


G|------------------------------|----------------|---------------------------------|
D|------------------------------|----------------|---------------------------------|
A|------------------------------|----------------|---------------------------------|
E|-1---1-------1--------0---0---|-----0----------|-0---3---0---5---0---0---0---5---|


G|---------------------------------|-----------------------------------|---------------------------------|
D|---------------------------------|-----------------------------------|---------------------------------|
A|---------------------------------|-------------2--3--2---------------|---------------------------------|
E|-0---7---0---0---0---7---0---8---|-0---0---0-------------5---3---0---|-0---3---0---5---0---0---0---5---|


G|---------------------------------|-----------------------------------|---------------------------------|
D|---------------------------------|-----------------------------------|---------------------------------|
A|---------------------------------|-------------2--3--2---------------|---------------------------------|
E|-0---7---0---0---0---7---0---8---|-0---0---0-------------5---3---0---|-0---3---0---5---0---0---0---5---|


G|---------------------------------|-----------------------------------|---------------------------------|
D|---------------------------------|-----------------------------------|---------------------------------|
A|---------------------------------|-------------2--3--2---------------|---------------------------------|
E|-0---7---0---0---0---7---0---8---|-0---0---0-------------5---3---0---|-0---3---0---5---0---0---0---5---|


G|---------------------------------|
D|---------------------------------|
A|---------------------------------|
E|-0---7---0---0---0---7---0---8---|