Menu:

 

Search:

 

megadeth - disconnect:

 



Title: Disconnect
Artist: 
Album: The World Needs a Hero
Author: Dave Mustaine


Track 1: Rhythm 1

E|---------------------------------|---------------------------------|---------------------------------|
B|---------------------------------|---------------------------------|---------------------------------|
G|---------------------------------|---------------------------------|---------------------------------|
D|---------5-----------4-----------|-----2-------------------4---5---|---------5-----------4-----------|
A|-----7---7-------5---5-------3---|-3---3---------------6-----------|-----7---7-------5---5-------3---|
E|-0-----------0-----------0-------|---------0---7---7---------------|-0-----------0-----------0-------|


E|---------------------------------|---------------------------------|---------------------------------|
B|---------------------------------|---------------------------------|---------------------------------|
G|---------------------------------|---------------------------------|---------------------------------|
D|-----2-------------------4---5---|---------5-----------4-----------|-----2---------------------------|
A|-3---3---------------6-----------|-----7---7-------5---5-------3---|-3---3---------------------------|
E|---------0---7---7---------------|-0-----------0-----------0-------|---------0---7---7---6---5---3---|


E|---------------------------------|---------------------------------|---------------------------------|
B|---------------------------------|---------------------------------|---------------------------------|
G|---------------------------------|---------------------------------|---------------------------------|
D|---------------------------------|---------------------------------|---------------------------------|
A|---------9---5---7-----------9---|-5---7-------------------10--9---|---------9---5---7-----------9---|
E|-0---0---------------0---0-------|---------0---0---7---8-----------|-0---0---------------0---0-------|


E|---------------------------------|---------------------------------|---------------------------------|
B|---------------------------------|---------------------------------|---------------------------------|
G|---------------------------------|---------------------------------|---------------------------------|
D|---------------------------------|---------------------------------|---------------------------------|
A|-5---7-------------------10--9---|---------9---5---7-----------9---|-5---7-------------------10--9---|
E|---------0---0---7---8-----------|-0---0---------------0---0-------|---------0---0---7---8-----------|


E|---------------------------------|--------------------------------|---------------------------------|
B|---------------------------------|--------------------------------|---------------------------------|
G|---------------------------------|--------------------------------|---------------------------------|
D|---------------------------------|--------------------------------|---------------------------------|
A|---------9---5---7-----------9---|-5---7---------------------10---|---------9---5---7-----------9---|
E|-0---0---------------0---0-------|---------0---0---7----8---------|-0---0---------------0---0-------|


E|---------------------------------|---------------------------------|---------------------------------|
B|---------------------------------|---------------------------------|---------------------------------|
G|---------------------------------|---------------------------------|---------------------------------|
D|---------------------------------|---------------------------------|---------------------------------|
A|-5---7-------------------10--9---|---------9---5---7-----------9---|-5---7-------------------10--9---|
E|---------0---0---7---8-----------|-0---0---------------0---0-------|---------0---0---7---8-----------|


E|---------------------------------|---------------------------------|---------------------------------|
B|---------------------------------|---------------------------------|---------------------------------|
G|---------------------------------|---------------------------------|---------------------------------|
D|---------------------------------|---------------------------------|---------------------------------|
A|---------9---5---7-----------9---|-5---7-------------------10--9---|---------9---5---7-----------9---|
E|-0---0---------------0---0-------|---------0---0---7---8-----------|-0---0---------------0---0-------|


E|---------------------------------|---------------------------------|---------------------------------|
B|---------------------------------|---------------------------------|---------------------------------|
G|---------------------------------|---------------------------------|---------------------------------|
D|---------------------------------|---------------------------------|---------------------------------|
A|-5---7----------------------10---|---------9---5---7-----------9---|-5---7-------------------10--9---|
E|---------0---0---7---8---8-------|-0---0---------------0---0-------|---------0---0---7---8-----------|


E|---------------------------------|---------------------------------|---------------------------------|
B|---------------------------------|---------------------------------|---------------------------------|
G|---------------------------------|---------------------------------|---------------------------------|
D|---------------------------------|---------------------------------|---------------------------------|
A|---------9---5---7-----------9---|-5---7-------------------10--9---|---------9---5---7-----------9---|
E|-0---0---------------0---0-------|---------0---0---7---8-----------|-0---0---------------0---0-------|


E|---------------------------------|---------------------------------|---------------------------------|
B|---------------------------------|---------------------------------|---------------------------------|
G|---------------------------------|---------------------------------|---------------------------------|
D|---------------------------------|---------------------------------|---------------------------------|
A|-5---7-------------------10--9---|---------9---5---7-----------9---|-5---7----------------------10---|
E|---------0---0---7---8-----------|-0---0---------------0---0-------|---------0---0---7---8---8-------|


E|---------------------------------|---------------------------------|---------------------------------|
B|---------------------------------|---------------------------------|---------------------------------|
G|---------------------------------|---------------------------------|---------------------------------|
D|---------------------------------|---------------------------------|---------------------------------|
A|-0---0---3---0---0---5---0---0---|-3---0---0---5---0---6---0---0---|-0---0---3---0---0---5---0---0---|
E|---------------------------------|---------------------------------|---------------------------------|


E|---------------------------------|---------------------------------|---------------------------------|
B|---------------------------------|---------------------------------|---------------------------------|
G|---------------------------------|---------------------------------|---------------------------------|
D|-----------------------------2---|---------5-----------4-----------|-----2-------------------4---5---|
A|-3---0---0---6---0---5---0---2---|-----7---7-------5---5-------3---|-3---3---------------6-----------|
E|-----------------------------0---|-0-----------0-----------0-------|---------0---7---7---------------|


E|---------------------------------|---------------------------------|---------------------------------|
B|---------------------------------|---------------------------------|---------------------------------|
G|---------------------------------|---------------------------------|---------------------------------|
D|---------5-----------4-----------|-----2-------------------4---5---|---------5-----------4-----------|
A|-----7---7-------5---5-------3---|-3---3---------------6-----------|-----7---7-------5---5-------3---|
E|-0-----------0-----------0-------|---------0---7---7---------------|-0-----------0-----------0-------|


E|---------------------------------|---------------------------------|--------------------------------|
B|---------------------------------|---------------------------------|--------------------------------|
G|---------------------------------|---------------------------------|--------------------------------|
D|-----2-------------------4---5---|---------5-----------4-----------|-----2--------------------------|
A|-3---3---------------6-----------|-----7---7-------5---5-------3---|-3---3-----------6----5----4----|
E|---------0---7---7---------------|-0-----------0-----------0-------|---------0---0---7----6----5----|


E|---------------------------------|---------------------------------|---------------------------------|
B|---------------------------------|---------------------------------|---------------------------------|
G|---------------------------------|---------------------------------|---------------------------------|
D|---------------------------------|---------------------------------|---------------------------------|
A|---------9---5---7-----------9---|-5---7-------------------10--9---|---------9---5---7-----------9---|
E|-0---0---------------0---0-------|---------0---0---7---8-----------|-0---0---------------0---0-------|


E|---------------------------------|---------------------------------|---------------------------------|
B|---------------------------------|---------------------------------|---------------------------------|
G|---------------------------------|---------------------------------|---------------------------------|
D|---------------------------------|---------------------------------|---------------------------------|
A|-5---7-------------------10--9---|---------9---5---7-----------9---|-5---7-------------------10--9---|
E|---------0---0---7---8-----------|-0---0---------------0---0-------|---------0---0---7---8-----------|


E|---------------------------------|---------------------------------|---------------------------------|
B|---------------------------------|---------------------------------|---------------------------------|
G|---------------------------------|---------------------------------|---------------------------------|
D|---------------------------------|---------------------------------|---------------------------------|
A|---------9---5---7-----------9---|-5---7-------------------10--9---|---------9---5---7-----------9---|
E|-0---0---------------0---0-------|---------0---0---7---8-----------|-0---0---------------0---0-------|


E|---------------------------------|---------------------------------|---------------------------------|
B|---------------------------------|---------------------------------|---------------------------------|
G|---------------------------------|---------------------------------|---------------------------------|
D|---------------------------------|---------------------------------|---------------------------------|
A|-5---7-------------------10--9---|---------9---5---7-----------9---|-5---7----------------------10---|
E|---------0---0---7---8-----------|-0---0---------------0---0-------|---------0---0---7---8---8-------|


E|---------------------------------|---------------------------------|---------------------------------|
B|---------------------------------|---------------------------------|---------------------------------|
G|---------------------------------|---------------------------------|---------------------------------|
D|---------------------------------|---------------------------------|---------------------------------|
A|---------9---5---7-----------9---|-5---7-------------------10--9---|---------9---5---7-----------9---|
E|-0---0---------------0---0-------|---------0---0---7---8-----------|-0---0---------------0---0-------|


E|---------------------------------|---------------------------------|---------------------------------|
B|---------------------------------|---------------------------------|---------------------------------|
G|---------------------------------|---------------------------------|---------------------------------|
D|---------------------------------|---------------------------------|---------------------------------|
A|-5---7-------------------10--9---|---------9---5---7-----------9---|-5---7-------------------10--9---|
E|---------0---0---7---8-----------|-0---0---------------0---0-------|---------0---0---7---8-----------|


E|---------------------------------|---------------------------------|---------------------------------|
B|---------------------------------|---------------------------------|---------------------------------|
G|---------------------------------|---------------------------------|---------------------------------|
D|---------------------------------|---------------------------------|---------------------------------|
A|---------9---5---7-----------9---|-5---7----------------------10---|-0---0---3---0---0---5---0---0---|
E|-0---0---------------0---0-------|---------0---0---7---8---8-------|---------------------------------|


E|---------------------------------|---------------------------------|---------------------------------|
B|---------------------------------|---------------------------------|---------------------------------|
G|---------------------------------|---------------------------------|---------------------------------|
D|---------------------------------|---------------------------------|-----------------------------2---|
A|-3---0---0---5---0---6---0---0---|-0---0---3---0---0---5---0---0---|-3---0---0---6---0---5---0---2---|
E|---------------------------------|---------------------------------|-----------------------------0---|


E|---------------------------------|---------------------------------|---------------------------------|
B|---------------------------------|---------------------------------|---------------------------------|
G|---------------------------------|---------------------------------|---------------------------------|
D|---------5-----------4-----------|-----2-------------------4---5---|---------5-----------4-----------|
A|-----7---7-------5---5-------3---|-3---3---------------6-----------|-----7---7-------5---5-------3---|
E|-0-----------0-----------0-------|---------0---7---7---------------|-0-----------0-----------0-------|


E|---------------------------------|---------------------------------|---------------------------------|
B|---------------------------------|---------------------------------|---------------------------------|
G|---------------------------------|---------------------------------|---------------------------------|
D|-----2-------------------4---5---|---------5-----------4-----------|-----2-------------------4---5---|
A|-3---3---------------6-----------|-----7---7-------5---5-------3---|-3---3---------------6-----------|
E|---------0---7---7---------------|-0-----------0-----------0-------|---------0---7---7---------------|


E|---------------------------------|--------------------------------|--------|--------|
B|---------------------------------|--------------------------------|--------|--------|
G|---------------------------------|--------------------------------|--------|--------|
D|---------5-----------4-----------|-----2--------------------------|-2------|-2------|
A|-----7---7-------5---5-------3---|-3---3-----------6----5----4----|-2------|-2------|
E|-0-----------0-----------0-------|---------0---0---7----6----5----|-0------|-0------|


E|--------|--------|--------|--------|--------|--------|--------|--------|--------|
B|--------|--------|--------|--------|--------|--------|--------|--------|--------|
G|--------|--------|--------|--------|--------|--------|--------|--------|--------|
D|-2------|-2------|-2------|-2------|-2------|-2------|-2------|-2------|-2------|
A|-2------|-2------|-2------|-2------|-2------|-2------|-2------|-2------|-2------|
E|-0------|-0------|-0------|-0------|-0------|-0------|-0------|-0------|-0------|


E|--------|--------|--------|--------|--------|--------|--------|--------|--------|
B|--------|--------|--------|--------|--------|--------|--------|--------|--------|
G|--------|--------|--------|--------|--------|--------|--------|--------|--------|
D|-2------|-2------|-2------|-2------|-2------|--------|--------|--------|--------|
A|-2------|-2------|-2------|-2------|-2------|--------|--------|--------|--------|
E|-0------|-0------|-0------|-0------|-0------|--------|--------|--------|--------|


E|--------|--------|--------|--------|--------|--------|--------|--------|--------|
B|--------|--------|--------|--------|--------|--------|--------|--------|--------|
G|--------|--------|--------|--------|--------|--------|--------|--------|--------|
D|--------|--------|--------|--------|--------|--------|--------|--------|--------|
A|--------|--------|--------|--------|--------|--------|--------|--------|--------|
E|--------|--------|--------|--------|--------|--------|--------|--------|--------|


E|--------|--------|--------|--------|--------|--------|--------|--------|--------|
B|--------|--------|--------|--------|--------|--------|--------|--------|--------|
G|--------|--------|--------|--------|--------|--------|--------|--------|--------|
D|--------|--------|--------|--------|--------|--------|--------|--------|--------|
A|--------|--------|--------|--------|--------|--------|--------|--------|--------|
E|--------|--------|--------|--------|--------|--------|--------|--------|--------|


E|--------|--------|--------|--------|--------|--------|--------|--------|--------|
B|--------|--------|--------|--------|--------|--------|--------|--------|--------|
G|--------|--------|--------|--------|--------|--------|--------|--------|--------|
D|--------|--------|--------|--------|--------|--------|--------|--------|--------|
A|--------|--------|--------|--------|--------|--------|--------|--------|--------|
E|--------|--------|--------|--------|--------|--------|--------|--------|--------|


E|--------|--------|--------|--------|--------|--------|--------|--------|--------|
B|--------|--------|--------|--------|--------|--------|--------|--------|--------|
G|--------|--------|--------|--------|--------|--------|--------|--------|--------|
D|--------|--------|--------|--------|--------|--------|--------|--------|--------|
A|--------|--------|--------|--------|--------|--------|--------|--------|--------|
E|--------|--------|--------|--------|--------|--------|--------|--------|--------|


E|--------|--------|--------|--------|--------|--------|--------|--------|---------------------------------|
B|--------|--------|--------|--------|--------|--------|--------|--------|---------------------------------|
G|--------|--------|--------|--------|--------|--------|--------|--------|---------------------------------|
D|--------|--------|--------|--------|--------|--------|--------|--------|---------------------------------|
A|--------|--------|--------|--------|--------|--------|--------|--------|---------9---5---7-----------9---|
E|--------|--------|--------|--------|--------|--------|--------|--------|-0---0---------------0---0-------|


E|---------------------------------|---------------------------------|---------------------------------|
B|---------------------------------|---------------------------------|---------------------------------|
G|---------------------------------|---------------------------------|---------------------------------|
D|---------------------------------|---------------------------------|---------------------------------|
A|-5---7-------------------10--9---|---------9---5---7-----------9---|-5---7-------------------10--9---|
E|---------0---0---7---8-----------|-0---0---------------0---0-------|---------0---0---7---8-----------|


E|---------------------------------|---------------------------------|---------------------------------|
B|---------------------------------|---------------------------------|---------------------------------|
G|---------------------------------|---------------------------------|---------------------------------|
D|---------------------------------|---------------------------------|---------------------------------|
A|---------9---5---7-----------9---|-5---7-------------------10--9---|---------9---5---7-----------9---|
E|-0---0---------------0---0-------|---------0---0---7---8-----------|-0---0---------------0---0-------|


E|--------------------------------|---------------------------------|---------------------------------|
B|--------------------------------|---------------------------------|---------------------------------|
G|--------------------------------|---------------------------------|---------------------------------|
D|--------------------------------|---------------------------------|---------------------------------|
A|-5---7---------------------10---|---------9---5---7-----------9---|-5---7-------------------10--9---|
E|---------0---0---7----8---------|-0---0---------------0---0-------|---------0---0---7---8-----------|


E|---------------------------------|---------------------------------|---------------------------------|
B|---------------------------------|---------------------------------|---------------------------------|
G|---------------------------------|---------------------------------|---------------------------------|
D|---------------------------------|---------------------------------|---------------------------------|
A|---------9---5---7-----------9---|-5---7-------------------10--9---|---------9---5---7-----------9---|
E|-0---0---------------0---0-------|---------0---0---7---8-----------|-0---0---------------0---0-------|


E|---------------------------------|---------------------------------|---------------------------------|
B|---------------------------------|---------------------------------|---------------------------------|
G|---------------------------------|---------------------------------|---------------------------------|
D|---------------------------------|---------------------------------|---------------------------------|
A|-5---7-------------------10--9---|---------9---5---7-----------9---|-5---7-------------------10--9---|
E|---------0---0---7---8-----------|-0---0---------------0---0-------|---------0---0---7---8-----------|


E|---------------------------------|---------------------------------|---------------------------------|
B|---------------------------------|---------------------------------|---------------------------------|
G|---------------------------------|---------------------------------|---------------------------------|
D|---------------------------------|---------------------------------|---------------------------------|
A|---------9---5---7-----------9---|-5---7-------------------10--9---|---------9---5---7-----------9---|
E|-0---0---------------0---0-------|---------0---0---7---8-----------|-0---0---------------0---0-------|


E|---------------------------------|---------------------------------|---------------------------------|
B|---------------------------------|---------------------------------|---------------------------------|
G|---------------------------------|---------------------------------|---------------------------------|
D|---------------------------------|---------------------------------|---------------------------------|
A|-5---7-------------------10--9---|---------9---5---7-----------9---|-5---7-------------------10--9---|
E|---------0---0---7---8-----------|-0---0---------------0---0-------|---------0---0---7---8-----------|


E|---------------------------------|--------------------------------|---------------------------------|
B|---------------------------------|--------------------------------|---------------------------------|
G|---------------------------------|--------------------------------|---------------------------------|
D|---------------------------------|--------------------------------|---------------------------------|
A|---------9---5---7-----------9---|-5---7---------------------10---|---------9---5---7-----------9---|
E|-0---0---------------0---0-------|---------0---0---7----8---------|-0---0---------------0---0-------|


E|--------------------------------|---------------------------------|--------------------------------|
B|--------------------------------|---------------------------------|--------------------------------|
G|--------------------------------|---------------------------------|--------------------------------|
D|--------------------------------|---------------------------------|--------------------------------|
A|-5---7---------------------10---|---------9---5---7-----------9---|-5---7---------------------10---|
E|---------0---0---7----8---------|-0---0---------------0---0-------|---------0---0---7----8---------|


E|---------------------------------|--------------------------------|---------------------------------|
B|---------------------------------|--------------------------------|---------------------------------|
G|---------------------------------|--------------------------------|---------------------------------|
D|---------------------------------|--------------------------------|---------------------------------|
A|---------9---5---7-----------9---|-5---7---------------------10---|---------9---5---7-----------9---|
E|-0---0---------------0---0-------|---------0---0---7----8---------|-0---0---------------0---0-------|


E|--------------------------------|-----------------|
B|--------------------------------|-----------------|
G|--------------------------------|-----------------|
D|--------------------------------|-2---------------|
A|-5---7---------------------10---|-2---------------|
E|---------0---0---7----8---------|-0---------------|





Track 2: Solo

E|--------|--------|--------|--------|--------|--------|--------|--------|--------|
B|--------|--------|--------|--------|--------|--------|--------|--------|--------|
G|--------|--------|--------|--------|--------|--------|--------|--------|--------|
D|--------|--------|--------|--------|--------|--------|--------|--------|--------|
A|--------|--------|--------|--------|--------|--------|--------|--------|--------|
E|--------|--------|--------|--------|--------|--------|--------|--------|--------|


E|--------|--------|--------|--------|--------|--------|--------|--------|--------|
B|--------|--------|--------|--------|--------|--------|--------|--------|--------|
G|--------|--------|--------|--------|--------|--------|--------|--------|--------|
D|--------|--------|--------|--------|--------|--------|--------|--------|--------|
A|--------|--------|--------|--------|--------|--------|--------|--------|--------|
E|--------|--------|--------|--------|--------|--------|--------|--------|--------|


E|--------|--------|--------|--------|--------|--------|--------|--------|--------|
B|--------|--------|--------|--------|--------|--------|--------|--------|--------|
G|--------|--------|--------|--------|--------|--------|--------|--------|--------|
D|--------|--------|--------|--------|--------|--------|--------|--------|--------|
A|--------|--------|--------|--------|--------|--------|--------|--------|--------|
E|--------|--------|--------|--------|--------|--------|--------|--------|--------|


E|--------|--------|--------|--------|--------|--------|--------|--------|--------|
B|--------|--------|--------|--------|--------|--------|--------|--------|--------|
G|--------|--------|--------|--------|--------|--------|--------|--------|--------|
D|--------|--------|--------|--------|--------|--------|--------|--------|--------|
A|--------|--------|--------|--------|--------|--------|--------|--------|--------|
E|--------|--------|--------|--------|--------|--------|--------|--------|--------|


E|--------|--------|--------|--------|--------|--------|--------|--------|--------|
B|--------|--------|--------|--------|--------|--------|--------|--------|--------|
G|--------|--------|--------|--------|--------|--------|--------|--------|--------|
D|--------|--------|--------|--------|--------|--------|--------|--------|--------|
A|--------|--------|--------|--------|--------|--------|--------|--------|--------|
E|--------|--------|--------|--------|--------|--------|--------|--------|--------|


E|--------|--------|--------|--------|--------|--------|--------|--------|--------|
B|--------|--------|--------|--------|--------|--------|--------|--------|--------|
G|--------|--------|--------|--------|--------|--------|--------|--------|--------|
D|--------|--------|--------|--------|--------|--------|--------|--------|--------|
A|--------|--------|--------|--------|--------|--------|--------|--------|--------|
E|--------|--------|--------|--------|--------|--------|--------|--------|--------|


E|--------|--------|--------|--------|--------|--------|--------|--------|--------|
B|--------|--------|--------|--------|--------|--------|--------|--------|--------|
G|--------|--------|--------|--------|--------|--------|--------|--------|--------|
D|--------|--------|--------|--------|--------|--------|--------|--------|--------|
A|--------|--------|--------|--------|--------|--------|--------|--------|--------|
E|--------|--------|--------|--------|--------|--------|--------|--------|--------|


E|--------|--------|--------|--------|--------|--------|--------|--------|--------|
B|--------|--------|--------|--------|--------|--------|--------|--------|--------|
G|--------|--------|--------|--------|--------|--------|--------|--------|--------|
D|--------|--------|--------|--------|--------|--------|--------|--------|--------|
A|--------|--------|--------|--------|--------|--------|--------|--------|--------|
E|--------|--------|--------|--------|--------|--------|--------|--------|--------|


E|--------|--------|--------|--------|--------|--------|--------|--------|--------|
B|--------|--------|--------|--------|--------|--------|--------|--------|--------|
G|--------|--------|--------|--------|--------|--------|--------|--------|--------|
D|--------|--------|--------|--------|--------|--------|--------|--------|--------|
A|--------|--------|--------|--------|--------|--------|--------|--------|--------|
E|--------|--------|--------|--------|--------|--------|--------|--------|--------|


E|--------|--------|--------|--------|--------|--------|--------|--------|--------|
B|--------|--------|--------|--------|--------|--------|--------|--------|--------|
G|--------|--------|--------|--------|--------|--------|--------|--------|--------|
D|--------|--------|--------|--------|--------|--------|--------|--------|--------|
A|--------|--------|--------|--------|--------|--------|--------|--------|--------|
E|--------|--------|--------|--------|--------|--------|--------|--------|--------|


E|--------|----------------|-----------------------|---------------------------------|
B|-12-----|--------12------|-14--12----------------|---------------------------------|
G|-12-----|--------12------|-14--12----------------|-7-------------------------------|
D|--------|-14---------14--|---------14----14--9---|-----9---10--7---9---------------|
A|--------|----------------|-----------------------|-------------------------10--8---|
E|--------|----------------|-----------------------|---------------------10----------|


E|-------------|--------|-------------------------------------------------|-----------------------------------------------|
B|-------------|--------|-------------------------------------------------|-----------------------------------------------|
G|-------------|--------|-------------------------------------------------|-----------------------------------------------|
D|-------------|--------|-5--7--5--7--5--7--5--7--5--7--5--7--5--7--5--7--|-5--7--5--7--5--7--5--7--5--7--5--7--5--7--5---|
A|-7-----7-----|--------|-------------------------------------------------|-----------------------------------------------|
E|-------------|-24-----|-------------------------------------------------|-----------------------------------------------|


E|-------------|----------------|--------------------|-------------12----------------------|
B|-------------|----------------|--------------------|---------12------15--12--------------|
G|-------------|----------------|--------------------|-----14------------------15-15-12----|
D|-14-----14---|-13-----11--13--|-14-------16--14----|-14-------------------------------14-|
A|-------------|-14-----12--14--|-15-------17--15----|-15----------------------------------|
E|-------------|----------------|--------------------|-------------------------------------|


E|--------------------------------|-------------|--------|--------|-15-12-0--15-12-0--15-12-0--15-12-0--15-12-0--15-12-0--15-12-0--15-12-0--|
B|--------------------------------|-------------|--------|--------|-------------------------------------------------------------------------|
G|-14-14-12---------------12--12--|-12-----12---|-12-----|-12-----|-------------------------------------------------------------------------|
D|-----------14--12--14-----------|-------------|--------|--------|-------------------------------------------------------------------------|
A|--------------------------------|-------------|--------|--------|-------------------------------------------------------------------------|
E|--------------------------------|-------------|--------|--------|-------------------------------------------------------------------------|


E|-14-10-0--14-10-0--14-10-0--14-10-0--14-10-0--14-10-0--14-10-0--14-10-0--|-12-8--0--12-8--0--12-8--0--12-8--0--12-8--0--12-8--0--12-8--0--12-8--0--|
B|-------------------------------------------------------------------------|-------------------------------------------------------------------------|
G|-------------------------------------------------------------------------|-------------------------------------------------------------------------|
D|-------------------------------------------------------------------------|-------------------------------------------------------------------------|
A|-------------------------------------------------------------------------|-------------------------------------------------------------------------|
E|-------------------------------------------------------------------------|-------------------------------------------------------------------------|


E|-11-7--0--11-7--0--11-7--0--11-7--0--11-7--0--11-7--0--11-7--0--11-7--0--|-15-12-0--15-12-0--15-12-0--15-12-0--15-12-0--15-12-0--15-12-0--15-12-0--|
B|-------------------------------------------------------------------------|-------------------------------------------------------------------------|
G|-------------------------------------------------------------------------|-------------------------------------------------------------------------|
D|-------------------------------------------------------------------------|-------------------------------------------------------------------------|
A|-------------------------------------------------------------------------|-------------------------------------------------------------------------|
E|-------------------------------------------------------------------------|-------------------------------------------------------------------------|


E|-19-15-0--19-15-0--19-15-0--19-15-0--19-15-0--19-15-0--19-15-0--19-15-0--|-20-15-0--20-15-0--20-15-0--20-15-0--20-15-0--20-15-0--20-15-0--20-15-0--|
B|-------------------------------------------------------------------------|-------------------------------------------------------------------------|
G|-------------------------------------------------------------------------|-------------------------------------------------------------------------|
D|-------------------------------------------------------------------------|-------------------------------------------------------------------------|
A|-------------------------------------------------------------------------|-------------------------------------------------------------------------|
E|-------------------------------------------------------------------------|-------------------------------------------------------------------------|


E|-19-14-0--19-14-0--19-14-0--19-14-0--19-14-0--19-14-0--19-14-0--19-14-0--|-15-12-0--15-12-0--15-12-0--15-12-0--15-12-0--15-12-0--15-12-0--15-12-0--|
B|-------------------------------------------------------------------------|-------------------------------------------------------------------------|
G|-------------------------------------------------------------------------|-------------------------------------------------------------------------|
D|-------------------------------------------------------------------------|-------------------------------------------------------------------------|
A|-------------------------------------------------------------------------|-------------------------------------------------------------------------|
E|-------------------------------------------------------------------------|-------------------------------------------------------------------------|


E|-14-10-0--14-10-0--14-10-0--14-10-0--14-10-0--14-10-0--14-10-0--14-10-0--|-12-8--0--12-8--0--12-8--0--12-8--0--12-8--0--12-8--0--12-8--0--12-8--0--|
B|-------------------------------------------------------------------------|-------------------------------------------------------------------------|
G|-------------------------------------------------------------------------|-------------------------------------------------------------------------|
D|-------------------------------------------------------------------------|-------------------------------------------------------------------------|
A|-------------------------------------------------------------------------|-------------------------------------------------------------------------|
E|-------------------------------------------------------------------------|-------------------------------------------------------------------------|


E|-11-7--0--11-7--0--11-7--0--11-7--0--11-7--0--11-7--0--11-7--0--11-7--0--|-15-12-0--15-12-0--15-12-0--15-12-0--15-12-0--15-12-0--15-12-0--15-12-0--|
B|-------------------------------------------------------------------------|-------------------------------------------------------------------------|
G|-------------------------------------------------------------------------|-------------------------------------------------------------------------|
D|-------------------------------------------------------------------------|-------------------------------------------------------------------------|
A|-------------------------------------------------------------------------|-------------------------------------------------------------------------|
E|-------------------------------------------------------------------------|-------------------------------------------------------------------------|


E|-19-15-0--19-15-0--19-15-0--19-15-0--19-15-0--19-15-0--19-15-0--19-15-0--|-20-15-0--20-15-0--20-15-0--20-15-0--20-15-0--20-15-0--20-15-0--20-15-0--|
B|-------------------------------------------------------------------------|-------------------------------------------------------------------------|
G|-------------------------------------------------------------------------|-------------------------------------------------------------------------|
D|-------------------------------------------------------------------------|-------------------------------------------------------------------------|
A|-------------------------------------------------------------------------|-------------------------------------------------------------------------|
E|-------------------------------------------------------------------------|-------------------------------------------------------------------------|


E|-19-14-0--19-14-0--19-14-0--19-14-0--19-14-0--19-14-0--19-14-0--19-14-0--|-12----12----|
B|-------------------------------------------------------------------------|-------------|
G|-------------------------------------------------------------------------|-------------|
D|-------------------------------------------------------------------------|-------------|
A|-------------------------------------------------------------------------|-------------|
E|-------------------------------------------------------------------------|-------------|


E|--------|--------|---------------------------------|------------------------|--------|
B|--------|--------|-----12--12------14--12----------|------------------------|--------|
G|--------|--------|-----12--12------14--12----------|-----12-----------------|--------|
D|--------|--------|-------------14----------14--12--|-14------14---14--------|--------|
A|--------|--------|---------------------------------|------------------------|--------|
E|--------|--------|---------------------------------|------------------------|--------|


E|--------|--------|-17----17----17-|-17---17---17---17---17---17---|-15-----15---|
B|--------|--------|----------------|-------------------------------|-------------|
G|--------|--------|----------------|-------------------------------|-------------|
D|--------|--------|----------------|-------------------------------|-------------|
A|--------|--------|----------------|-------------------------------|-------------|
E|--------|--------|----------------|-------------------------------|-------------|


E|--------|--------|-------------------12--|--------------------------|---------------------------------|
B|--------|--------|---------------12------|-15---15---15---15----12--|-15--12--13------12--------------|
G|--------|--------|-----------14----------|--------------------------|-------------14------12--14------|
D|--------|--------|-----------------------|--------------------------|-----------------------------12--|
A|--------|--------|-----------------------|--------------------------|---------------------------------|
E|--------|--------|-----------------------|--------------------------|---------------------------------|


E|--------|--------|--------|--------|--------|--------|--------|--------|--------------------------|
B|--------|--------|--------|--------|--------|--------|--------|--------|----------------------12--|
G|--------|--------|--------|--------|--------|--------|--------|--------|-14-14-14--14---14--------|
D|--------|--------|--------|--------|--------|--------|--------|--------|--------------------------|
A|--------|--------|--------|--------|--------|--------|--------|--------|--------------------------|
E|--------|--------|--------|--------|--------|--------|--------|--------|--------------------------|


E|-------------------|-----------------------------------|-------------------------|
B|-12----------------|----------7---8---7--8--7----------|-------------------------|
G|-------14-12-14----|------9--------------------9---7---|-------------------------|
D|-------------------|-----------------------------------|-9--7--5---7---9---9-----|
A|-------------------|-----------------------------------|-------------------------|
E|-------------------|-----------------------------------|-------------------------|


E|-------------|-------------|-----------------6--7--6--------------------------|-------------------------------------------|
B|-------------|-------------|-7--8-7----7--8-----------7--5--8--7--5-----------|-----------------------------------0---0---|
G|-------------|-------------|--------9--------------------------------7--5--4--|-7--5------------------------------0---0---|
D|-------------|-------------|--------------------------------------------------|-------7--5--4--7--5--4------------0---0---|
A|-------------|-------------|--------------------------------------------------|-------------------------7--6--6-----------|
E|-------------|-------------|--------------------------------------------------|-------------------------------------------|


E|-------------|-------------|-17-12-----------------------------------------|-------------------------------------------------|
B|-------------|-------------|-------15-12----12-------------14----12--------|-------------------10-11-12-11-12-11-10----------|
G|-------------|-------------|-------------15----15-14-13----14----12--------|-------11----11-12----------------------12-11-9--|
D|-------------|-------------|----------------------------14----14-----14-12-|-13-14-------------------------------------------|
A|-------------|-------------|-----------------------------------------------|-------------------------------------------------|
E|-------------|-------------|-----------------------------------------------|-------------------------------------------------|


E|-------------------------------------------------------------------------|-----------------------------------------------------------15-17-|
B|-12-11-10----------12-11-10----------12-11-10----------12-11-10----------|-12-11-10----------12-11-10----------12-11-10----------17--------|
G|----------12-11-9-----------12-11-9-----------12-11-9-----------12-11-9--|----------12-11-9-----------12-11-9-----------12-11-9------------|
D|-------------------------------------------------------------------------|-----------------------------------------------------------------|
A|-------------------------------------------------------------------------|-----------------------------------------------------------------|
E|-------------------------------------------------------------------------|-----------------------------------------------------------------|


E|-17----17--17--17-17---|-17----17--17-15----|-15-15-15-15-15-15-15-15-14-14-14-14-14-14-14-14-|
B|-----------------------|--------------------|-17-17-17-17-17-17-17-17-15-15-15-15-15-15-15-15-|
G|-----------------------|--------------------|-------------------------------------------------|
D|-----------------------|--------------------|-------------------------------------------------|
A|-----------------------|--------------------|-------------------------------------------------|
E|-----------------------|--------------------|-------------------------------------------------|


E|-12-12-12-12-12-12-12-12-10-10-10-10-10-10-15-15-|-15-15-15-15-15-15-15-15-14-14-14-14-14-14-14-14-|
B|-13-13-13-13-13-13-13-13-12-12-12-12-12-12-17-17-|-17-17-17-17-17-17-17-17-15-15-15-15-15-15-15-15-|
G|-------------------------------------------------|-------------------------------------------------|
D|-------------------------------------------------|-------------------------------------------------|
A|-------------------------------------------------|-------------------------------------------------|
E|-------------------------------------------------|-------------------------------------------------|


E|-12-12-12-12-12-12-12-12-10-10-10-10-10-10-15-15-|-15-15-15-15-15-15-15-15-14-14-14-14-14-14-14-14-|
B|-13-13-13-13-13-13-13-13-12-12-12-12-12-12-17-17-|-17-17-17-17-17-17-17-17-15-15-15-15-15-15-15-15-|
G|-------------------------------------------------|-------------------------------------------------|
D|-------------------------------------------------|-------------------------------------------------|
A|-------------------------------------------------|-------------------------------------------------|
E|-------------------------------------------------|-------------------------------------------------|


E|-12-12-12-12-12-12-12-12-10-10-10-10-10-10-15-15-|-15-15-15-15-15-15-15-15-14-14-14-14-14-14-14-14-|
B|-13-13-13-13-13-13-13-13-12-12-12-12-12-12-17-17-|-17-17-17-17-17-17-17-17-15-15-15-15-15-15-15-15-|
G|-------------------------------------------------|-------------------------------------------------|
D|-------------------------------------------------|-------------------------------------------------|
A|-------------------------------------------------|-------------------------------------------------|
E|-------------------------------------------------|-------------------------------------------------|


E|-17-17-17-17-17-17-17-17-17-17-17-17-17-17-17-17-|-----------------|
B|-17-17-17-17-17-17-17-17-17-17-17-17-17-17-17-17-|-----------------|
G|-------------------------------------------------|-16--------------|
D|-------------------------------------------------|-----------------|
A|-------------------------------------------------|-----------------|
E|-------------------------------------------------|-----------------|





Track 3: Bass

G|-----------------|---------------------------|-----------------|---------------------------|
D|-----------------|-------------------4---5---|-----------------|-------------------4---5---|
A|-----------------|---------------6-----------|-----------------|---------------6-----------|
E|-0---------------|-------7---7---------------|-0---------------|-------7---7---------------|


G|---------------------------|-----------------|--------|--------|--------|--------|
D|---------------------------|-----------------|--------|--------|--------|--------|
A|---------------------------|-----------------|--------|--------|--------|--------|
E|-------7---7---6---5---3---|-0---------------|--------|--------|--------|--------|


G|--------|--------|----------------------|---------------------------------|---------------------------------|
D|--------|--------|-----------------5----|---------------------------------|---------------------------------|
A|--------|--------|-------2----3---------|---------------------------------|---------------------------------|
E|--------|--------|----------------------|-0---0---0---0---0---0---0---0---|-0---0---0---0---0---0---0---2---|


G|---------------------------------|---------------------------------|---------------------------------|
D|---------------------------------|---------------------------------|---------------------------------|
A|---------------------------------|---------------------------------|---------------------------------|
E|-3---3---3---3---3---3---3---5---|-5---5---5---5---5---5---3---3---|-0---0---0---0---0---0---0---0---|


G|---------------------------------|---------------------------------|---------------------------------|
D|---------------------------------|---------------------------------|----------------------------9----|
A|---------------------------------|---------------------------------|---------------------------------|
E|-0---0---0---0---0---0---0---2---|-3---3---3---3---3---3---3---5---|-5---5---5---5---7---8---8-------|


G|---------------------------------|---------------------------------|---------------------------------|
D|---------------------------------|---------------------------------|---------------------------------|
A|---------------------------------|---------------------------------|---------------------------------|
E|-0---0---0---0---0---0---0---0---|-0---0---0---0---0---0---0---2---|-3---3---3---3---3---3---3---5---|


G|---------------------------------|---------------------------------|---------------------------------|
D|---------------------------------|---------------------------------|---------------------------------|
A|---------------------------------|---------------------------------|---------------------------------|
E|-5---5---5---5---5---5---3---3---|-0---0---0---0---0---0---0---0---|-0---0---0---0---0---0---0---2---|


G|---------------------------------|---------------------------------|---------------------------------|
D|---------------------------------|---------------------------------|---------------------------------|
A|---------------------------------|----------------------------10---|-0---0---0---0---0---0---0---0---|
E|-3---3---3---3---3---3---3---5---|-5---5---5---5---7---8---8-------|---------------------------------|


G|---------------------------------|---------------------------------|---------------------------------|
D|---------------------------------|---------------------------------|---------------------------------|
A|-0---0---0---0---0---0---0---0---|-0---0---0---0---0---0---0---0---|-0---0---0---6---0---5---0-------|
E|---------------------------------|---------------------------------|-----------------------------0---|


G|---------------------------------|---------------------------------|---------------------------------|
D|---------------------------------|-------------------------4---5---|---------------------------------|
A|-7---7---7---7---5---5---5---3---|-3---3---3-----------6-----------|-7---7---7---7---5---5---5---3---|
E|---------------------------------|-------------7---7---------------|---------------------------------|


G|---------------------------------|---------------------------------|---------------------------------|
D|-------------------------4---5---|---------------------------------|-------------------------4---5---|
A|-3---3---3-----------6-----------|-7---7---7---7---5---5---5---3---|-3---3---3-----------6-----------|
E|-------------7---7---------------|---------------------------------|-------------7---7---------------|


G|---------------------------------|--------------------------------|---------------------------------|
D|---------------------------------|--------------------------------|---------------------------------|
A|-7---7---7---7---9---9---9---3---|-3---3--------------------------|---------------------------------|
E|---------------------------------|---------0---0---7----6----5----|-0---0---0---0---0---0---0---0---|


G|---------------------------------|---------------------------------|---------------------------------|
D|---------------------------------|---------------------------------|---------------------------------|
A|---------------------------------|---------------------------------|---------------------------------|
E|-0---0---0---0---0---0---3---2---|-0---0---0---0---0---0---0---0---|-0---0---0---0---0---0---3---2---|


G|---------------------------------|---------------------------------|---------------------------------|
D|---------------------------------|---------------------------------|---------------------------------|
A|---------------------------------|---------------------------------|---------------------------------|
E|-0---0---0---0---0---0---0---0---|-0---0---0---0---0---0---0---2---|-3---3---3---3---3---3---3---5---|


G|---------------------------------|---------------------------------|---------------------------------|
D|---------------------------------|---------------------------------|---------------------------------|
A|---------------------------------|---------------------------------|---------------------------------|
E|-5---5---5---5---5---5---3---3---|-0---0---0---0---0---0---0---0---|-0---0---0---0---0---0---0---2---|


G|---------------------------------|---------------------------------|---------------------------------|
D|---------------------------------|---------------------------------|---------------------------------|
A|---------------------------------|----------------------------10---|---------------------------------|
E|-3---3---3---3---3---3---3---5---|-5---5---5---5---7---8---8-------|-0---0---0---0---0---0---0---0---|


G|---------------------------------|---------------------------------|---------------------------------|
D|---------------------------------|---------------------------------|---------------------------------|
A|---------------------------------|---------------------------------|---------------------------------|
E|-0---0---0---0---0---0---0---2---|-3---3---3---3---3---3---3---5---|-5---5---5---5---5---5---3---3---|


G|---------------------------------|---------------------------------|---------------------------------|
D|---------------------------------|---------------------------------|---------------------------------|
A|---------------------------------|---------------------------------|---------------------------------|
E|-0---0---0---0---0---0---0---0---|-0---0---0---0---0---0---0---2---|-3---3---3---3---3---3---3---5---|


G|---------------------------------|---------------------------------|---------------------------------|
D|---------------------------------|---------------------------------|---------------------------------|
A|----------------------------10---|-0---0---0---0---0---0---0---0---|-0---0---0---0---0---0---0---0---|
E|-5---5---5---5---7---8---8-------|---------------------------------|---------------------------------|


G|---------------------------------|---------------------------------|---------------------------------|
D|---------------------------------|---------------------------------|---------------------------------|
A|-12--12--12--12--12--12--12--12--|-12--12--0---6---0---5---0-------|-7---7---7---7---5---5---5---3---|
E|---------------------------------|-----------------------------0---|---------------------------------|


G|---------------------------------|---------------------------------|---------------------------------|
D|-------------------------4---5---|---------------------------------|-------------------------4---5---|
A|-3---3---3-----------6-----------|-7---7---7---7---5---5---5---3---|-3---3---3-----------6-----------|
E|-------------7---7---------------|---------------------------------|-------------7---7---------------|


G|---------------------------------|---------------------------------|------------------------------|
D|---------------------------------|-------------------------4---5---|------------------------------|
A|-7---7---7---7---5---5---5---3---|-3---3---3-----------6-----------|-7---7---7---7---9---9----3---|
E|---------------------------------|-------------7---7---------------|------------------------------|


G|--------------------------------|---------------------------------|---------------------------------|
D|--------------------------------|---------------------------------|---------------------------------|
A|-3---3--------------------------|---------------------------------|-----------------------------2---|
E|---------0---0---7----6----5----|-0---0---0---0---0---0---0---0---|-0---2---3---5---2---3---5-------|


G|---------------------------------|---------------------------------|---------------------------------|
D|---------------------------------|---------------------------------|---------------------------------|
A|-3---3---3---3---3---3---3---2---|-3---2-----------2---------------|---------------------------------|
E|---------------------------------|---------5---3-------5---3---2---|-0---0---0---0---0---0---0---0---|


G|---------------------------------|---------------------------------|---------------------------------|
D|---------------------------------|---------------------------------|---------------------------------|
A|-----------------------------2---|-3---3---3---3---3---3---3---2---|-3---2-----------2---------------|
E|-0---2---3---5---2---3---5-------|---------------------------------|---------5---3-------5---3---2---|


G|---------------------------------|---------------------------------|---------------------------------|
D|---------------------------------|---------------------------------|---------------------------------|
A|---------------------------------|-----------------------------2---|-3---3---3---3---3---3---3---2---|
E|-0---0---0---0---0---0---0---0---|-0---2---3---5---2---3---5-------|---------------------------------|


G|---------------------------------|---------------------------------|---------------------------------|
D|---------------------------------|---------------------------------|---------------------------------|
A|-3---2-----------2---------------|---------------------------------|-----------------------------2---|
E|---------5---3-------5---3---2---|-0---0---0---0---0---0---0---0---|-0---2---3---5---2---3---5-------|


G|---------------------------------|---------------------------------|---------------------------------|
D|---------------------------------|---------------------------------|---------------------------------|
A|-3---3---3---3---3---3---3---2---|-3---2-----------2---------------|---------------------------------|
E|---------------------------------|---------5---3-------5---3---2---|-0---0---0---0---0---0---0---0---|


G|---------------------------------|---------------------------------|---------------------------------|
D|---------------------------------|---------------------------------|---------------------------------|
A|-2---2---2---2---2---2---2---2---|-3---3---3---3---3---3---3---3---|-2---2---2---2---2---2---2---2---|
E|---------------------------------|---------------------------------|---------------------------------|


G|---------------------------------|---------------------------------|---------------------------------|
D|---------------------------------|---------------------------------|---------------------------------|
A|---------------------------------|-----------------------------2---|-3---3---3---3---3---3---3---2---|
E|-0---0---0---0---0---0---0---0---|-0---2---3---5---2---3---5-------|---------------------------------|


G|---------------------------------|---------------------------------|---------------------------------|
D|---------------------------------|---------------------------------|---------------------------------|
A|-3---2-----------2---------------|---------------------------------|-2---2---2---2---2---2---2---2---|
E|---------5---3-------5---3---2---|-0---0---0---0---0---0---0---0---|---------------------------------|


G|---------------------------------|---------------------------------|---------------------------------|
D|---------------------------------|---------------------------------|---------------------------------|
A|-3---3---3---3---3---3---3---3---|-2---2---2---2---2---2---2---2---|---------------------------------|
E|---------------------------------|---------------------------------|-0---0---0---0---0---0---0---0---|


G|---------------------------------|---------------------------------|---------------------------------|
D|---------------------------------|---------------------------------|---------------------------------|
A|-----------------------------2---|-3---3---3---3---3---3---3---2---|-3---2-----------2---------------|
E|-0---2---3---5---2---3---5-------|---------------------------------|---------5---3-------5---3---2---|


G|---------------------------------|---------------------------------|---------------------------------|
D|---------------------------------|---------------------------------|---------------------------------|
A|-7---7---7---7---7---7---7---7---|-10--10--10--10--10--10--10--10--|-3---3---3---3---3---3---3---3---|
E|---------------------------------|---------------------------------|---------------------------------|


G|---------------------------------|---------------------------------|---------------------------------|
D|---------------------------------|---------------------------------|---------------------------------|
A|-2---2---2---2---2---2---2---2---|---------------------------------|-2---2---2---2---2---2---2---2---|
E|---------------------------------|-0---0---0---0---0---0---0---0---|---------------------------------|


G|---------------------------------|---------------------------|---------------------------------|
D|---------------------------------|---------------------------|---------------------------------|
A|-3---3---3---3---3---3---3---3---|-2---2---2---2---9---------|-7---7---7---7---7---7---7---7---|
E|---------------------------------|----------------------7----|---------------------------------|


G|---------------------------------|---------------------------------|---------------------------------|
D|---------------------------------|---------------------------------|---------------------------------|
A|-10--10--10--10--10--10--10--10--|-3---3---3---3---3---3---3---3---|-2---2---2---2---2---2---2---2---|
E|---------------------------------|---------------------------------|---------------------------------|


G|---------------------------------|---------------------------------|---------------------------------|
D|---------------------------------|---------------------------------|---------------------------------|
A|---------------------------------|-2---2---2---2---2---2---2---2---|-3---3---3---3---3---3---3---3---|
E|-0---0---0---0---0---0---0---0---|---------------------------------|---------------------------------|


G|---------------------------------|---------------------------------|---------------------------------|
D|---------------------------------|---------------------------------|---------------------------------|
A|-2---2---2---2---2---2---2---2---|---------------------------------|-----------------------------2---|
E|---------------------------------|-0---0---0---0---0---0---0---0---|-0---2---3---5---2---3---5-------|


G|---------------------------------|---------------------------------|---------------------------------|
D|---------------------------------|---------------------------------|---------------------------------|
A|-3---3---3---3---3---3---3---2---|-3---2-----------2---------------|---------------------------------|
E|---------------------------------|---------5---3-------5---3---2---|-0---0---0---0---0---0---0---0---|


G|---------------------------------|---------------------------------|---------------------------------|
D|---------------------------------|---------------------------------|---------------------------------|
A|-----------------------------2---|-3---3---3---3---3---3---3---2---|-3---2-----------2---------------|
E|-0---2---3---5---2---3---5-------|---------------------------------|---------5---3-------5---3---2---|


G|---------------------------------|---------------------------------|---------------------------------|
D|---------------------------------|---------------------------------|---------------------------------|
A|---------------------------------|-----------------------------2---|-3---3---3---3---3---3---3---2---|
E|-0---0---0---0---0---0---0---0---|-0---2---3---5---2---3---5-------|---------------------------------|


G|---------------------------------|---------------------------------|---------------------------------|
D|---------------------------------|---------------------------------|---------------------------------|
A|-3---2-----------2---------------|---------------------------------|-----------------------------2---|
E|---------5---3-------5---3---2---|-0---0---0---0---0---0---0---0---|-0---2---3---5---2---3---5-------|


G|---------------------------------|---------------------------------|-----------------|
D|---------------------------------|---------------------------------|-----------------|
A|-3---3---3---5---3---3---3---2---|-3---2-----------2---------------|-----------------|
E|---------------------------------|---------5---3-------5---3---2---|-0---------------|


G|--------|--------|--------|--------------------|--------|--------|----------------------|
D|--------|--------|--------|--------------------|--------|--------|----------------------|
A|--------|--------|--------|--------------------|--------|--------|-----------------10---|
E|--------|--------|--------|-0---0--------------|--------|--------|-------7----8---------|


G|---------------------------------|---------------------------------|---------------------------------|
D|---------------------------------|---------------------------------|---------------------------------|
A|---------------------------------|---------------------------------|---------------------------------|
E|-0---0---0---0---0---0---0---0---|-0---0---0---0---0---0---0---2---|-3---3---3---3---3---3---3---5---|


G|---------------------------------|---------------------------------|---------------------------------|
D|---------------------------------|---------------------------------|---------------------------------|
A|---------------------------------|---------------------------------|---------------------------------|
E|-5---5---5---5---5---5---3---3---|-0---0---0---0---0---0---0---0---|-0---0---0---0---0---0---0---2---|


G|---------------------------------|---------------------------------|---------------------------------|
D|---------------------------------|---------------------------------|---------------------------------|
A|---------------------------------|---------------------------------|---------------------------------|
E|-3---3---3---3---3---3---3---5---|-5---5---5---5---5---5---7---12--|-0---0---0---0---0---0---0---0---|


G|---------------------------------|---------------------------------|---------------------------------|
D|---------------------------------|---------------------------------|---------------------------------|
A|---------------------------------|---------------------------------|---------------------------------|
E|-0---0---0---0---0---0---0---2---|-3---3---3---3---3---3---3---5---|-5---5---5---5---5---5---3---3---|


G|---------------------------------|---------------------------------|---------------------------------|
D|---------------------------------|---------------------------------|---------------------------------|
A|---------------------------------|---------------------------------|---------------------------------|
E|-0---0---0---0---0---0---0---0---|-0---0---0---0---0---0---0---2---|-3---3---3---3---3---3---3---5---|


G|--------------------------------|---------------------------------|--------------------------------|
D|--------------------------------|---------------------------------|--------------------------------|
A|---------------------------10---|---------------------------------|---------------------------10---|
E|-5---5---5---5---7----8---------|-0---0---0---0---0---0---0---0---|-0---0---0---0---7----8---------|


G|---------------------------------|--------------------------------|---------------------------------|
D|---------------------------------|--------------------------------|---------------------------------|
A|---------------------------------|---------------------------10---|---------------------------------|
E|-0---0---0---0---0---0---0---0---|-0---0---0---0---7----8---------|-0---0---0---0---0---0---0---0---|


G|--------------------------------|---------------------------------|--------------------------------|
D|--------------------------------|---------------------------------|--------------------------------|
A|---------------------------10---|---------------------------------|---------------------------10---|
E|-0---0---0---0---7----8---------|-0---0---0---0---0---0---0---0---|-0---0---0---0---7----8---------|


G|-----------------|--------|
D|-----------------|--------|
A|-----------------|--------|
E|-0---------------|--------|