Menu:

 

Search:

 

megadeth - die dead enough:

 



Title: Die Dead Enough
Artist: 
Album: The System Has Failed
Author: Dave Mustaine


Track 1: Dave Mustaine Rhythm

E|-2-----------2---3-----------3---|-4-----------4---3-----------3---|-2-----------2---3---------------|
B|-----3---------------3-----------|-----3---------------3-----------|-----3---------------3-------3---|
G|---------4---------------4-------|---------4---------------4-------|---------4---------------4-------|
D|---------------------------------|---------------------------------|---------------------------------|
A|---------------------------------|---------------------------------|---------------------------------|
E|---------------------------------|---------------------------------|---------------------------------|


E|-----------------0---------------|-2-----------2---3-----------3---|-4-----------4---3-----------3---|
B|---------3-----------3-----------|-----3---------------3-----------|-----3---------------3-----------|
G|-----4-------4-----------4-------|---------4---------------4-------|---------4---------------4-------|
D|-5---------------------------5---|---------------------------------|---------------------------------|
A|---------------------------------|---------------------------------|---------------------------------|
E|---------------------------------|---------------------------------|---------------------------------|


E|-2-----------2---3---------------|-----------------0---------------|-2-----------2---3-----------3---|
B|-----3---------------3-------3---|---------3-----------3-----------|-----3---------------3-----------|
G|---------4---------------4-------|-----4-------4-----------4-------|---------4---------------4-------|
D|---------------------------------|-5---------------------------5---|---------------------------------|
A|---------------------------------|---------------------------------|---------------------------------|
E|---------------------------------|---------------------------------|---------------------------------|


E|-4-----------4---3-----------3---|-2-----------2---3---------------|-----------------0---------------|
B|-----3---------------3-----------|-----3---------------3-------3---|---------3-----------3-----------|
G|---------4---------------4-------|---------4---------------4-------|-----4-------4-----------4-------|
D|---------------------------------|---------------------------------|-5---------------------------5---|
A|---------------------------------|---------------------------------|---------------------------------|
E|---------------------------------|---------------------------------|---------------------------------|


E|-2-----------2---3-----------3---|-4-----------4---3-----------3---|-2-----------2---3---------------|
B|-----3---------------3-----------|-----3---------------3-----------|-----3---------------3-----------|
G|---------4---------------4-------|---------4---------------4-------|---------4---------------4-------|
D|---------------------------------|---------------------------------|---------------------------------|
A|---------------------------------|---------------------------------|---------------------------------|
E|---------------------------------|---------------------------------|-----------------------------2---|


E|---------------------------------|---------------------------------|---------------------------------|
B|---------------------------------|---------------------------------|---------------------------------|
G|---------------------------------|---------------------------------|---------------------------------|
D|---------0-------2---0-----------|---------------------------------|---------------------------------|
A|-----2-------2-----------2-------|-----------------0---1---2-------|-----------------0---1---2-------|
E|-3---------------------------3---|-2---2---2---2---------------3---|-0---0---0---0---------------3---|


E|---------------------------------|---------------------------------|---------------------------------|
B|---------------------------------|---------------------------------|---------------------------------|
G|---------------------------------|---------------------------------|---------------------------------|
D|---------------------------------|---------------------------------|---------------------------------|
A|-----------------0---1---2-------|-----------------0---1---2-------|-----------------0---1---2-------|
E|-0---0---0---0---------------3---|-0---0---0---0---------------3---|-0---0---0---0---------------3---|


E|---------------------------------|---------------------------------|---------------------------------|
B|---------------------------------|---------------------------------|---------------------------------|
G|---------------------------------|---------------------------------|---------------------------------|
D|---------------------------------|---------------------------------|---------------------------------|
A|-----------------0---1---2-------|-----------------0---1---2-------|-----------------0---1---2-------|
E|-0---0---0---0---------------3---|-0---0---0---0---------------3---|-0---0---0---0---------------3---|


E|---------------------------------|---------------------------------|---------------------------------|
B|---------------------------------|---------------------------------|---------------------------------|
G|---------------------------------|---------------------------------|---------------------------------|
D|---------------------------------|-----4-------4--5----4-----------|-----4-------4--5----4-----------|
A|-----------------0---1---2-------|-2-------2---------------2---0---|-0-------0---------------0-------|
E|-0---0---0---0---------------3---|---------------------------------|-----------------------------3---|


E|---------------------------------|---------------------------------|---------------------------------|
B|---------------------------------|---------------------------------|---------------------------------|
G|---------------------------------|---------------------------------|---------------------------------|
D|-----4-------4--5----4-----------|-----4-------4--5----4-----------|-----4-------4--5----4-----------|
A|---------------------------------|-----------------------------2---|-2-------2---------------2---0---|
E|-3-------3---------------3---0---|-0-------0---------------0-------|---------------------------------|


E|---------------------------------|---------------------------------|---------------------------------|
B|---------------------------------|---------------------------------|---------------------------------|
G|---------------------------------|---------------------------------|---------------------------------|
D|-----4-------4--5----4-----------|-----4-------4--5----4-----------|---------------------------------|
A|-0-------0---------------0-------|-----------------------------2---|-2-------------------------------|
E|-----------------------------3---|-3-------3---------------3---0---|-0---0---0---0---0---0---0---0---|


E|---------------------------------|---------------------------------|---------------------------------|
B|---------------------------------|---------------------------------|---------------------------------|
G|---------------------------------|---------------------------------|---------------------------------|
D|-----4-------4--5----4-----------|-----4-------4--5----4-----------|-----4-------4--5----4-----------|
A|-2-------2---------------2---0---|-0-------0---------------0-------|---------------------------------|
E|---------------------------------|-----------------------------3---|-3-------3---------------3---0---|


E|---------------------------------|---------------------------------|---------------------------------|
B|---------------------------------|---------------------------------|---------------------------------|
G|---------------------------------|---------------------------------|---------------------------------|
D|-----4-------4--5----4-----------|-----4-------4--5----4-----------|-----4-------4--5----4-----------|
A|-----------------------------2---|-2-------2---------------2---0---|-0-------0---------------0-------|
E|-0-------0---------------0-------|---------------------------------|-----------------------------3---|


E|---------------------------------|---------------------------------|---------------------------------|
B|---------------------------------|---------------------------------|---------------------------------|
G|---------------------------------|---------------------------------|---------------------------------|
D|---------------------------------|---------------------------------|---------------------------------|
A|---------------------------------|---------------------------------|-----------------0---1---2-------|
E|-3---3---3---3---3---0---2---3---|-3---3---3---3---3---3---3---3---|-3---3---3---3---------------3---|


E|---------------------------------|---------------------------------|---------------------------------|
B|---------------------------------|---------------------------------|---------------------------------|
G|---------------------------------|---------------------------------|---------------------------------|
D|---------------------------------|---------------------------------|---------------------------------|
A|-----------------0---1---2-------|-----------------0---1---2-------|-----------------0---1---2-------|
E|-0---0---0---0---------------3---|-0---0---0---0---------------3---|-0---0---0---0---------------3---|


E|---------------------------------|---------------------------------|---------------------------------|
B|---------------------------------|---------------------------------|---------------------------------|
G|---------------------------------|---------------------------------|---------------------------------|
D|---------------------------------|---------------------------------|---------------------------------|
A|-----------------0---1---2-------|-----------------0---1---2-------|-----------------0---1---2-------|
E|-0---0---0---0---------------3---|-0---0---0---0---------------3---|-0---0---0---0---------------3---|


E|---------------------------------|---------------------------------|---------------------------------|
B|---------------------------------|---------------------------------|---------------------------------|
G|---------------------------------|---------------------------------|---------------------------------|
D|---------------------------------|---------------------------------|-----4-------4--5----4-----------|
A|-----------------0---1---2-------|-----------------0---1---2-------|-2-------2---------------2---0---|
E|-0---0---0---0---------------3---|-0---0---0---0---------------3---|---------------------------------|


E|---------------------------------|---------------------------------|---------------------------------|
B|---------------------------------|---------------------------------|---------------------------------|
G|---------------------------------|---------------------------------|---------------------------------|
D|-----4-------4--5----4-----------|-----4-------4--5----4-----------|-----4-------4--5----4-----------|
A|-0-------0---------------0-------|---------------------------------|-----------------------------2---|
E|-----------------------------3---|-3-------3---------------3---0---|-0-------0---------------0-------|


E|---------------------------------|---------------------------------|---------------------------------|
B|---------------------------------|---------------------------------|---------------------------------|
G|---------------------------------|---------------------------------|---------------------------------|
D|-----4-------4--5----4-----------|-----4-------4--5----4-----------|-----4-------4--5----4-----------|
A|-2-------2---------------2---0---|-0-------0---------------0-------|-----------------------------2---|
E|---------------------------------|-----------------------------3---|-3-------3---------------3---0---|


E|---------------------------------|---------------------------------|---------------------------------|
B|---------------------------------|---------------------------------|---------------------------------|
G|---------------------------------|---------------------------------|---------------------------------|
D|---------------------------------|-----4-------4--5----4-----------|-----4-------4--5----4-----------|
A|-2-------------------------------|-2-------2---------------2---0---|-0-------0---------------0-------|
E|-0---0---0---0---0---0---0---0---|---------------------------------|-----------------------------3---|


E|---------------------------------|---------------------------------|---------------------------------|
B|---------------------------------|---------------------------------|---------------------------------|
G|---------------------------------|---------------------------------|---------------------------------|
D|-----4-------4--5----4-----------|-----4-------4--5----4-----------|-----4-------4--5----4-----------|
A|---------------------------------|-----------------------------2---|-2-------2---------------2---0---|
E|-3-------3---------------3---0---|-0-------0---------------0-------|---------------------------------|


E|---------------------------------|---------------------------------|---------------------------------|
B|---------------------------------|---------------------------------|---------------------------------|
G|---------------------------------|---------------------------------|---------------------------------|
D|-----4-------4--5----4-----------|---------------------------------|---------------------------------|
A|-0-------0---------------0-------|---------------------------------|---------------------------------|
E|-----------------------------3---|-3---3---3---3---3---0---2---3---|-3---3---3---3---3---3---3---3---|


E|---------------------------------|---------------------------------|---------------------------------|
B|---------------------------------|---------------------------------|---------------------------------|
G|---------------------------------|-----4-------4--5----4-----------|---------------------------------|
D|---------------------------------|-2-------2---------------2-------|-----4-------4--5----4-------0---|
A|---------------------------------|-----------------------------2---|-2-------2---------------2-------|
E|-3---3---3---3---3---3---3---3---|---------------------------------|---------------------------------|


E|---------------------------------|---------------------------------|---------------------------------|
B|---------------------------------|---------------------------------|---------------------------------|
G|-----2-------2--4----2-----------|---------------------------------|-----4-------4--5----4-----------|
D|-0-------0---------------0-------|-----2-------4-------5-------2---|-2-------2---------------2-------|
A|-----------------------------0---|-0-------0-------0-------0-------|-----------------------------2---|
E|---------------------------------|---------------------------------|---------------------------------|


E|---------------------------------|---------------------------------|---------------------------------|
B|---------------------------------|---------------------------------|---------------------------------|
G|---------------------------------|-----2-------2--4----2-----------|---------------------------------|
D|-----4-------4--5----4-------0---|-0-------0---------------0-------|-----2-------4-------5-------2---|
A|-2-------2---------------2-------|-----------------------------0---|-0-------0-------0-------0-------|
E|---------------------------------|---------------------------------|---------------------------------|


E|---------------------------------|---------------------------------|---------------------------------|
B|---------------------------------|---------------------------------|---------------------------------|
G|-----4-------4--5----4-----------|---------------------------------|-----2-------2--4----2-----------|
D|-2-------2---------------2-------|-----4-------4--5----4-------0---|-0-------0---------------0-------|
A|-----------------------------2---|-2-------2---------------2-------|-----------------------------0---|
E|---------------------------------|---------------------------------|---------------------------------|


E|---------------------------------|---------------------------------|---------------------------------|
B|---------------------------------|---------------------------------|---------------------------------|
G|---------------------------------|---------------------------------|---------------------------------|
D|-----2-------4-------5-----------|-----5-------5--7----5-----------|-----------------------------4---|
A|-0-------0-------0-------0---3---|-3-------3---------------3-------|-----5-------5--7----5-------2---|
E|---------------------------------|-----------------------------3---|-3-------3---------------3-------|


E|---------------------|---------------------------------|------------------------|
B|---------------------|---------------------------------|------------------------|
G|---------------------|---------------------------------|------------------------|
D|-4-----5---4-----5---|-4---5---4---5-------------------|------------------------|
A|-2-----3---2-----3---|-2---3---2---3---0---1---2-------|-2-----------------5----|
E|---------------------|-----------------------------3---|-0----0---3---2---------|


E|------------------------------|------------------------|------------------------------|
B|------------------------------|------------------------|------------------------------|
G|------------------------------|------------------------|------------------------------|
D|------------------------------|------------------------|------------------------------|
A|-2----------------5-----------|-2-----------------5----|-2------------0---1---2-------|
E|-0----0---3---2-------3---2---|-0----0---3---2---------|-0----0---3---------------3---|


E|------------------------|------------------------------|------------------------|
B|------------------------|------------------------------|------------------------|
G|------------------------|------------------------------|------------------------|
D|------------------------|------------------------------|------------------------|
A|-2-----------------5----|-2----------------5-----------|-2-----------------5----|
E|-0----0---3---2---------|-0----0---3---2-------3---2---|-0----0---3---2---------|


E|------------------------------|-----------------------------|---------------------------------|
B|------------------------------|-----------------------------|---------------------------------|
G|------------------------------|-----------------------------|---------------------------------|
D|------------------------------|-2--0--2---------------------|-------------------------4---5---|
A|-2------------0---1---2-------|------------2---3----2---0---|-0-------------------3-----------|
E|-0----0---3---------------3---|-----------------------------|-----3---2---0---2---------------|


E|-----------------------------|---------------------------------|-----------------------------|
B|-----------------------------|---------------------------------|-----------------------------|
G|-----------------------------|---------------------------------|-----------------------------|
D|-2--0--2---------------------|-------------------------4---5---|-2--0--2---------------------|
A|------------2---3----2---0---|-0-------------------3-----------|------------2---3----2---0---|
E|-----------------------------|-----3---2---0---2---------------|-----------------------------|


E|---------------------------------|-----------------------------|---------------------------------|
B|---------------------------------|-----------------------------|---------------------------------|
G|---------------------------------|-----------------------------|---------------------------------|
D|-------------------------4---5---|-2--0--2---------------------|-------------------------4---5---|
A|-0-------------------3-----------|------------2---3----2---0---|-0-------------------3-----------|
E|-----3---2---0---2---------------|-----------------------------|-----3---2---0---2---------------|


E|---------------------------------|---------------------------------|-------------------------------------|
B|---------------------------------|---------------------------------|-------------------------------------|
G|---------------------------------|---------------------------------|-------------------------------------|
D|---------------------------------|---------------------------------|-------------------------------------|
A|-2---2---2---2---2---2---2---2---|-2---2---2---2---2---2---2---2---|--------------------------------5----|
E|-0---0---0---0---0---0---0---0---|-0---0---0---0---0---0---0---0---|-0--0--0--0--0--0--0---3---2----2----|


E|-------------------------------------------|-------------------------------------|
B|-------------------------------------------|-------------------------------------|
G|-------------------------------------------|-------------------------------------|
D|-------------------------------------------|-------------------------------------|
A|-------------------------------5-----------|--------------------------------5----|
E|-0--0--0--0--0--0--0---3---2---2---3---2---|-0--0--0--0--0--0--0---3---2----2----|


E|-------------------------------------------|-------------------------------------|
B|-------------------------------------------|-------------------------------------|
G|-------------------------------------------|-------------------------------------|
D|-------------------------------------------|-------------------------------------|
A|---------------------------0---1---2-------|--------------------------------5----|
E|-0--0--0--0--0--0--0---3---------------3---|-0--0--0--0--0--0--0---3---2----2----|


E|-------------------------------------------|-------------------------------------|
B|-------------------------------------------|-------------------------------------|
G|-------------------------------------------|-------------------------------------|
D|-------------------------------------------|-------------------------------------|
A|-------------------------------5-----------|--------------------------------5----|
E|-0--0--0--0--0--0--0---3---2---2---3---2---|-0--0--0--0--0--0--0---3---2----2----|


E|-------------------------------------------|-----------------------------|---------------------------------|
B|-------------------------------------------|-----------------------------|---------------------------------|
G|-------------------------------------------|-----------------------------|---------------------------------|
D|-------------------------------------------|-2--0--2---------------------|-------------------------4---5---|
A|---------------------------0---1---2-------|------------2---3----2---0---|-0-------------------3-----------|
E|-0--0--0--0--0--0--0---3---------------3---|-----------------------------|-----3---2---0---2---------------|


E|-----------------------------|---------------------------------|-----------------------------|
B|-----------------------------|---------------------------------|-----------------------------|
G|-----------------------------|---------------------------------|-----------------------------|
D|-2--0--2---------------------|-------------------------4---5---|-2--0--2---------------------|
A|------------2---3----2---0---|-0-------------------3-----------|------------2---3----2---0---|
E|-----------------------------|-----3---2---0---2---------------|-----------------------------|


E|---------------------------------|-----------------------------|---------------------------------|
B|---------------------------------|-----------------------------|---------------------------------|
G|---------------------------------|-----------------------------|---------------------------------|
D|-------------------------4---5---|-2--0--2---------------------|-------------------------4---5---|
A|-0-------------------3-----------|------------2---3----2---0---|-0-------------------3-----------|
E|-----3---2---0---2---------------|-----------------------------|-----3---2---0---2---------------|


E|-------------------------------------|-------------------------------------------|
B|-------------------------------------|-------------------------------------------|
G|-------------------------------------|-------------------------------------------|
D|-------------------------------------|-------------------------------------------|
A|--------------------------------5----|-------------------------------5-----------|
E|-0--0--0--0--0--0--0---3---2----2----|-0--0--0--0--0--0--0---3---2---2---3---2---|


E|-------------------------------------|-------------------------------------------|
B|-------------------------------------|-------------------------------------------|
G|-------------------------------------|-------------------------------------------|
D|-------------------------------------|-------------------------------------------|
A|--------------------------------5----|---------------------------0---1---2-------|
E|-0--0--0--0--0--0--0---3---2----2----|-0--0--0--0--0--0--0---3---------------3---|


E|-------------------------------------|-------------------------------------------|
B|-------------------------------------|-------------------------------------------|
G|-------------------------------------|-------------------------------------------|
D|-------------------------------------|-------------------------------------------|
A|--------------------------------5----|-------------------------------5-----------|
E|-0--0--0--0--0--0--0---3---2----2----|-0--0--0--0--0--0--0---3---2---2---3---2---|


E|-------------------------------------|-------------------------------------------|
B|-------------------------------------|-------------------------------------------|
G|-------------------------------------|-------------------------------------------|
D|-------------------------------------|-------------------------------------------|
A|--------------------------------5----|---------------------------0---1---2-------|
E|-0--0--0--0--0--0--0---3---2----2----|-0--0--0--0--0--0--0---3---------------3---|


E|-------------------------------------|-------------------------------------------|
B|-------------------------------------|-------------------------------------------|
G|-------------------------------------|-------------------------------------------|
D|-------------------------------------|-------------------------------------------|
A|--------------------------------5----|-------------------------------5-----------|
E|-0--0--0--0--0--0--0---3---2----2----|-0--0--0--0--0--0--0---3---2---2---3---2---|


E|-------------------------------------|-------------------------------------------|
B|-------------------------------------|-------------------------------------------|
G|-------------------------------------|-------------------------------------------|
D|-------------------------------------|-------------------------------------------|
A|--------------------------------5----|---------------------------0---1---2-------|
E|-0--0--0--0--0--0--0---3---2----2----|-0--0--0--0--0--0--0---3---------------3---|


E|-------------------------------------|-------------------------------------------|
B|-------------------------------------|-------------------------------------------|
G|-------------------------------------|-------------------------------------------|
D|-------------------------------------|-------------------------------------------|
A|--------------------------------5----|-------------------------------5-----------|
E|-0--0--0--0--0--0--0---3---2----2----|-0--0--0--0--0--0--0---3---2---2---3---2---|


E|-------------------------------------|-------------------------------------------|
B|-------------------------------------|-------------------------------------------|
G|-------------------------------------|-------------------------------------------|
D|-------------------------------------|-------------------------------------------|
A|--------------------------------5----|---------------------------0---1---2-------|
E|-0--0--0--0--0--0--0---3---2----2----|-0--0--0--0--0--0--0---3---------------3---|


E|-------------------------------------|-------------------------------------------|
B|-------------------------------------|-------------------------------------------|
G|-------------------------------------|-------------------------------------------|
D|-------------------------------------|-------------------------------------------|
A|--------------------------------5----|-------------------------------5-----------|
E|-0--0--0--0--0--0--0---3---2----2----|-0--0--0--0--0--0--0---3---2---2---3---2---|


E|-------------------------------------|-------------------------------------------|
B|-------------------------------------|-------------------------------------------|
G|-------------------------------------|-------------------------------------------|
D|-------------------------------------|-------------------------------------------|
A|--------------------------------5----|---------------------------0---1---2-------|
E|-0--0--0--0--0--0--0---3---2----2----|-0--0--0--0--0--0--0---3---------------3---|


E|-------------------------------------|-------------------------------------------|
B|-------------------------------------|-------------------------------------------|
G|-------------------------------------|-------------------------------------------|
D|-------------------------------------|-------------------------------------------|
A|--------------------------------5----|-------------------------------5-----------|
E|-0--0--0--0--0--0--0---3---2----2----|-0--0--0--0--0--0--0---3---2---2---3---2---|


E|-------------------------------------|-------------------------------------------|
B|-------------------------------------|-------------------------------------------|
G|-------------------------------------|-------------------------------------------|
D|-------------------------------------|-------------------------------------------|
A|--------------------------------5----|---------------------------0---1---2-------|
E|-0--0--0--0--0--0--0---3---2----2----|-0--0--0--0--0--0--0---3---------------3---|


E|-------------|
B|-------------|
G|-------------|
D|-------------|
A|-2-----------|
E|-0-----------|





Track 2: Chris Poland

E|--------|--------|--------|--------|--------|----------------|----------------|--------------------|
B|--------|--------|--------|--------|--------|----------------|----------------|-----------15---17--|
G|--------|--------|--------|--------|-16-----|-16-----18------|-19--18-----18--|-18----18-----------|
D|--------|--------|--------|--------|--------|----------------|----------------|--------------------|
A|--------|--------|--------|--------|--------|----------------|----------------|--------------------|
E|--------|--------|--------|--------|--------|----------------|----------------|--------------------|


E|--------------------|--------------------|--------|-------------------|-----------------|
B|-15----15--17---19--|-17----17--19---20--|-19-----|-19----20----19-17-|-----------------|
G|--------------------|--------------------|--------|-------------------|-19---19---19----|
D|--------------------|--------------------|--------|-------------------|-----------------|
A|--------------------|--------------------|--------|-------------------|-----------------|
E|--------------------|--------------------|--------|-------------------|-----------------|


E|-----------------|--------|-------------------------------------------------------------------------|
B|-----------------|--------|-------------------------------------------------------------------------|
G|-19----19--------|--------|-------------------------------------------------------------------------|
D|-----------------|--------|-15-12----12-15-12----12-15-12----12-15-12----12-15-12----12-15-12----12-|
A|-----------------|--------|-------15----------15----------15----------15----------15----------15----|
E|-----------------|--------|-------------------------------------------------------------------------|


E|-----------------------------------------------|--------|--------|--------|--------|
B|-----------------------------------------------|--------|--------|--------|--------|
G|-9---9--7--9--7-----7--------------------------|--------|--------|--------|--------|
D|-----------------9-----9--7--9--7-----7--------|--------|--------|--------|--------|
A|-----------------------------------9-----------|--------|--------|--------|--------|
E|-----------------------------------------12----|--------|--------|--------|--------|


E|--------|--------|--------|--------|------------------------|--------------------|
B|--------|--------|--------|--------|------------------------|--------------------|
G|--------|--------|--------|--------|-11---11--12---11---11--|-11---9---9-----12--|
D|--------|--------|--------|--------|------------------------|--------------------|
A|--------|--------|--------|--------|------------------------|--------------------|
E|--------|--------|--------|--------|------------------------|--------------------|


E|---------------------|------------------------|---------------------|--------------------|
B|---------------------|------------------------|---------------------|--------------------|
G|-12----14---12---14--|-12---12--11--9-----11--|-11----12---11---11--|-11---9---9-----12--|
D|---------------------|------------------------|---------------------|--------------------|
A|---------------------|------------------------|---------------------|--------------------|
E|---------------------|------------------------|---------------------|--------------------|


E|---------------------|--------------------|------------------------|--------------------|
B|---------------------|--------------------|------------------------|--------------------|
G|-12----14---12---14--|-12---12--11--9-----|-11---11--12---11---11--|-11---9---9-----12--|
D|---------------------|--------------------|------------------------|--------------------|
A|---------------------|--------------------|------------------------|--------------------|
E|---------------------|--------------------|------------------------|--------------------|


E|---------------------|------------------------|---------------------|--------------------|
B|---------------------|------------------------|---------------------|--------------------|
G|-12----14---12---14--|-12---12--11--9-----11--|-11----12---11---11--|-11---9---9-----9---|
D|---------------------|------------------------|---------------------|--------------------|
A|---------------------|------------------------|---------------------|--------------------|
E|---------------------|------------------------|---------------------|--------------------|


E|--------|--------|--------|--------|--------|--------|--------|--------|--------|
B|--------|--------|--------|--------|--------|--------|--------|--------|--------|
G|-9------|-9------|-9------|--------|--------|--------|--------|--------|--------|
D|--------|--------|--------|--------|--------|--------|--------|--------|--------|
A|--------|--------|--------|--------|--------|--------|--------|--------|--------|
E|--------|--------|--------|--------|--------|--------|--------|--------|--------|


E|--------|--------|------------------------|--------------------|---------------------|
B|--------|--------|------------------------|--------------------|---------------------|
G|--------|--------|-11---11--12---11---11--|-11---9---9-----12--|-12----14---12---14--|
D|--------|--------|------------------------|--------------------|---------------------|
A|--------|--------|------------------------|--------------------|---------------------|
E|--------|--------|------------------------|--------------------|---------------------|


E|------------------------|---------------------|--------------------|---------------------|
B|------------------------|---------------------|--------------------|---------------------|
G|-12---12--11--9-----11--|-11----12---11---11--|-11---9---9-----12--|-12----14---12---14--|
D|------------------------|---------------------|--------------------|---------------------|
A|------------------------|---------------------|--------------------|---------------------|
E|------------------------|---------------------|--------------------|---------------------|


E|--------------------|------------------------|--------------------|---------------------|
B|--------------------|------------------------|--------------------|---------------------|
G|-12---12--11--9-----|-11---11--12---11---11--|-11---9---9-----12--|-12----14---12---14--|
D|--------------------|------------------------|--------------------|---------------------|
A|--------------------|------------------------|--------------------|---------------------|
E|--------------------|------------------------|--------------------|---------------------|


E|------------------------|---------------------|--------------------|--------|--------|
B|------------------------|---------------------|--------------------|--------|--------|
G|-12---12--11--9-----11--|-11----12---11---11--|-11---9---9-----9---|-9------|--------|
D|------------------------|---------------------|--------------------|--------|--------|
A|------------------------|---------------------|--------------------|--------|--------|
E|------------------------|---------------------|--------------------|--------|--------|


E|--------|--------|--------|--------|--------|--------|--------|--------|--------|
B|--------|--------|--------|--------|--------|--------|--------|--------|--------|
G|--------|--------|--------|--------|--------|--------|--------|--------|--------|
D|--------|--------|--------|--------|--------|--------|--------|--------|--------|
A|--------|--------|--------|--------|--------|--------|--------|--------|--------|
E|--------|--------|--------|--------|--------|--------|--------|--------|--------|


E|--------|--------|--------|--------|--------|--------|--------|--------|--------|
B|--------|--------|--------|--------|--------|--------|--------|--------|--------|
G|--------|--------|--------|--------|--------|--------|--------|--------|--------|
D|--------|--------|--------|--------|--------|--------|--------|--------|--------|
A|--------|--------|--------|--------|--------|--------|--------|--------|--------|
E|--------|--------|--------|--------|--------|--------|--------|--------|--------|


E|--------|--------|--------|--------|--------|--------|--------|--------|----------------------------------------------------|
B|--------|--------|--------|--------|--------|--------|--------|--------|----------------------------------------------------|
G|--------|--------|--------|--------|--------|--------|--------|--------|----------------------------------------------------|
D|--------|--------|--------|--------|--------|--------|--------|--------|-------------------------------14-12-14-16-14-12-14-|
A|--------|--------|--------|--------|--------|--------|--------|-14-----|-14----14-12-14-17-14-12-14-17----------------------|
E|--------|--------|--------|--------|--------|--------|--------|--------|----------------------------------------------------|


E|------------------------------------------------|-------------------------------------------------|
B|----------------------12-15-12-15--17--17---17--|-19--19--19--19--19--19--19--19--19--19--19--19--|
G|----------12-14-12-14---------------------------|-------------------------------------------------|
D|-16-14-16---------------------------------------|-------------------------------------------------|
A|------------------------------------------------|-------------------------------------------------|
E|------------------------------------------------|-------------------------------------------------|


E|-----15--17--17--17--17--17--17--17--|-17--17--15--17--15--15-17--17---------|---------------17-15-12-15-12----12-15-16-17-15-12-15-|
B|-17----------------------------------|---------------------------------17----|-15-17-17---17----------------15----------------------|
G|-------------------------------------|------------------------------------16-|------------------------------------------------------|
D|-------------------------------------|---------------------------------------|------------------------------------------------------|
A|-------------------------------------|---------------------------------------|------------------------------------------------------|
E|-------------------------------------|---------------------------------------|------------------------------------------------------|


E|-16-15-12-12-16-15-12-12-16-15-12-12-16-15-12-12-16-15-12-12-16-15-12-12-|-16-15-12-12-16-15-12-12-16-15-12-12-16-15-12-12-16-15-12-12---------|
B|-------------------------------------------------------------------------|-------------------------------------------------------------20--21--|
G|-------------------------------------------------------------------------|---------------------------------------------------------------------|
D|-------------------------------------------------------------------------|---------------------------------------------------------------------|
A|-------------------------------------------------------------------------|---------------------------------------------------------------------|
E|-------------------------------------------------------------------------|---------------------------------------------------------------------|


E|-----19--21--21---21--21----|--------|--------|--------|--------|--------|--------|
B|-22-------------------------|--------|--------|--------|--------|--------|--------|
G|----------------------------|--------|--------|--------|--------|--------|--------|
D|----------------------------|--------|--------|--------|--------|--------|--------|
A|----------------------------|--------|--------|--------|--------|--------|--------|
E|----------------------------|--------|--------|--------|--------|--------|--------|


E|--------|--------|-20--20--22---20---19---17---|-19-17---------17--------------17--|
B|--------|--------|-----------------------------|-------20-17-------20--21--21------|
G|--------|--------|-----------------------------|-----------------------------------|
D|--------|--------|-----------------------------|-----------------------------------|
A|--------|--------|-----------------------------|-----------------------------------|
E|--------|--------|-----------------------------|-----------------------------------|


E|----------12---------15---------|-------------------------------|--------|--------|
B|-20--20------12-15------15--15--|-15---13---15--13--12----------|--------|--------|
G|--------------------------------|-----------------------14--12--|--------|--------|
D|--------------------------------|-------------------------------|--------|--------|
A|--------------------------------|-------------------------------|--------|--------|
E|--------------------------------|-------------------------------|--------|--------|


E|--------|--------|--------|--------|--------|--------|--------|--------|--------|
B|--------|--------|--------|--------|--------|--------|--------|--------|--------|
G|--------|--------|--------|--------|--------|--------|--------|--------|--------|
D|--------|--------|--------|--------|--------|--------|--------|--------|--------|
A|--------|--------|--------|--------|--------|--------|--------|--------|--------|
E|--------|--------|--------|--------|--------|--------|--------|--------|--------|


E|--------|--------|--------|--------|--------|--------|--------|--------|--------|
B|--------|--------|--------|--------|--------|--------|--------|--------|--------|
G|--------|--------|--------|--------|--------|--------|--------|--------|--------|
D|--------|--------|--------|--------|--------|--------|--------|--------|--------|
A|--------|--------|--------|--------|--------|--------|--------|--------|--------|
E|--------|--------|--------|--------|--------|--------|--------|--------|--------|


E|--------|--------|--------|--------|--------|--------|--------|--------|--------|
B|--------|--------|--------|--------|--------|--------|--------|--------|--------|
G|--------|--------|--------|--------|--------|--------|--------|--------|--------|
D|--------|--------|--------|--------|--------|--------|--------|--------|--------|
A|--------|--------|--------|--------|--------|--------|--------|--------|--------|
E|--------|--------|--------|--------|--------|--------|--------|--------|--------|





Track 3: Pick Scrape

E|--------|--------|--------|--------|--------|--------|--------|--------|--------|
B|--------|--------|--------|--------|--------|--------|--------|--------|--------|
G|--------|--------|--------|--------|--------|--------|--------|--------|--------|
D|--------|--------|--------|--------|--------|--------|--------|--------|--------|
A|--------|--------|--------|--------|--------|--------|--------|--------|--------|
E|--------|--------|--------|--------|--------|--------|--------|--------|--------|


E|--------|--------|--------|--------|--------|-------------------------------------------------|
B|--------|--------|--------|--------|--------|-------------------------------------------------|
G|--------|--------|--------|--------|--------|-------------------------------------------------|
D|--------|--------|--------|--------|--------|-------------------------------------------------|
A|--------|--------|--------|--------|--------|-------------------------------------------------|
E|--------|--------|--------|--------|--------|-1--2--3--4--5--6--7--8--9--10-11-12-13-14-15-16-|


E|--------|--------|--------|--------|--------|--------|--------|--------|--------|
B|--------|--------|--------|--------|--------|--------|--------|--------|--------|
G|--------|--------|--------|--------|--------|--------|--------|--------|--------|
D|--------|--------|--------|--------|--------|--------|--------|--------|--------|
A|--------|--------|--------|--------|--------|--------|--------|--------|--------|
E|--------|--------|--------|--------|--------|--------|--------|--------|--------|


E|--------|--------|--------|--------|--------|--------|--------|--------|--------|
B|--------|--------|--------|--------|--------|--------|--------|--------|--------|
G|--------|--------|--------|--------|--------|--------|--------|--------|--------|
D|--------|--------|--------|--------|--------|--------|--------|--------|--------|
A|--------|--------|--------|--------|--------|--------|--------|--------|--------|
E|--------|--------|--------|--------|--------|--------|--------|--------|--------|


E|--------|--------|--------|--------|--------|--------|--------|--------|--------|
B|--------|--------|--------|--------|--------|--------|--------|--------|--------|
G|--------|--------|--------|--------|--------|--------|--------|--------|--------|
D|--------|--------|--------|--------|--------|--------|--------|--------|--------|
A|--------|--------|--------|--------|--------|--------|--------|--------|--------|
E|--------|--------|--------|--------|--------|--------|--------|--------|--------|


E|--------|--------|--------|--------|--------|--------|--------|--------|--------|
B|--------|--------|--------|--------|--------|--------|--------|--------|--------|
G|--------|--------|--------|--------|--------|--------|--------|--------|--------|
D|--------|--------|--------|--------|--------|--------|--------|--------|--------|
A|--------|--------|--------|--------|--------|--------|--------|--------|--------|
E|--------|--------|--------|--------|--------|--------|--------|--------|--------|


E|--------|--------|--------|--------|--------|--------|--------|--------|--------|
B|--------|--------|--------|--------|--------|--------|--------|--------|--------|
G|--------|--------|--------|--------|--------|--------|--------|--------|--------|
D|--------|--------|--------|--------|--------|--------|--------|--------|--------|
A|--------|--------|--------|--------|--------|--------|--------|--------|--------|
E|--------|--------|--------|--------|--------|--------|--------|--------|--------|


E|--------|--------|--------|--------|--------|--------|--------|--------|--------|
B|--------|--------|--------|--------|--------|--------|--------|--------|--------|
G|--------|--------|--------|--------|--------|--------|--------|--------|--------|
D|--------|--------|--------|--------|--------|--------|--------|--------|--------|
A|--------|--------|--------|--------|--------|--------|--------|--------|--------|
E|--------|--------|--------|--------|--------|--------|--------|--------|--------|


E|--------|--------|--------|--------|--------|--------|--------|--------|--------|
B|--------|--------|--------|--------|--------|--------|--------|--------|--------|
G|--------|--------|--------|--------|--------|--------|--------|--------|--------|
D|--------|--------|--------|--------|--------|--------|--------|--------|--------|
A|--------|--------|--------|--------|--------|--------|--------|--------|--------|
E|--------|--------|--------|--------|--------|--------|--------|--------|--------|


E|--------|--------|--------|--------|--------|--------|--------|--------|--------|
B|--------|--------|--------|--------|--------|--------|--------|--------|--------|
G|--------|--------|--------|--------|--------|--------|--------|--------|--------|
D|--------|--------|--------|--------|--------|--------|--------|--------|--------|
A|--------|--------|--------|--------|--------|--------|--------|--------|--------|
E|--------|--------|--------|--------|--------|--------|--------|--------|--------|


E|--------|--------|--------|--------|--------|--------|--------|--------|--------|
B|--------|--------|--------|--------|--------|--------|--------|--------|--------|
G|--------|--------|--------|--------|--------|--------|--------|--------|--------|
D|--------|--------|--------|--------|--------|--------|--------|--------|--------|
A|--------|--------|--------|--------|--------|--------|--------|--------|--------|
E|--------|--------|--------|--------|--------|--------|--------|--------|--------|


E|--------|--------|--------|--------|--------|--------|--------|--------|--------|
B|--------|--------|--------|--------|--------|--------|--------|--------|--------|
G|--------|--------|--------|--------|--------|--------|--------|--------|--------|
D|--------|--------|--------|--------|--------|--------|--------|--------|--------|
A|--------|--------|--------|--------|--------|--------|--------|--------|--------|
E|--------|--------|--------|--------|--------|--------|--------|--------|--------|


E|--------|--------|--------|--------|--------|--------|--------|--------|--------|
B|--------|--------|--------|--------|--------|--------|--------|--------|--------|
G|--------|--------|--------|--------|--------|--------|--------|--------|--------|
D|--------|--------|--------|--------|--------|--------|--------|--------|--------|
A|--------|--------|--------|--------|--------|--------|--------|--------|--------|
E|--------|--------|--------|--------|--------|--------|--------|--------|--------|


E|--------|--------|--------|--------|--------|--------|--------|--------|--------|
B|--------|--------|--------|--------|--------|--------|--------|--------|--------|
G|--------|--------|--------|--------|--------|--------|--------|--------|--------|
D|--------|--------|--------|--------|--------|--------|--------|--------|--------|
A|--------|--------|--------|--------|--------|--------|--------|--------|--------|
E|--------|--------|--------|--------|--------|--------|--------|--------|--------|


E|--------|--------|--------|--------|--------|--------|--------|--------|--------|
B|--------|--------|--------|--------|--------|--------|--------|--------|--------|
G|--------|--------|--------|--------|--------|--------|--------|--------|--------|
D|--------|--------|--------|--------|--------|--------|--------|--------|--------|
A|--------|--------|--------|--------|--------|--------|--------|--------|--------|
E|--------|--------|--------|--------|--------|--------|--------|--------|--------|


E|--------|--------|--------|--------|--------|--------|--------|--------|--------|
B|--------|--------|--------|--------|--------|--------|--------|--------|--------|
G|--------|--------|--------|--------|--------|--------|--------|--------|--------|
D|--------|--------|--------|--------|--------|--------|--------|--------|--------|
A|--------|--------|--------|--------|--------|--------|--------|--------|--------|
E|--------|--------|--------|--------|--------|--------|--------|--------|--------|


E|--------|
B|--------|
G|--------|
D|--------|
A|--------|
E|--------|





Track 4: Dave Mustaine Solo

E|--------|--------|--------|--------|--------|--------|--------|--------|--------|
B|--------|--------|--------|--------|--------|--------|--------|--------|--------|
G|--------|--------|--------|--------|--------|--------|--------|--------|--------|
D|--------|--------|--------|--------|--------|--------|--------|--------|--------|
A|--------|--------|--------|--------|--------|--------|--------|--------|--------|
E|--------|--------|--------|--------|--------|--------|--------|--------|--------|


E|--------|--------|--------|--------|--------|--------|--------|--------|--------|
B|--------|--------|--------|--------|--------|--------|--------|--------|--------|
G|--------|--------|--------|--------|--------|--------|--------|--------|--------|
D|--------|--------|--------|--------|--------|--------|--------|--------|--------|
A|--------|--------|--------|--------|--------|--------|--------|--------|--------|
E|--------|--------|--------|--------|--------|--------|--------|--------|--------|


E|--------|--------|--------|--------|--------|--------|--------|--------|--------|
B|--------|--------|--------|--------|--------|--------|--------|--------|--------|
G|--------|--------|--------|--------|--------|--------|--------|--------|--------|
D|--------|--------|--------|--------|--------|--------|--------|--------|--------|
A|--------|--------|--------|--------|--------|--------|--------|--------|--------|
E|--------|--------|--------|--------|--------|--------|--------|--------|--------|


E|--------|--------|--------|--------|--------|--------|--------|--------|--------|
B|--------|--------|--------|--------|--------|--------|--------|--------|--------|
G|--------|--------|--------|--------|--------|--------|--------|--------|--------|
D|--------|--------|--------|--------|--------|--------|--------|--------|--------|
A|--------|--------|--------|--------|--------|--------|--------|--------|--------|
E|--------|--------|--------|--------|--------|--------|--------|--------|--------|


E|--------|--------|--------|--------|--------|--------|--------|--------|--------|
B|--------|--------|--------|--------|--------|--------|--------|--------|--------|
G|--------|--------|--------|--------|--------|--------|--------|--------|--------|
D|--------|--------|--------|--------|--------|--------|--------|--------|--------|
A|--------|--------|--------|--------|--------|--------|--------|--------|--------|
E|--------|--------|--------|--------|--------|--------|--------|--------|--------|


E|--------|--------|--------|--------|--------|--------|--------|--------|--------|
B|--------|--------|--------|--------|--------|--------|--------|--------|--------|
G|--------|--------|--------|--------|--------|--------|--------|--------|--------|
D|--------|--------|--------|--------|--------|--------|--------|--------|--------|
A|--------|--------|--------|--------|--------|--------|--------|--------|--------|
E|--------|--------|--------|--------|--------|--------|--------|--------|--------|


E|--------|--------|--------|--------|--------|--------|--------|--------|--------|
B|--------|--------|--------|--------|--------|--------|--------|--------|--------|
G|--------|--------|--------|--------|--------|--------|--------|--------|--------|
D|--------|--------|--------|--------|--------|--------|--------|--------|--------|
A|--------|--------|--------|--------|--------|--------|--------|--------|--------|
E|--------|--------|--------|--------|--------|--------|--------|--------|--------|


E|--------|--------|--------|--------|--------|--------|--------|--------|--------|
B|--------|--------|--------|--------|--------|--------|--------|--------|--------|
G|--------|--------|--------|--------|--------|--------|--------|--------|--------|
D|--------|--------|--------|--------|--------|--------|--------|--------|--------|
A|--------|--------|--------|--------|--------|--------|--------|--------|--------|
E|--------|--------|--------|--------|--------|--------|--------|--------|--------|


E|--------|--------|--------|--------|--------|--------|--------|--------|--------|
B|--------|--------|--------|--------|--------|--------|--------|--------|--------|
G|--------|--------|--------|--------|--------|--------|--------|--------|--------|
D|--------|--------|--------|--------|--------|--------|--------|--------|--------|
A|--------|--------|--------|--------|--------|--------|--------|--------|--------|
E|--------|--------|--------|--------|--------|--------|--------|--------|--------|


E|--------|--------|--------|--------|--------|--------|--------|--------|--------|
B|--------|--------|--------|--------|--------|--------|--------|--------|--------|
G|--------|--------|--------|--------|--------|--------|--------|--------|--------|
D|--------|--------|--------|--------|--------|--------|--------|--------|--------|
A|--------|--------|--------|--------|--------|--------|--------|--------|--------|
E|--------|--------|--------|--------|--------|--------|--------|--------|--------|


E|--------|--------|--------|--------|--------|--------|--------|--------|--------|
B|--------|--------|--------|--------|--------|--------|--------|--------|--------|
G|--------|--------|--------|--------|--------|--------|--------|--------|--------|
D|--------|--------|--------|--------|--------|--------|--------|--------|--------|
A|--------|--------|--------|--------|--------|--------|--------|--------|--------|
E|--------|--------|--------|--------|--------|--------|--------|--------|--------|


E|--------|--------|-22--22---22--22--22-22-22--22--|-19---17-16---18-17-15------17-15-------|
B|--------|--------|--------------------------------|-----------------------17---------17-15-|
G|--------|--------|--------------------------------|----------------------------------------|
D|--------|--------|--------------------------------|----------------------------------------|
A|--------|--------|--------------------------------|----------------------------------------|
E|--------|--------|--------------------------------|----------------------------------------|


E|-15--------------------------|-----------------------------------------------------------------------|
B|----17-17--17---17--17--12---|-15-12-15-12-15-12-15-12-15-12-15-12-12-15-12----12-12-15-12----12-----|
G|-----------------------------|----------------------------------------------15-------------15----14--|
D|-----------------------------|-----------------------------------------------------------------------|
A|-----------------------------|-----------------------------------------------------------------------|
E|-----------------------------|-----------------------------------------------------------------------|


E|-----------------------12--|--------------12--------------12-------------|-------------------------------------------------------------------------|
B|---------------------------|-15-12-----12----15-12-----12----15-12----12-|-12-15-12----12-15-13-16-13----13-16-14-17-14----14-17-15-18-15----15-18-|
G|-14--14---14--14---14------|-------14--------------14--------------14----|----------14----------------15----------------16----------------17-------|
D|---------------------------|---------------------------------------------|-------------------------------------------------------------------------|
A|---------------------------|---------------------------------------------|-------------------------------------------------------------------------|
E|---------------------------|---------------------------------------------|-------------------------------------------------------------------------|


E|-------------------------------------------------------------------------|-20--20--22---20---19---17---|
B|-16-19-16----16-19-17-20-17----17-20-18-21-18----18-21-19-22-19----19-22-|-----------------------------|
G|----------18----------------19----------------20----------------21-------|-----------------------------|
D|-------------------------------------------------------------------------|-----------------------------|
A|-------------------------------------------------------------------------|-----------------------------|
E|-------------------------------------------------------------------------|-----------------------------|


E|-20---19---17---15---|--------|--------|----------------------|-------------------------------11-10-------------10-9--------------9--8--|
B|---------------------|-17-----|--------|----------12----------|-12-13-15-13-12-------12-11-10-------11-10-9--8--------10-9--8--7--------|
G|---------------------|--------|--------|-16----------14--14---|----------------14-12----------------------------------------------------|
D|---------------------|--------|--------|----14----------------|-------------------------------------------------------------------------|
A|---------------------|--------|--------|----------------------|-------------------------------------------------------------------------|
E|---------------------|--------|--------|----------------------|-------------------------------------------------------------------------|


E|-------------8--10-8--------------------8--10-8--------------------------|--------------------------------------------------|
B|-10-8--10-12----------12-10-12-8--10-12----------12-10-8-----------------|--------------------------------------------------|
G|----------------------------------------------------------12-12-11-10-9--|-9--8--8--7--6--6--5--5--4--3--2--1--9----9---9---|
D|-------------------------------------------------------------------------|--------------------------------------------------|
A|-------------------------------------------------------------------------|--------------------------------------------------|
E|-------------------------------------------------------------------------|--------------------------------------------------|


E|----------------|--------|--------|------15---------|--------|--------|-------------|
B|----------------|--------|--------|-----------------|--------|--------|--------17---|
G|-9---9---9------|--------|--------|-----------------|--------|--------|-------------|
D|----------------|--------|--------|-----------------|--------|--------|-------------|
A|----------------|--------|--------|-----------------|--------|--------|-------------|
E|----------------|--------|--------|-----------------|--------|--------|-------------|


E|--------------------|--------|----------121512------------|--------|-----17--17----17-17-17--|
B|-17--17--17---------|--------|-15--15---------1215--15----|--------|-------------------------|
G|--------------------|--------|----------------------------|--------|-------------------------|
D|--------------------|--------|----------------------------|--------|-------------------------|
A|--------------------|--------|----------------------------|--------|-------------------------|
E|--------------------|--------|----------------------------|--------|-------------------------|


E|-17--15---------|------20--20----20--|-20---20--------|--------|-----------------------|
B|----------------|--------------------|----------------|--------|-18--18----18--18--18--|
G|----------------|--------------------|----------------|--------|-----------------------|
D|----------------|--------------------|----------------|--------|-----------------------|
A|----------------|--------------------|----------------|--------|-----------------------|
E|----------------|--------------------|----------------|--------|-----------------------|


E|-----------------------|----------------|-------------|----------------|-------------|
B|-18--18----18--18--18--|-18--18-----18--|-18----------|-20--20-----20--|-20----------|
G|-----------------------|----------------|-------------|----------------|-------------|
D|-----------------------|----------------|-------------|----------------|-------------|
A|-----------------------|----------------|-------------|----------------|-------------|
E|-----------------------|----------------|-------------|----------------|-------------|


E|------15--15--15--------------------12-15-14-|---------------------------------------------|
B|------------------17-15-17-15-12-15----------|-15---12-15-12-----15-12-15-12---------------|
G|---------------------------------------------|---------------14--------------14-12-14-12---|
D|---------------------------------------------|---------------------------------------------|
A|---------------------------------------------|---------------------------------------------|
E|---------------------------------------------|---------------------------------------------|


E|-------------|
B|-------------|
G|-------------|
D|-14----------|
A|-------------|
E|-------------|





Track 5: Jimmy Sloas

G|--------|--------|--------|--------|--------|--------|--------|--------|--------|
D|--------|--------|--------|--------|--------|--------|--------|--------|--------|
A|--------|--------|--------|--------|--------|--------|-2------|--------|-2------|
E|--------|--------|--------|--------|-2------|-2------|--------|-3------|--------|


G|--------|--------|--------|---------------------------------|---------------------------------|
D|--------|--------|--------|---------------------------------|---------------------------------|
A|-4------|-5------|--------|-2---2---2---2-------4-------2---|-5---5---5---5-------5-------4---|
E|--------|--------|-3------|---------------------------------|---------------------------------|


G|---------------------------------|---------------------------------|---------------------------------|
D|---------------------------------|---------0-------2---0-----------|---------------------------------|
A|-2---2---2---2-------4-------2---|-----2-------2-----------2-------|-----------------0---1---2-------|
E|---------------------------------|-3---------------------------3---|-2---2---2---2---------------3---|


G|---------------------------------|---------------------------------|---------------------------------|
D|---------------------------------|---------------------------------|---------------------------------|
A|-----------------0---1---2-------|-----------------0---1---2-------|-----------------0---1---2-------|
E|-0---0---0---0---------------3---|-0---0---0---0---------------3---|-0---0---0---0---------------3---|


G|---------------------------------|---------------------------------|---------------------------------|
D|---------------------------------|---------------------------------|---------------------------------|
A|-----------------0---1---2-------|-----------------0---1---2-------|-----------------0---1---2-------|
E|-0---0---0---0---------------3---|-0---0---0---0---------------3---|-0---0---0---0---------------3---|


G|---------------------------------|---------------------------------|---------------------------------|
D|---------------------------------|---------------------------------|---------------------------------|
A|-----------------0---1---2-------|-----------------0---1---2-------|-2---2---2---2---2---2---2---0---|
E|-0---0---0---0---------------3---|-0---0---0---0---------------3---|---------------------------------|


G|---------------------------------|---------------------------------|---------------------------------|
D|---------------------------------|---------------------------------|---------------------------------|
A|-0---0---0---0---0---0---0-------|---------------------------------|-----------------------------2---|
E|-----------------------------3---|-3---3---3---3---3---3---3---0---|-0---0---0---0---0---0---0-------|


G|---------------------------------|---------------------------------|---------------------------------|
D|---------------------------------|---------------------------------|---------------------------------|
A|-2---2---2---2---2---2---2---0---|-0---0---0---0---0---0---0-------|---------------------------------|
E|---------------------------------|-----------------------------3---|-3---3---3---3---3---3---3---0---|


G|---------------------------------|---------------------------------|---------------------------------|
D|---------------------------------|---------------------------------|---------------------------------|
A|---------------------------------|-2---2---2---2---2---2---2---0---|-0---0---0---0---0---0---0-------|
E|-0---0---0---0---0---0---0---0---|---------------------------------|-----------------------------3---|


G|---------------------------------|---------------------------------|---------------------------------|
D|---------------------------------|---------------------------------|---------------------------------|
A|---------------------------------|-----------------------------2---|-2---2---2---2---2---2---2---0---|
E|-3---3---3---3---3---3---3---0---|-0---0---0---0---0---0---0-------|---------------------------------|


G|---------------------------------|---------------------------------|---------------------------------|
D|---------------------------------|---------------------------------|---------------------------------|
A|-0---0---0---0---0---0---0-------|---------------------------------|---------------------------------|
E|-----------------------------3---|-3---3---3---3---3---0---2---3---|-3---3---3---3---3---3---3---3---|


G|---------------------------------|---------------------------------|---------------------------------|
D|---------------------------------|---------------------------------|---------------------------------|
A|-----------------0---1---2-------|-----------------0---1---2-------|-----------------0---1---2-------|
E|-3---3---3---3---------------3---|-0---0---0---0---------------3---|-0---0---0---0---------------3---|


G|---------------------------------|---------------------------------|---------------------------------|
D|---------------------------------|---------------------------------|---------------------------------|
A|-----------------0---1---2-------|-----------------0---1---2-------|-----------------0---1---2-------|
E|-0---0---0---0---------------3---|-0---0---0---0---------------3---|-0---0---0---0---------------3---|


G|---------------------------------|---------------------------------|---------------------------------|
D|---------------------------------|---------------------------------|---------------------------------|
A|-----------------0---1---2-------|-----------------0---1---2-------|-----------------0---1---2-------|
E|-0---0---0---0---------------3---|-0---0---0---0---------------3---|-0---0---0---0---------------3---|


G|---------------------------------|---------------------------------|---------------------------------|
D|---------------------------------|---------------------------------|---------------------------------|
A|-2---2---2---2---2---2---2---0---|-0---0---0---0---0---0---0-------|---------------------------------|
E|---------------------------------|-----------------------------3---|-3---3---3---3---3---3---3---0---|


G|---------------------------------|---------------------------------|---------------------------------|
D|---------------------------------|---------------------------------|---------------------------------|
A|-----------------------------2---|-2---2---2---2---2---2---2---0---|-0---0---0---0---0---0---0-------|
E|-0---0---0---0---0---0---0-------|---------------------------------|-----------------------------3---|


G|---------------------------------|---------------------------------|---------------------------------|
D|---------------------------------|---------------------------------|---------------------------------|
A|---------------------------------|---------------------------------|-2---2---2---2---2---2---2---0---|
E|-3---3---3---3---3---3---3---0---|-0---0---0---0---0---0---0---0---|---------------------------------|


G|---------------------------------|---------------------------------|---------------------------------|
D|---------------------------------|---------------------------------|---------------------------------|
A|-0---0---0---0---0---0---0-------|---------------------------------|-----------------------------2---|
E|-----------------------------3---|-3---3---3---3---3---3---3---0---|-0---0---0---0---0---0---0-------|


G|---------------------------------|---------------------------------|---------------------------------|
D|---------------------------------|---------------------------------|---------------------------------|
A|-2---2---2---2---2---2---2---0---|-0---0---0---0---0---0---0-------|---------------------------------|
E|---------------------------------|-----------------------------3---|-3---3---3---3---3---0---2---3---|


G|---------------------------------|---------------------------------|---------------------------------|
D|---------------------------------|---------------------------------|-2---2---2---2---2---2---2-------|
A|---------------------------------|---------------------------------|-----------------------------2---|
E|-3---3---3---3---3---3---3---3---|-3---3---3---3---3---3---3---3---|---------------------------------|


G|---------------------------------|---------------------------------|---------------------------------|
D|---------------------------------|---------------------------------|-----------------------------2---|
A|-2---2---2---2---2---2---2---5---|-5---5---5---5---5---5---5-------|---------------------------------|
E|---------------------------------|-----------------------------5---|-5---5---5---5---5---5---5-------|


G|---------------------------------|---------------------------------|---------------------------------|
D|-2---2---2---2---2---2---2-------|---------------------------------|---------------------------------|
A|-----------------------------2---|-2---2---2---2---2---2---2---5---|-5---5---5---5---5---5---5-------|
E|---------------------------------|---------------------------------|-----------------------------5---|


G|---------------------------------|---------------------------------|---------------------------------|
D|-----------------------------2---|-2---2---2---2---2---2---2-------|---------------------------------|
A|---------------------------------|-----------------------------2---|-2---2---2---2---2---2---2---5---|
E|-5---5---5---5---5---5---5-------|---------------------------------|---------------------------------|


G|---------------------------------|---------------------------------|---------------------------------|
D|---------------------------------|---------------------------------|---------------------------------|
A|-5---5---5---5---5---5---5-------|-----------------------------3---|-3---3---3---3---3---3---3-------|
E|-----------------------------5---|-5---5---5---5---5---5---5-------|-----------------------------3---|


G|---------------------------------|---------------------------------|---------------------------------|
D|---------------------------------|---------------------------------|---------------------------------|
A|-----------------------------2---|-2---2---2---3---2---2---2---3---|-2---3---2---3---0---1---2-------|
E|-3---3---3---3---3---3---3-------|---------------------------------|-----------------------------3---|


G|------------------------|------------------------------|------------------------|
D|------------------------|------------------------------|------------------------|
A|-------------------5----|------------------5-----------|-------------------5----|
E|-0----0---3---2---------|-0----0---3---2-------3---2---|-0----0---3---2---------|


G|------------------------------|------------------------|------------------------------|
D|------------------------------|------------------------|------------------------------|
A|--------------0---1---2-------|-------------------5----|------------------5-----------|
E|-0----0---3---------------3---|-0----0---3---2---------|-0----0---3---2-------3---2---|


G|------------------------|------------------------------|-----------------------------|
D|------------------------|------------------------------|-2--0--2---------------------|
A|-------------------5----|--------------0---1---2-------|------------2---3----2---0---|
E|-0----0---3---2---------|-0----0---3---------------3---|-----------------------------|


G|---------------------------------|-----------------------------|---------------------------------|
D|-------------------------4---5---|-2--0--2---------------------|-------------------------4---5---|
A|-0-------------------3-----------|------------2---3----2---0---|-0-------------------3-----------|
E|-----3---2---0---2---------------|-----------------------------|-----3---2---0---2---------------|


G|-----------------------------|---------------------------------|-----------------------------|
D|-2--0--2---------------------|-------------------------4---5---|-2--0--2---------------------|
A|------------2---3----2---0---|-0-------------------3-----------|------------2---3----2---0---|
E|-----------------------------|-----3---2---0---2---------------|-----------------------------|


G|---------------------------------|---------------------------------|---------------------------------|
D|-------------------------4---5---|---------------------------------|---------------------------------|
A|-0-------------------3-----------|---------------------------------|---------------------------------|
E|-----3---2---0---2---------------|-0---0---0---0---0---0---0---0---|-0---0---0---0---0---0---0---0---|


G|-------------------------------------|-------------------------------------------|
D|-------------------------------------|-------------------------------------------|
A|--------------------------------5----|-------------------------------5-----------|
E|-0--0--0--0--0--0--0---3---2---------|-0--0--0--0--0--0--0---3---2-------3---2---|


G|-------------------------------------|-------------------------------------------|
D|-------------------------------------|-------------------------------------------|
A|--------------------------------5----|---------------------------0---1---2-------|
E|-0--0--0--0--0--0--0---3---2---------|-0--0--0--0--0--0--0---3---------------3---|


G|-------------------------------------|-------------------------------------------|
D|-------------------------------------|-------------------------------------------|
A|--------------------------------5----|-------------------------------5-----------|
E|-0--0--0--0--0--0--0---3---2---------|-0--0--0--0--0--0--0---3---2-------3---2---|


G|-------------------------------------|-------------------------------------------|
D|-------------------------------------|-------------------------------------------|
A|--------------------------------5----|---------------------------0---1---2-------|
E|-0--0--0--0--0--0--0---3---2---------|-0--0--0--0--0--0--0---3---------------3---|


G|-----------------------------|---------------------------------|-----------------------------|
D|-2--0--2---------------------|-------------------------4---5---|-2--0--2---------------------|
A|------------2---3----2---0---|-0-------------------3-----------|------------2---3----2---0---|
E|-----------------------------|-----3---2---0---2---------------|-----------------------------|


G|---------------------------------|-----------------------------|---------------------------------|
D|-------------------------4---5---|-2--0--2---------------------|-------------------------4---5---|
A|-0-------------------3-----------|------------2---3----2---0---|-0-------------------3-----------|
E|-----3---2---0---2---------------|-----------------------------|-----3---2---0---2---------------|


G|-----------------------------|---------------------------------|-------------------------------------|
D|-2--0--2---------------------|-------------------------4---5---|-------------------------------------|
A|------------2---3----2---0---|-0-------------------3-----------|--------------------------------5----|
E|-----------------------------|-----3---2---0---2---------------|-0--0--0--0--0--0--0---3---2---------|


G|-------------------------------------------|-------------------------------------|
D|-------------------------------------------|-------------------------------------|
A|-------------------------------5-----------|--------------------------------5----|
E|-0--0--0--0--0--0--0---3---2-------3---2---|-0--0--0--0--0--0--0---3---2---------|


G|-------------------------------------------|-------------------------------------|
D|-------------------------------------------|-------------------------------------|
A|---------------------------0---1---2-------|--------------------------------5----|
E|-0--0--0--0--0--0--0---3---------------3---|-0--0--0--0--0--0--0---3---2---------|


G|-------------------------------------------|-------------------------------------|
D|-------------------------------------------|-------------------------------------|
A|-------------------------------5-----------|--------------------------------5----|
E|-0--0--0--0--0--0--0---3---2-------3---2---|-0--0--0--0--0--0--0---3---2---------|


G|-------------------------------------------|-------------------------------------|
D|-------------------------------------------|-------------------------------------|
A|---------------------------0---1---2-------|--------------------------------5----|
E|-0--0--0--0--0--0--0---3---------------3---|-0--0--0--0--0--0--0---3---2---------|


G|-------------------------------------------|-------------------------------------|
D|-------------------------------------------|-------------------------------------|
A|-------------------------------5-----------|--------------------------------5----|
E|-0--0--0--0--0--0--0---3---2-------3---2---|-0--0--0--0--0--0--0---3---2---------|


G|-------------------------------------------|-------------------------------------|
D|-------------------------------------------|-------------------------------------|
A|---------------------------0---1---2-------|--------------------------------5----|
E|-0--0--0--0--0--0--0---3---------------3---|-0--0--0--0--0--0--0---3---2---------|


G|-------------------------------------------|-------------------------------------|
D|-------------------------------------------|-------------------------------------|
A|-------------------------------5-----------|--------------------------------5----|
E|-0--0--0--0--0--0--0---3---2-------3---2---|-0--0--0--0--0--0--0---3---2---------|


G|-------------------------------------------|-------------------------------------|
D|-------------------------------------------|-------------------------------------|
A|---------------------------0---1---2-------|--------------------------------5----|
E|-0--0--0--0--0--0--0---3---------------3---|-0--0--0--0--0--0--0---3---2---------|


G|-------------------------------------------|-------------------------------------|
D|-------------------------------------------|-------------------------------------|
A|-------------------------------5-----------|--------------------------------5----|
E|-0--0--0--0--0--0--0---3---2-------3---2---|-0--0--0--0--0--0--0---3---2---------|


G|-------------------------------------------|-------------------------------------|
D|-------------------------------------------|-------------------------------------|
A|---------------------------0---1---2-------|--------------------------------5----|
E|-0--0--0--0--0--0--0---3---------------3---|-0--0--0--0--0--0--0---3---2---------|


G|-------------------------------------------|-------------------------------------|
D|-------------------------------------------|-------------------------------------|
A|-------------------------------5-----------|--------------------------------5----|
E|-0--0--0--0--0--0--0---3---2-------3---2---|-0--0--0--0--0--0--0---3---2---------|


G|-------------------------------------------|-------------|
D|-------------------------------------------|-------------|
A|---------------------------0---1---2-------|-------------|
E|-0--0--0--0--0--0--0---3---------------3---|-0-----------|





Track 6: Strings

G|--------|--------|--------|--------|--------|--------|--------|--------|--------|
D|--------|--------|--------|--------|--------|--------|-9------|--------|-9------|
A|--------|--------|--------|--------|-9------|-9------|--------|-10-----|--------|
E|--------|--------|--------|--------|--------|--------|--------|--------|--------|


G|--------|--------|--------|-19----18---------|-21----19---------|-18-----|--------|
D|-11-----|-12-----|--------|-------------16---|-------------21---|--------|--------|
A|--------|--------|-10-----|------------------|------------------|--------|--------|
E|--------|--------|--------|------------------|------------------|--------|--------|


G|--------|--------|--------|--------|--------|--------|--------|--------|--------|
D|--------|--------|--------|--------|--------|--------|--------|--------|--------|
A|--------|--------|--------|--------|--------|--------|--------|--------|--------|
E|--------|--------|--------|--------|--------|--------|--------|--------|--------|


G|--------|--------|--------|--------|--------|--------|--------|--------|--------|
D|--------|--------|--------|--------|--------|--------|--------|--------|--------|
A|--------|--------|--------|--------|--------|--------|--------|--------|--------|
E|--------|--------|--------|--------|--------|--------|--------|--------|--------|


G|--------|--------|--------|--------|--------|--------|--------|--------|--------|
D|--------|--------|--------|--------|--------|--------|--------|--------|--------|
A|--------|--------|--------|--------|--------|--------|--------|--------|--------|
E|--------|--------|--------|--------|--------|--------|--------|--------|--------|


G|--------|--------|--------|--------|--------|--------|--------|--------|--------|
D|--------|--------|--------|--------|--------|--------|--------|--------|--------|
A|--------|--------|--------|--------|--------|--------|--------|--------|--------|
E|--------|--------|--------|--------|--------|--------|--------|--------|--------|


G|--------|--------|--------|--------|--------|--------|--------|--------|--------|
D|--------|--------|--------|--------|--------|--------|--------|--------|--------|
A|--------|--------|--------|--------|--------|--------|--------|--------|--------|
E|--------|--------|--------|--------|--------|--------|--------|--------|--------|


G|--------|--------|--------|--------|--------|--------|--------|--------|--------|
D|--------|--------|--------|--------|--------|--------|--------|--------|--------|
A|--------|--------|--------|--------|--------|--------|--------|--------|--------|
E|--------|--------|--------|--------|--------|--------|--------|--------|--------|


G|--------|--------|--------|--------|--------|--------|--------|--------|--------|
D|--------|--------|--------|--------|--------|--------|--------|--------|--------|
A|--------|--------|--------|--------|--------|--------|--------|--------|--------|
E|--------|--------|--------|--------|--------|--------|--------|--------|--------|


G|--------|--------|--------|--------|--------|--------|--------|--------|--------|
D|--------|--------|--------|--------|--------|--------|--------|--------|--------|
A|--------|--------|--------|--------|--------|--------|--------|--------|--------|
E|--------|--------|--------|--------|--------|--------|--------|--------|--------|


G|--------|--------|--------|--------|--------|--------|--------|--------|--------|
D|--------|--------|--------|--------|--------|--------|--------|--------|--------|
A|--------|--------|--------|--------|--------|--------|--------|--------|--------|
E|--------|--------|--------|--------|--------|--------|--------|--------|--------|


G|--------|--------|--------|--------|--------|--------|--------|--------|--------|
D|--------|--------|--------|--------|--------|--------|--------|--------|--------|
A|--------|--------|--------|--------|--------|--------|--------|--------|--------|
E|--------|--------|--------|--------|--------|--------|--------|--------|--------|


G|--------|--------|--------|--------|--------|--------|--------|--------|--------|
D|--------|--------|--------|--------|--------|--------|--------|--------|--------|
A|--------|--------|--------|--------|--------|--------|--------|--------|--------|
E|--------|--------|--------|--------|--------|--------|--------|--------|--------|


G|--------|--------|--------|--------|--------|--------|--------|--------|--------|
D|--------|--------|--------|--------|--------|--------|--------|--------|--------|
A|--------|--------|--------|--------|--------|--------|--------|--------|--------|
E|--------|--------|--------|--------|--------|--------|--------|--------|--------|


G|--------|--------|--------|--------|--------|--------|--------|--------|--------|
D|--------|--------|--------|--------|--------|--------|--------|--------|--------|
A|--------|--------|--------|--------|--------|--------|--------|--------|--------|
E|--------|--------|--------|--------|--------|--------|--------|--------|--------|


G|--------|--------|--------|--------|--------|--------|--------|--------|--------|
D|--------|--------|--------|--------|--------|--------|--------|--------|--------|
A|--------|--------|--------|--------|--------|--------|--------|--------|--------|
E|--------|--------|--------|--------|--------|--------|--------|--------|--------|