Menu:

 

Search:

 

megadeth - diadems:

 



Title: Diadems
Artist: 
Album: Hidden Treasures
Author: Dave Mustaine


Track 1: Rhythm Guitar

D#|----------7---3--2--0------2-------|-----------------------------------|------0-----------------------|
A#|------8----------------5-------3---|----------3------------------------|------0-----------------------|
F#|-----------------------------------|------4-------4--2--0------0-------|------------------------------|
C#|-----------------------------------|-----------------------4-------2---|------------------4---2-------|
G#|-----------------------------------|-----------------------------------|----------2---5-----------2---|
D#|-0---------------------------------|-0---------------------------------|-0----------------------------|


D#|------0-----------------------|----------7---3--2--0------2-------|-----------------------------------|
A#|------0-----------------------|------8----------------5-------3---|----------3------------------------|
F#|------------------------------|-----------------------------------|------4-------4--2--0------0-------|
C#|------------------4---2-------|-----------------------------------|-----------------------4-------2---|
G#|----------2---5-----------2---|-----------------------------------|-----------------------------------|
D#|-0----------------------------|-0---------------------------------|-0---------------------------------|


D#|------0-----------------------|------0-----------------------|----------7---3--2--0------2-------|
A#|------0-----------------------|------0-----------------------|------8----------------5-------3---|
F#|------------------------------|------------------------------|-----------------------------------|
C#|------------------4---2-------|------------------4---2-------|-----------------------------------|
G#|----------2---5-----------2---|----------2---5-----------2---|-----------------------------------|
D#|-0----------------------------|-0----------------------------|-0---------------------------------|


D#|-----------------------------------|------0-----------------------|------0-----------------------|
A#|----------3------------------------|------0-----------------------|------0-----------------------|
F#|------4-------4--2--0------0-------|------------------------------|------------------------------|
C#|-----------------------4-------2---|------------------4---2-------|------------------4---2-------|
G#|-----------------------------------|----------2---5-----------2---|----------2---5-----------2---|
D#|-0---------------------------------|-0----------------------------|-0----------------------------|


D#|----------7---3--2--0------2-------|-----------------------------------|------0-----------------------|
A#|------8----------------5-------3---|----------3------------------------|------0-----------------------|
F#|-----------------------------------|------4-------4--2--0------0-------|------------------------------|
C#|-----------------------------------|-----------------------4-------2---|------------------4---2-------|
G#|-----------------------------------|-----------------------------------|----------2---5-----------2---|
D#|-0---------------------------------|-0---------------------------------|-0----------------------------|


D#|------0-----------------------|--------|--------|--------|--------|--------|--------|
A#|------0-----------------------|--------|--------|--------|--------|--------|--------|
F#|------------------------------|--------|--------|--------|--------|--------|--------|
C#|------------------------------|--------|--------|--------|--------|--------|--------|
G#|------------------2-------0---|--------|--------|--------|--------|--------|--------|
D#|-0--------0---3-------2-------|--------|--------|--------|--------|--------|--------|


D#|--------|--------|----------7---3--2--0------2-------|-----------------------------------|
A#|--------|--------|------8----------------5-------3---|----------3------------------------|
F#|--------|--------|-----------------------------------|------4-------4--2--0------0-------|
C#|--------|--------|-----------------------------------|-----------------------4-------2---|
G#|--------|--------|-----------------------------------|-----------------------------------|
D#|--------|--------|-0---------------------------------|-0---------------------------------|


D#|------0-----------------------|------0-----------------------|----------7---3--2--0------2-------|
A#|------0-----------------------|------0-----------------------|------8----------------5-------3---|
F#|------------------------------|------------------------------|-----------------------------------|
C#|------------------4---2-------|------------------4---2-------|-----------------------------------|
G#|----------2---5-----------2---|----------2---5-----------2---|-----------------------------------|
D#|-0----------------------------|-0----------------------------|-0---------------------------------|


D#|-----------------------------------|------0-----------------------|------0-----------------------|
A#|----------3------------------------|------0-----------------------|------0-----------------------|
F#|------4-------4--2--0------0-------|------------------------------|------------------------------|
C#|-----------------------4-------2---|------------------4---2-------|------------------------------|
G#|-----------------------------------|----------2---5-----------2---|------------------2-------0---|
D#|-0---------------------------------|-0----------------------------|-0--------0---3-------2-------|


D#|--------|--------|--------|--------|--------|--------|--------|--------|--------|
A#|--------|--------|--------|--------|--------|--------|--------|--------|--------|
F#|--------|--------|--------|--------|--------|--------|--------|--------|--------|
C#|--------|--------|--------|--------|--------|--------|--------|--------|--------|
G#|--------|--------|--------|--------|--------|--------|--------|--------|--------|
D#|--------|--------|--------|--------|--------|--------|--------|--------|--------|


D#|--------|--------|--------|--------|--------|--------|--------|--------|--------|
A#|--------|--------|--------|--------|--------|--------|--------|--------|--------|
F#|--------|--------|--------|--------|--------|--------|--------|--------|--------|
C#|--------|--------|--------|--------|--------|--------|--------|--------|--------|
G#|--------|--------|--------|--------|--------|--------|--------|--------|--------|
D#|--------|--------|--------|--------|--------|--------|--------|--------|--------|


D#|--------|--------|--------|--------|--------|--------|--------|--------|--------|
A#|--------|--------|--------|--------|--------|--------|--------|--------|--------|
F#|--------|--------|--------|--------|--------|--------|--------|--------|--------|
C#|--------|--------|--------|--------|--------|--------|--------|--------|--------|
G#|--------|--------|--------|--------|--------|--------|--------|--------|--------|
D#|--------|--------|--------|--------|--------|--------|--------|--------|--------|


D#|--------|--------|--------|--------|--------|--------|--------|--------|--------|
A#|--------|--------|--------|--------|--------|--------|--------|--------|--------|
F#|--------|--------|--------|--------|--------|--------|--------|--------|--------|
C#|--------|--------|--------|--------|--------|--------|--------|--------|--------|
G#|--------|--------|--------|--------|--------|--------|--------|--------|--------|
D#|--------|--------|--------|--------|--------|--------|--------|--------|--------|


D#|--------|--------|--------|--------|--------|--------|--------|--------|--------|
A#|--------|--------|--------|--------|--------|--------|--------|--------|--------|
F#|--------|--------|--------|--------|--------|--------|--------|--------|--------|
C#|--------|--------|--------|--------|--------|--------|--------|--------|--------|
G#|--------|--------|--------|--------|--------|--------|--------|--------|--------|
D#|--------|--------|--------|--------|--------|--------|--------|--------|--------|


D#|--------|--------|--------|--------|--------|--------|--------|--------|--------|
A#|--------|--------|--------|--------|--------|--------|--------|--------|--------|
F#|--------|--------|--------|--------|--------|--------|--------|--------|--------|
C#|--------|--------|--------|--------|--------|--------|--------|--------|--------|
G#|--------|--------|--------|--------|--------|--------|--------|--------|--------|
D#|--------|--------|--------|--------|--------|--------|--------|--------|--------|


D#|--------|--------|--------|--------|--------|--------|--------|--------|--------|
A#|--------|--------|--------|--------|--------|--------|--------|--------|--------|
F#|--------|--------|--------|--------|--------|--------|--------|--------|--------|
C#|--------|--------|--------|--------|--------|--------|--------|--------|--------|
G#|--------|--------|--------|--------|--------|--------|--------|--------|--------|
D#|--------|--------|--------|--------|--------|--------|--------|--------|--------|


D#|--------|--------|
A#|--------|--------|
F#|--------|--------|
C#|--------|--------|
G#|--------|--------|
D#|--------|--------|





Track 2: Rhythm Guitar

D#|----------3------------------------|-----------------------------------|------0-----------------------|
A#|------5-------5--3--0------3-------|-----------------------------------|------0-----------------------|
F#|-----------------------4-------2---|----------4------------------------|------------------------------|
C#|-----------------------------------|------5-------5--4--0------2-------|------------------4---2-------|
G#|-----------------------------------|-----------------------5-------2---|----------2---5-----------2---|
D#|-0---------------------------------|-0---------------------------------|-0----------------------------|


D#|------0-----------------------|----------3------------------------|-----------------------------------|
A#|------0-----------------------|------5-------5--3--0------3-------|-----------------------------------|
F#|------------------------------|-----------------------4-------2---|----------4------------------------|
C#|------------------4---2-------|-----------------------------------|------5-------5--4--0------2-------|
G#|----------2---5-----------2---|-----------------------------------|-----------------------5-------2---|
D#|-0----------------------------|-0---------------------------------|-0---------------------------------|


D#|------0-----------------------|------0-----------------------|----------3------------------------|
A#|------0-----------------------|------0-----------------------|------5-------5--3--0------3-------|
F#|------------------------------|------------------------------|-----------------------4-------2---|
C#|------------------4---2-------|------------------4---2-------|-----------------------------------|
G#|----------2---5-----------2---|----------2---5-----------2---|-----------------------------------|
D#|-0----------------------------|-0----------------------------|-0---------------------------------|


D#|-----------------------------------|------0-----------------------|------0-----------------------|
A#|-----------------------------------|------0-----------------------|------0-----------------------|
F#|----------4------------------------|------------------------------|------------------------------|
C#|------5-------5--4--0------2-------|------------------4---2-------|------------------4---2-------|
G#|-----------------------5-------2---|----------2---5-----------2---|----------2---5-----------2---|
D#|-0---------------------------------|-0----------------------------|-0----------------------------|


D#|----------3------------------------|-----------------------------------|------0-----------------------|
A#|------5-------5--3--0------3-------|-----------------------------------|------0-----------------------|
F#|-----------------------4-------2---|----------4------------------------|------------------------------|
C#|-----------------------------------|------5-------5--4--0------2-------|------------------4---2-------|
G#|-----------------------------------|-----------------------5-------2---|----------2---5-----------2---|
D#|-0---------------------------------|-0---------------------------------|-0----------------------------|


D#|------0-----------------------|--------|--------|--------|--------|--------|--------|
A#|------0-----------------------|--------|--------|--------|--------|--------|--------|
F#|------------------------------|--------|--------|--------|--------|--------|--------|
C#|------------------------------|--------|--------|--------|--------|--------|--------|
G#|------------------2-------0---|--------|--------|--------|--------|--------|--------|
D#|-0--------0---3-------2-------|--------|--------|--------|--------|--------|--------|


D#|--------|--------|----------3------------------------|-----------------------------------|
A#|--------|--------|------5-------5--3--0------3-------|-----------------------------------|
F#|--------|--------|-----------------------4-------2---|----------4------------------------|
C#|--------|--------|-----------------------------------|------5-------5--4--0------2-------|
G#|--------|--------|-----------------------------------|-----------------------5-------2---|
D#|--------|--------|-0---------------------------------|-0---------------------------------|


D#|------0-----------------------|------0-----------------------|----------3------------------------|
A#|------0-----------------------|------0-----------------------|------5-------5--3--0------3-------|
F#|------------------------------|------------------------------|-----------------------4-------2---|
C#|------------------4---2-------|------------------4---2-------|-----------------------------------|
G#|----------2---5-----------2---|----------2---5-----------2---|-----------------------------------|
D#|-0----------------------------|-0----------------------------|-0---------------------------------|


D#|-----------------------------------|------0-----------------------|------0-----------------------|
A#|-----------------------------------|------0-----------------------|------0-----------------------|
F#|----------4------------------------|------------------------------|------------------------------|
C#|------5-------5--4--0------2-------|------------------4---2-------|------------------------------|
G#|-----------------------5-------2---|----------2---5-----------2---|------------------2-------0---|
D#|-0---------------------------------|-0----------------------------|-0--------0---3-------2-------|


D#|--------|--------|--------|--------|--------|--------|--------|--------|--------|
A#|--------|--------|--------|--------|--------|--------|--------|--------|--------|
F#|--------|--------|--------|--------|--------|--------|--------|--------|--------|
C#|--------|--------|--------|--------|--------|--------|--------|--------|--------|
G#|--------|--------|--------|--------|--------|--------|--------|--------|--------|
D#|--------|--------|--------|--------|--------|--------|--------|--------|--------|


D#|--------|--------|--------|--------|--------|--------|--------|--------|--------|
A#|--------|--------|--------|--------|--------|--------|--------|--------|--------|
F#|--------|--------|--------|--------|--------|--------|--------|--------|--------|
C#|--------|--------|--------|--------|--------|--------|--------|--------|--------|
G#|--------|--------|--------|--------|--------|--------|--------|--------|--------|
D#|--------|--------|--------|--------|--------|--------|--------|--------|--------|


D#|--------|--------|--------|--------|--------|--------|--------|--------|--------|
A#|--------|--------|--------|--------|--------|--------|--------|--------|--------|
F#|--------|--------|--------|--------|--------|--------|--------|--------|--------|
C#|--------|--------|--------|--------|--------|--------|--------|--------|--------|
G#|--------|--------|--------|--------|--------|--------|--------|--------|--------|
D#|--------|--------|--------|--------|--------|--------|--------|--------|--------|


D#|--------|--------|--------|--------|--------|--------|--------|--------|--------|
A#|--------|--------|--------|--------|--------|--------|--------|--------|--------|
F#|--------|--------|--------|--------|--------|--------|--------|--------|--------|
C#|--------|--------|--------|--------|--------|--------|--------|--------|--------|
G#|--------|--------|--------|--------|--------|--------|--------|--------|--------|
D#|--------|--------|--------|--------|--------|--------|--------|--------|--------|


D#|--------|--------|--------|--------|--------|--------|--------|--------|--------|
A#|--------|--------|--------|--------|--------|--------|--------|--------|--------|
F#|--------|--------|--------|--------|--------|--------|--------|--------|--------|
C#|--------|--------|--------|--------|--------|--------|--------|--------|--------|
G#|--------|--------|--------|--------|--------|--------|--------|--------|--------|
D#|--------|--------|--------|--------|--------|--------|--------|--------|--------|


D#|--------|--------|--------|--------|--------|--------|--------|--------|--------|
A#|--------|--------|--------|--------|--------|--------|--------|--------|--------|
F#|--------|--------|--------|--------|--------|--------|--------|--------|--------|
C#|--------|--------|--------|--------|--------|--------|--------|--------|--------|
G#|--------|--------|--------|--------|--------|--------|--------|--------|--------|
D#|--------|--------|--------|--------|--------|--------|--------|--------|--------|


D#|--------|--------|--------|--------|--------|--------|--------|--------|--------|
A#|--------|--------|--------|--------|--------|--------|--------|--------|--------|
F#|--------|--------|--------|--------|--------|--------|--------|--------|--------|
C#|--------|--------|--------|--------|--------|--------|--------|--------|--------|
G#|--------|--------|--------|--------|--------|--------|--------|--------|--------|
D#|--------|--------|--------|--------|--------|--------|--------|--------|--------|


D#|--------|--------|
A#|--------|--------|
F#|--------|--------|
C#|--------|--------|
G#|--------|--------|
D#|--------|--------|





Track 3: Rhythm Guitar

D#|----------3------------------------|-----------------------------------|------0-----------------------|
A#|------5-------5--3--0------3-------|----------3------------------------|------0-----------------------|
F#|-----------------------4-------2---|------4-------4--2--0------0-------|------------------------------|
C#|-----------------------------------|-----------------------4-------2---|------------------4---2-------|
G#|-----------------------------------|-----------------------------------|----------2---5-----------2---|
D#|-0---------------------------------|-0---------------------------------|-0----------------------------|


D#|------0-----------------------|----------3------------------------|-----------------------------------|
A#|------0-----------------------|------5-------5--3--0------3-------|----------3------------------------|
F#|------------------------------|-----------------------4-------2---|------4-------4--2--0------0-------|
C#|------------------4---2-------|-----------------------------------|-----------------------4-------2---|
G#|----------2---5-----------2---|-----------------------------------|-----------------------------------|
D#|-0----------------------------|-0---------------------------------|-0---------------------------------|


D#|------0-----------------------|------0-----------------------|----------3------------------------|
A#|------0-----------------------|------0-----------------------|------5-------5--3--0------3-------|
F#|------------------------------|------------------------------|-----------------------4-------2---|
C#|------------------4---2-------|------------------4---2-------|-----------------------------------|
G#|----------2---5-----------2---|----------2---5-----------2---|-----------------------------------|
D#|-0----------------------------|-0----------------------------|-0---------------------------------|


D#|-----------------------------------|------0-----------------------|------0-----------------------|
A#|----------3------------------------|------0-----------------------|------0-----------------------|
F#|------4-------4--2--0------0-------|------------------------------|------------------------------|
C#|-----------------------4-------2---|------------------4---2-------|------------------4---2-------|
G#|-----------------------------------|----------2---5-----------2---|----------2---5-----------2---|
D#|-0---------------------------------|-0----------------------------|-0----------------------------|


D#|----------3------------------------|-----------------------------------|------0-----------------------|
A#|------5-------5--3--0------3-------|----------3------------------------|------0-----------------------|
F#|-----------------------4-------2---|------4-------4--2--0------0-------|------------------------------|
C#|-----------------------------------|-----------------------4-------2---|------------------4---2-------|
G#|-----------------------------------|-----------------------------------|----------2---5-----------2---|
D#|-0---------------------------------|-0---------------------------------|-0----------------------------|


D#|------0-----------------------|--------------------------------|---------------------------------|
A#|------0-----------------------|--------------------------------|---------------------------------|
F#|------------------------------|--------------------------------|---------------------------------|
C#|------------------------------|--------------------------------|---------------------------------|
G#|------------------2-------0---|-5----5---5--5--4---5---4-------|-8----8--8---8---7-----------5---|
D#|-0--------0---3-------2-------|-3----3---3--3--2---3---2---0---|-6----6--6---6---5-----------3---|


D#|------0-----------------------|------0-----------------------|--------------------------------|
A#|------0-----------------------|------0-----------------------|--------------------------------|
F#|------------------------------|------------------------------|--------------------------------|
C#|------------------4---2-------|------------------------------|--------------------------------|
G#|----------2---5-----------2---|------------------2-------0---|-5----5---5--5--4---5---4-------|
D#|-0----------------------------|-0--------0---3-------2-------|-3----3---3--3--2---3---2---0---|


D#|---------------------------------|------0-----------------------|------0-----------------------|
A#|---------------------------------|------0-----------------------|------0-----------------------|
F#|---------------------------------|------------------------------|------------------------------|
C#|---------------------------------|------------------4---2-------|------------------4---2-------|
G#|-8----8--8---8---7-----------5---|----------2---5-----------2---|----------2---5-----------2---|
D#|-6----6--6---6---5-----------3---|-0----------------------------|-0----------------------------|


D#|--------|--------|--------|--------|--------|--------|--------|--------|--------------------------------|
A#|--------|--------|--------|--------|--------|--------|--------|--------|--------------------------------|
F#|--------|--------|--------|--------|--------|--------|--------|--------|--------------------------------|
C#|--------|--------|--------|--------|--------|--------|--------|--------|--------------------------------|
G#|--------|--------|--------|--------|--------|--------|--------|--------|-5----5---5--5--4---5---4-------|
D#|--------|--------|--------|--------|--------|--------|--------|--------|-3----3---3--3--2---3---2---0---|


D#|---------------------------------|------0-----------------------|------0-----------------------|
A#|---------------------------------|------0-----------------------|------0-----------------------|
F#|---------------------------------|------------------------------|------------------------------|
C#|---------------------------------|------------------4---2-------|------------------------------|
G#|-8----8--8---8---7-----------5---|----------2---5-----------2---|------------------2-------0---|
D#|-6----6--6---6---5-----------3---|-0----------------------------|-0--------0---3-------2-------|


D#|--------------------------------|---------------------------------|------0------------0-------|
A#|--------------------------------|---------------------------------|------0------------0-------|
F#|--------------------------------|---------------------------------|---------------------------|
C#|--------------------------------|---------------------------------|--------------4------------|
G#|-5----5---5--5--4---5---4-------|-8----8--8---8---7-----------5---|-2--------2---2--------4---|
D#|-3----3---3--3--2---3---2---0---|-6----6--6---6---5-----------3---|-0--------0------------2---|


D#|---------------------------------|------0------------0-------|---------------------------------|
A#|---------------------------------|------0------------0-------|---------------------------------|
F#|---------------------------------|---------------------------|---------------------------------|
C#|---------------------------------|--------------4------------|---------------------------------|
G#|-5---4---5---2---4---5---4---3---|-2--------2---2--------4---|-5---4---5---2---4---5---4---3---|
D#|-3---2---3---0---2---3---2---1---|-0--------0------------2---|-3---2---3---0---2---3---2---1---|


D#|------0------------0-------|---------------------------------|------0------------0-------|
A#|------0------------0-------|---------------------------------|------0------------0-------|
F#|---------------------------|---------------------------------|---------------------------|
C#|--------------4------------|---------------------------------|--------------4------------|
G#|-2--------2---2--------4---|-5---4---5---2---4---5---4---3---|-2--------2---2--------4---|
D#|-0--------0------------2---|-3---2---3---0---2---3---2---1---|-0--------0------------2---|


D#|---------------------------------|---------------------------------------|-------------------------------------|
A#|---------------------------------|---------------------------------------|-------------------------------------|
F#|---------------------------------|---------------------------------------|-------------------------------------|
C#|---------------------------------|-9---9--9--9---9-----------------------|-7---7--7--7---7-----------------10--|
G#|-5---4---5---2---4---5---6---7---|-7---7--7--7---7---8---8--8--8--8--8---|-5---5--5--5---5---10-10-9---8---8---|
D#|-3---2---3---0---2---3---4---5---|-------------------6---6--6--6--6--6---|-------------------8--8--7---6-------|


D#|---------------------------------------|---------------------------------------|
A#|---------------------------------------|---------------------------------------|
F#|---------------------------------------|---------------------------------------|
C#|-9---9--9--9---9-----------------------|-7---7--7--7---7-------------------10--|
G#|-7---7--7--7---7---8---8--8--8--8--8---|-5---5--5--5---5---8--8--8---8--8--8---|
D#|-------------------6---6--6--6--6--6---|-------------------6--6--6---6--6------|


D#|---------------------------------------|-------------------------------------|---------------------------------------|
A#|---------------------------------------|-------------------------------------|---------------------------------------|
F#|---------------------------------------|-------------------------------------|---------------------------------------|
C#|-9---9--9--9---9-----------------------|-7---7--7--7---7-----------------10--|-9---9--9--9---9-----------------------|
G#|-7---7--7--7---7---8---8--8--8--8--8---|-5---5--5--5---5---10-10-9---8---8---|-7---7--7--7---7---8---8--8--8--8--8---|
D#|-------------------6---6--6--6--6--6---|-------------------8--8--7---6-------|-------------------6---6--6--6--6--6---|


D#|---------------------------------------|---------------------------------------|
A#|---------------------------------------|---------------------------------------|
F#|---------------------------------------|---------------------------------------|
C#|-7---7--7--7---7-------------------10--|-9---9--9--9---9-----------------------|
G#|-5---5--5--5---5---8--8--8---8--8--8---|-7---7--7--7---7---8---8--8--8--8--8---|
D#|-------------------6--6--6---6--6------|-------------------6---6--6--6--6--6---|


D#|-------------------------------------|-12---9--------------|---------------------|
A#|-------------------------------------|-----------11---8----|---------------------|
F#|-------------------------------------|---------------------|-9----6--------------|
C#|-7---7--7--7---7---------------------|---------------------|-----------8----5----|
G#|-5---5--5--5---5---10-10-9---8---8---|---------------------|---------------------|
D#|-------------------8--8--7---6---6---|---------------------|---------------------|


D#|---------------------------------------|-------------------------------------|---------------------------------------|
A#|---------------------------------------|-------------------------------------|---------------------------------------|
F#|---------------------------------------|-------------------------------------|---------------------------------------|
C#|-9---9--9--9---9-----------------------|-7---7--7--7---7-----------------10--|-9---9--9--9---9-----------------------|
G#|-7---7--7--7---7---8---8--8--8--8--8---|-5---5--5--5---5---10-10-9---8---8---|-7---7--7--7---7---8---8--8--8--8--8---|
D#|-------------------6---6--6--6--6--6---|-------------------8--8--7---6-------|-------------------6---6--6--6--6--6---|


D#|---------------------------------------|---------------------------------------|
A#|---------------------------------------|---------------------------------------|
F#|---------------------------------------|---------------------------------------|
C#|-7---7--7--7---7-------------------10--|-9---9--9--9---9-----------------------|
G#|-5---5--5--5---5---8--8--8---8--8--8---|-7---7--7--7---7---8---8--8--8--8--8---|
D#|-------------------6--6--6---6--6------|-------------------6---6--6--6--6--6---|


D#|-------------------------------------|---------------------------------------|---------------------------------------|
A#|-------------------------------------|---------------------------------------|---------------------------------------|
F#|-------------------------------------|---------------------------------------|---------------------------------------|
C#|-7---7--7--7---7-----------------10--|-9---9--9--9---9-----------------------|-7---7--7--7---7-------------------10--|
G#|-5---5--5--5---5---10-10-9---8---8---|-7---7--7--7---7---8---8--8--8--8--8---|-5---5--5--5---5---8--8--8---8--8--8---|
D#|-------------------8--8--7---6-------|-------------------6---6--6--6--6--6---|-------------------6--6--6---6--6------|


D#|---------------------------|-----------------------------------|---------------------------|
A#|---------------------------|-----------------------------------|---------------------------|
F#|-7--------7---6--------6---|-5--6--5-------5---4---------------|-7--------7---6--------6---|
C#|------5------------5-------|-----------5-----------2---0---2---|------5------------5-------|
G#|---------------------------|-----------------------------------|---------------------------|
D#|---------------------------|-----------------------------------|---------------------------|


D#|-----------------------------------|---------------------------|-----------------------------------|
A#|-----------------------------------|---------------------------|-----------------------------------|
F#|-5--6--5-------5---4---------------|-9--------9---8--------8---|-7--8--7-------7---6---------------|
C#|-----------5-----------2---0---2---|------7------------7-------|-----------7-----------4-------4---|
G#|-----------------------------------|---------------------------|---------------------------7-------|
D#|-----------------------------------|---------------------------|-----------------------------------|


D#|---------------------------|-----------------------------------|---------------------------|
A#|---------------------------|-----------------------------------|---------------------------|
F#|-9--------9---8--------8---|-7--8--7-------7---6---------------|-10-------10--9--------9---|
C#|------7------------7-------|-----------7-----------4-------4---|------8------------8-------|
G#|---------------------------|---------------------------7-------|---------------------------|
D#|---------------------------|-----------------------------------|---------------------------|


D#|---------------------------|---------------------------------|-------------------------------------------------|
A#|---------------------------|---------------------------------|-------------------------------------------------|
F#|-10-------10--9--------9---|-10------9-------10------9-------|-10-7-----7--9--7-----7--10-7-----7--9--7-----7--|
C#|------8------------8-------|-----8-------8-------8-------8---|-------8-----------8-----------8-----------8-----|
G#|---------------------------|---------------------------------|-------------------------------------------------|
D#|---------------------------|---------------------------------|-------------------------------------------------|


D#|--------|--------------------|--------------------|--------|--------------------|
A#|--------|--------------------|--------------------|--------|--------------------|
F#|--------|--------------------|--------------------|--------|--------------------|
C#|--------|--------------------|--------------------|--------|--------------------|
G#|-2------|---------2----2-----|---------------2----|-2------|---------2----2-----|
D#|-0------|-0---0---0----0-----|-------0---0---0----|-0------|-0---0---0----0-----|


D#|--------------------|-------------|--------------------|--------------------|-------------|
A#|--------------------|-------------|--------------------|--------------------|-------------|
F#|--------------------|-9-----9-----|--------------9-----|-9------------------|-9-----9-----|
C#|--------------------|-5-----5-----|--------------5-----|-5------------------|-5-----5-----|
G#|---------------2----|-7-----7-----|---------2----7-----|-7-------------2----|-7-----7-----|
D#|-------0---0---0----|-------------|-0---0---0----------|-------0---0---0----|-------------|


D#|--------------------|--------------------|--------|--------------------|--------------------|
A#|--------------------|--------------------|--------|--------------------|--------------------|
F#|--------------9-----|-9------------------|--------|--------------------|--------------------|
C#|--------------5-----|-5------------------|--------|--------------------|--------------------|
G#|---------2----7-----|-7-------------2----|-2------|---------2----2-----|---------------2----|
D#|-0---0---0----------|-------0---0---0----|-0------|-0---0---0----0-----|-------0---0---0----|


D#|--------|--------------------|--------------------|--------|
A#|--------|--------------------|--------------------|--------|
F#|--------|--------------------|--------------------|--------|
C#|--------|--------------------|--------------------|--------|
G#|-2------|---------2----2-----|---------------2----|-2------|
D#|-0------|-0---0---0----0-----|-------0---0---0----|-0------|





Track 4: Rhythm Guitar

D#|--------|--------|--------|--------|--------|--------|--------|--------|--------|
A#|--------|--------|--------|--------|--------|--------|--------|--------|--------|
F#|--------|--------|--------|--------|--------|--------|--------|--------|--------|
C#|--------|--------|--------|--------|--------|--------|--------|--------|--------|
G#|--------|--------|--------|--------|--------|--------|--------|--------|--------|
D#|--------|--------|--------|--------|--------|--------|--------|--------|--------|


D#|--------|--------|--------|--------|--------|--------|--------|--------|--------|
A#|--------|--------|--------|--------|--------|--------|--------|--------|--------|
F#|--------|--------|--------|--------|--------|--------|--------|--------|--------|
C#|--------|--------|--------|--------|--------|--------|--------|--------|--------|
G#|--------|--------|--------|--------|--------|--------|--------|--------|--------|
D#|--------|--------|--------|--------|--------|--------|--------|--------|--------|


D#|--------|--------|--------|--------|--------|--------|----------3------------------------|
A#|--------|--------|--------|--------|--------|--------|------5-------5--3--0------3-------|
F#|--------|--------|--------|--------|--------|--------|-----------------------4-------2---|
C#|--------|--------|--------|--------|--------|--------|-----------------------------------|
G#|--------|--------|--------|--------|--------|--------|-----------------------------------|
D#|--------|--------|--------|--------|--------|--------|-0---------------------------------|


D#|--------|--------|--------|----------3------------------------|--------|--------|
A#|--------|--------|--------|------5-------5--3--0------3-------|--------|--------|
F#|--------|--------|--------|-----------------------4-------2---|--------|--------|
C#|--------|--------|--------|-----------------------------------|--------|--------|
G#|--------|--------|--------|-----------------------------------|--------|--------|
D#|--------|--------|--------|-0---------------------------------|--------|--------|


D#|--------|--------|--------|--------|--------|--------|--------|--------|--------|
A#|--------|--------|--------|--------|--------|--------|--------|--------|--------|
F#|--------|--------|--------|--------|--------|--------|--------|--------|--------|
C#|--------|--------|--------|--------|--------|--------|--------|--------|--------|
G#|--------|--------|--------|--------|--------|--------|--------|--------|--------|
D#|--------|--------|--------|--------|--------|--------|--------|--------|--------|


D#|--------|--------|--------|--------|--------|--------|--------|--------|--------|
A#|--------|--------|--------|--------|--------|--------|--------|--------|--------|
F#|--------|--------|--------|--------|--------|--------|--------|--------|--------|
C#|--------|--------|--------|--------|--------|--------|--------|--------|--------|
G#|--------|--------|--------|--------|--------|--------|--------|--------|--------|
D#|--------|--------|--------|--------|--------|--------|--------|--------|--------|


D#|--------|--------|--------|--------|--------|---------------------------------------|
A#|--------|--------|--------|--------|--------|---------------------------------------|
F#|--------|--------|--------|--------|--------|---------------------------------------|
C#|--------|--------|--------|--------|--------|-9---9--9--9---9-----------------------|
G#|--------|--------|--------|--------|--------|-7---7--7--7---7---8---8--8--8--8--8---|
D#|--------|--------|--------|--------|--------|-------------------6---6--6--6--6--6---|


D#|-------------------------------------|-15---12-------------|---------------------|
A#|-------------------------------------|-----------14---11---|---------------------|
F#|-------------------------------------|---------------------|-12---9--------------|
C#|-7---7--7--7---7---------------------|---------------------|-----------11---8----|
G#|-5---5--5--5---5---10-10-9---8---8---|---------------------|---------------------|
D#|-------------------8--8--7---6---6---|---------------------|---------------------|


D#|--------|--------|--------|--------|--------|--------|--------|--------|-7--------7---6--------6---|
A#|--------|--------|--------|--------|--------|--------|--------|--------|------5------------5-------|
F#|--------|--------|--------|--------|--------|--------|--------|--------|---------------------------|
C#|--------|--------|--------|--------|--------|--------|--------|--------|---------------------------|
G#|--------|--------|--------|--------|--------|--------|--------|--------|---------------------------|
D#|--------|--------|--------|--------|--------|--------|--------|--------|---------------------------|


D#|-5--6--5-------5---3-----------0---|-7--------7---6--------6---|-5--6--5-------5---3-----------0---|
A#|-----------5-----------3---0-------|------5------------5-------|-----------5-----------3---0-------|
F#|-----------------------------------|---------------------------|-----------------------------------|
C#|-----------------------------------|---------------------------|-----------------------------------|
G#|-----------------------------------|---------------------------|-----------------------------------|
D#|-----------------------------------|---------------------------|-----------------------------------|


D#|-9--------9---8--------8---|-7--8--7-------7---5-----------2---|-9--------9---8--------8---|
A#|------7------------7-------|-----------7-----------5---2-------|------7------------7-------|
F#|---------------------------|-----------------------------------|---------------------------|
C#|---------------------------|-----------------------------------|---------------------------|
G#|---------------------------|-----------------------------------|---------------------------|
D#|---------------------------|-----------------------------------|---------------------------|


D#|-7--8--7-------7---5-----------2---|-10-------10--9--------9---|-10-------10--9--------9---|
A#|-----------7-----------5---2-------|------8------------8-------|------8------------8-------|
F#|-----------------------------------|---------------------------|---------------------------|
C#|-----------------------------------|---------------------------|---------------------------|
G#|-----------------------------------|---------------------------|---------------------------|
D#|-----------------------------------|---------------------------|---------------------------|


D#|-10------9-------10------9-------|-10-8-----8--9--8-----8--10-8-----8--9--8-----8--|
A#|-----8-------8-------8-------8---|-------8-----------8-----------8-----------8-----|
F#|---------------------------------|-------------------------------------------------|
C#|---------------------------------|-------------------------------------------------|
G#|---------------------------------|-------------------------------------------------|
D#|---------------------------------|-------------------------------------------------|


D#|--------|--------|--------|--------|--------|--------|--------|--------|--------|
A#|--------|--------|--------|--------|--------|--------|--------|--------|--------|
F#|--------|--------|--------|--------|--------|--------|--------|--------|--------|
C#|--------|--------|--------|--------|--------|--------|--------|--------|--------|
G#|--------|--------|--------|--------|--------|--------|--------|--------|--------|
D#|--------|--------|--------|--------|--------|--------|--------|--------|--------|


D#|--------|--------|--------|--------|--------|--------|--------|--------|--------|
A#|--------|--------|--------|--------|--------|--------|--------|--------|--------|
F#|--------|--------|--------|--------|--------|--------|--------|--------|--------|
C#|--------|--------|--------|--------|--------|--------|--------|--------|--------|
G#|--------|--------|--------|--------|--------|--------|--------|--------|--------|
D#|--------|--------|--------|--------|--------|--------|--------|--------|--------|


D#|--------|
A#|--------|
F#|--------|
C#|--------|
G#|--------|
D#|--------|





Track 5: Rhythm Guitar

D#|--------|--------|--------|--------|--------|--------|--------|--------|--------|
A#|--------|--------|--------|--------|--------|--------|--------|--------|--------|
F#|--------|--------|--------|--------|--------|--------|--------|--------|--------|
C#|--------|--------|--------|--------|--------|--------|--------|--------|--------|
G#|--------|--------|--------|--------|--------|--------|--------|--------|--------|
D#|--------|--------|--------|--------|--------|--------|--------|--------|--------|


D#|--------|--------|--------|--------|--------|--------|--------|--------|--------|
A#|--------|--------|--------|--------|--------|--------|--------|--------|--------|
F#|--------|--------|--------|--------|--------|--------|--------|--------|--------|
C#|--------|--------|--------|--------|--------|--------|--------|--------|--------|
G#|--------|--------|--------|--------|--------|--------|--------|--------|--------|
D#|--------|--------|--------|--------|--------|--------|--------|--------|--------|


D#|--------|--------|--------|--------|--------|--------|--------|-----------------------------------|
A#|--------|--------|--------|--------|--------|--------|--------|----------3------------------------|
F#|--------|--------|--------|--------|--------|--------|--------|------4-------4--2--0------0-------|
C#|--------|--------|--------|--------|--------|--------|--------|-----------------------4-------2---|
G#|--------|--------|--------|--------|--------|--------|--------|-----------------------------------|
D#|--------|--------|--------|--------|--------|--------|--------|-0---------------------------------|


D#|------0-----------------------|------0-----------------------|--------|--------|
A#|------0-----------------------|------0-----------------------|--------|--------|
F#|------------------------------|------------------------------|--------|--------|
C#|------------------4---2-------|------------------4---2-------|--------|--------|
G#|----------2---5-----------2---|----------2---5-----------2---|--------|--------|
D#|-0----------------------------|-0----------------------------|--------|--------|


D#|--------|--------|--------|--------|--------|--------|--------|--------|--------|
A#|--------|--------|--------|--------|--------|--------|--------|--------|--------|
F#|--------|--------|--------|--------|--------|--------|--------|--------|--------|
C#|--------|--------|--------|--------|--------|--------|--------|--------|--------|
G#|--------|--------|--------|--------|--------|--------|--------|--------|--------|
D#|--------|--------|--------|--------|--------|--------|--------|--------|--------|


D#|--------|--------|--------|--------|--------|--------|--------|--------|--------|
A#|--------|--------|--------|--------|--------|--------|--------|--------|--------|
F#|--------|--------|--------|--------|--------|--------|--------|--------|--------|
C#|--------|--------|--------|--------|--------|--------|--------|--------|--------|
G#|--------|--------|--------|--------|--------|--------|--------|--------|--------|
D#|--------|--------|--------|--------|--------|--------|--------|--------|--------|


D#|--------|--------|--------|--------|--------|--------|--------|--------|--------|
A#|--------|--------|--------|--------|--------|--------|--------|--------|--------|
F#|--------|--------|--------|--------|--------|--------|--------|--------|--------|
C#|--------|--------|--------|--------|--------|--------|--------|--------|--------|
G#|--------|--------|--------|--------|--------|--------|--------|--------|--------|
D#|--------|--------|--------|--------|--------|--------|--------|--------|--------|


D#|--------|--------|--------|--------|--------|--------|--------|--------|--------|
A#|--------|--------|--------|--------|--------|--------|--------|--------|--------|
F#|--------|--------|--------|--------|--------|--------|--------|--------|--------|
C#|--------|--------|--------|--------|--------|--------|--------|--------|--------|
G#|--------|--------|--------|--------|--------|--------|--------|--------|--------|
D#|--------|--------|--------|--------|--------|--------|--------|--------|--------|


D#|--------|--------|--------|--------|--------|--------|--------|--------|--------|
A#|--------|--------|--------|--------|--------|--------|--------|--------|--------|
F#|--------|--------|--------|--------|--------|--------|--------|--------|--------|
C#|--------|--------|--------|--------|--------|--------|--------|--------|--------|
G#|--------|--------|--------|--------|--------|--------|--------|--------|--------|
D#|--------|--------|--------|--------|--------|--------|--------|--------|--------|


D#|--------|--------|--------|--------|--------|--------|--------|--------|--------|
A#|--------|--------|--------|--------|--------|--------|--------|--------|--------|
F#|--------|--------|--------|--------|--------|--------|--------|--------|--------|
C#|--------|--------|--------|--------|--------|--------|--------|--------|--------|
G#|--------|--------|--------|--------|--------|--------|--------|--------|--------|
D#|--------|--------|--------|--------|--------|--------|--------|--------|--------|


D#|--------|--------|--------|--------|--------|--------|--------|--------|--------|
A#|--------|--------|--------|--------|--------|--------|--------|--------|--------|
F#|--------|--------|--------|--------|--------|--------|--------|--------|--------|
C#|--------|--------|--------|--------|--------|--------|--------|--------|--------|
G#|--------|--------|--------|--------|--------|--------|--------|--------|--------|
D#|--------|--------|--------|--------|--------|--------|--------|--------|--------|


D#|--------|--------|--------|--------|
A#|--------|--------|--------|--------|
F#|--------|--------|--------|--------|
C#|--------|--------|--------|--------|
G#|--------|--------|--------|--------|
D#|--------|--------|--------|--------|





Track 6: Rhythm Guitar

D#|--------|--------|--------|--------|--------|--------|--------|--------|--------|
A#|--------|--------|--------|--------|--------|--------|--------|--------|--------|
F#|--------|--------|--------|--------|--------|--------|--------|--------|--------|
C#|--------|--------|--------|--------|--------|--------|--------|--------|--------|
G#|--------|--------|--------|--------|--------|--------|--------|--------|--------|
D#|--------|--------|--------|--------|--------|--------|--------|--------|--------|


D#|--------|--------|--------|--------|--------|--------|--------|--------|--------|
A#|--------|--------|--------|--------|--------|--------|--------|--------|--------|
F#|--------|--------|--------|--------|--------|--------|--------|--------|--------|
C#|--------|--------|--------|--------|--------|--------|--------|--------|--------|
G#|--------|--------|--------|--------|--------|--------|--------|--------|--------|
D#|--------|--------|--------|--------|--------|--------|--------|--------|--------|


D#|--------|--------|--------|--------|--------|--------|--------|--------|--------|
A#|--------|--------|--------|--------|--------|--------|--------|--------|--------|
F#|--------|--------|--------|--------|--------|--------|--------|--------|--------|
C#|--------|--------|--------|--------|--------|--------|--------|--------|--------|
G#|--------|--------|--------|--------|--------|--------|--------|--------|--------|
D#|--------|--------|--------|--------|--------|--------|--------|--------|--------|


D#|--------|--------|-----------------------------------|------0-----------------------|
A#|--------|--------|----------3------------------------|------0-----------------------|
F#|--------|--------|------4-------4--2--0------0-------|------------------------------|
C#|--------|--------|-----------------------4-------2---|------------------4---2-------|
G#|--------|--------|-----------------------------------|----------2---5-----------2---|
D#|--------|--------|-0---------------------------------|-0----------------------------|


D#|------0-----------------------|--------|--------|--------|--------|--------|--------|
A#|------0-----------------------|--------|--------|--------|--------|--------|--------|
F#|------------------------------|--------|--------|--------|--------|--------|--------|
C#|------------------------------|--------|--------|--------|--------|--------|--------|
G#|------------------2-------0---|--------|--------|--------|--------|--------|--------|
D#|-0--------0---3-------2-------|--------|--------|--------|--------|--------|--------|


D#|--------|--------|--------|--------|--------|--------|--------|--------|--------|
A#|--------|--------|--------|--------|--------|--------|--------|--------|--------|
F#|--------|--------|--------|--------|--------|--------|--------|--------|--------|
C#|--------|--------|--------|--------|--------|--------|--------|--------|--------|
G#|--------|--------|--------|--------|--------|--------|--------|--------|--------|
D#|--------|--------|--------|--------|--------|--------|--------|--------|--------|


D#|--------|--------|--------|--------|--------|--------|--------|--------|--------|
A#|--------|--------|--------|--------|--------|--------|--------|--------|--------|
F#|--------|--------|--------|--------|--------|--------|--------|--------|--------|
C#|--------|--------|--------|--------|--------|--------|--------|--------|--------|
G#|--------|--------|--------|--------|--------|--------|--------|--------|--------|
D#|--------|--------|--------|--------|--------|--------|--------|--------|--------|


D#|--------|--------|--------|--------|--------|--------|--------|--------|--------|
A#|--------|--------|--------|--------|--------|--------|--------|--------|--------|
F#|--------|--------|--------|--------|--------|--------|--------|--------|--------|
C#|--------|--------|--------|--------|--------|--------|--------|--------|--------|
G#|--------|--------|--------|--------|--------|--------|--------|--------|--------|
D#|--------|--------|--------|--------|--------|--------|--------|--------|--------|


D#|--------|--------|--------|--------|--------|--------|--------|--------|--------|
A#|--------|--------|--------|--------|--------|--------|--------|--------|--------|
F#|--------|--------|--------|--------|--------|--------|--------|--------|--------|
C#|--------|--------|--------|--------|--------|--------|--------|--------|--------|
G#|--------|--------|--------|--------|--------|--------|--------|--------|--------|
D#|--------|--------|--------|--------|--------|--------|--------|--------|--------|


D#|--------|--------|--------|--------|--------|--------|--------|--------|--------|
A#|--------|--------|--------|--------|--------|--------|--------|--------|--------|
F#|--------|--------|--------|--------|--------|--------|--------|--------|--------|
C#|--------|--------|--------|--------|--------|--------|--------|--------|--------|
G#|--------|--------|--------|--------|--------|--------|--------|--------|--------|
D#|--------|--------|--------|--------|--------|--------|--------|--------|--------|


D#|--------|--------|--------|--------|--------|--------|--------|--------|--------|
A#|--------|--------|--------|--------|--------|--------|--------|--------|--------|
F#|--------|--------|--------|--------|--------|--------|--------|--------|--------|
C#|--------|--------|--------|--------|--------|--------|--------|--------|--------|
G#|--------|--------|--------|--------|--------|--------|--------|--------|--------|
D#|--------|--------|--------|--------|--------|--------|--------|--------|--------|


D#|--------|--------|--------|--------|--------|
A#|--------|--------|--------|--------|--------|
F#|--------|--------|--------|--------|--------|
C#|--------|--------|--------|--------|--------|
G#|--------|--------|--------|--------|--------|
D#|--------|--------|--------|--------|--------|





Track 7: Untitled

G|--------|--------|--------|--------|--------|--------|--------|--------|--------|
D|--------|--------|--------|--------|--------|--------|--------|--------|--------|
A|--------|--------|--------|--------|--------|--------|--------|--------|--------|
E|--------|--------|--------|--------|--------|--------|--------|--------|--------|


G|--------|--------|--------|--------|--------|--------|--------|--------|--------|
D|--------|--------|--------|--------|--------|--------|--------|--------|--------|
A|--------|--------|--------|--------|--------|--------|--------|--------|--------|
E|--------|--------|--------|--------|--------|--------|--------|--------|--------|


G|--------|--------|--------|--------|--------|--------|--------|--------|--------|
D|--------|--------|--------|--------|--------|--------|--------|--------|--------|
A|--------|--------|--------|--------|--------|--------|--------|--------|--------|
E|--------|--------|--------|--------|--------|--------|--------|--------|--------|


G|--------|--------|--------|--------|--------|--------|--------|--------|--------|
D|--------|--------|--------|--------|--------|--------|--------|--------|--------|
A|--------|--------|--------|--------|--------|--------|--------|--------|--------|
E|--------|--------|--------|--------|--------|--------|--------|--------|--------|


G|--------|--------|--------|--------|--------|--------|--------|--------|--------|
D|--------|--------|--------|--------|--------|--------|--------|--------|--------|
A|--------|--------|--------|--------|--------|--------|--------|--------|--------|
E|--------|--------|--------|--------|--------|--------|--------|--------|--------|


G|--------|--------|--------|--------|--------|--------|--------|--------|--------|
D|--------|--------|--------|--------|--------|--------|--------|--------|--------|
A|--------|--------|--------|--------|--------|--------|--------|--------|--------|
E|--------|--------|--------|--------|--------|--------|--------|--------|--------|


G|--------|--------|--------|--------|--------|--------|--------|--------|--------|
D|--------|--------|--------|--------|--------|--------|--------|--------|--------|
A|--------|--------|--------|--------|--------|--------|--------|--------|--------|
E|--------|--------|--------|--------|--------|--------|--------|--------|--------|


G|--------|--------|--------|--------|--------|--------|--------|--------|--------|
D|--------|--------|--------|--------|--------|--------|--------|--------|--------|
A|--------|--------|--------|--------|--------|--------|--------|--------|--------|
E|--------|--------|--------|--------|--------|--------|--------|--------|--------|


G|--------|--------|--------|--------|--------|--------|--------|--------|--------|
D|--------|--------|--------|--------|--------|--------|--------|--------|--------|
A|--------|--------|--------|--------|--------|--------|--------|--------|--------|
E|--------|--------|--------|--------|--------|--------|--------|--------|--------|


G|--------|--------|--------|--------|--------|--------|--------|--------|--------|
D|--------|--------|--------|--------|--------|--------|--------|--------|--------|
A|--------|--------|--------|--------|--------|--------|--------|--------|--------|
E|--------|--------|--------|--------|--------|--------|--------|--------|--------|


G|--------|--------|--------|--------|--------|--------|--------|
D|--------|--------|--------|--------|--------|--------|--------|
A|--------|--------|--------|--------|--------|--------|--------|
E|--------|--------|--------|--------|--------|--------|--------|