Menu:

 

Search:

 

megadeth - diadems:

 



Title: Diadems
Artist: 
Album: Tales From The Crypt Presents Demon Knight
Author: Dave Mustaine


Track 1: Acoustic I

D#|----------7------------------------|-----------------------------------|------0-----------------------|
A#|------8-------8--7--5--0---3-------|----------3------------------------|------0-----------------------|
F#|-------------------------------2---|------4-------4--2--0------0-------|------------------------------|
C#|-----------------------------------|-----------------------4-------2---|------------------4---2-------|
G#|-----------------------------------|-----------------------------------|----------2---5-----------2---|
D#|-0---------------------------------|-0---------------------------------|-0----------------------------|


D#|------0-----------------------|----------7------------------------|-----------------------------------|
A#|------0-----------------------|------8-------8--7--5--0---3-------|----------3------------------------|
F#|------------------------------|-------------------------------2---|------4-------4--2--0------0-------|
C#|------------------4---2-------|-----------------------------------|-----------------------4-------2---|
G#|----------2---5-----------2---|-----------------------------------|-----------------------------------|
D#|-0----------------------------|-0---------------------------------|-0---------------------------------|


D#|------0-----------------------|------0-----------------------|----------7------------------------|
A#|------0-----------------------|------0-----------------------|------8-------8--7--5--0---3-------|
F#|------------------------------|------------------------------|-------------------------------2---|
C#|------------------4---2-------|------------------4---2-------|-----------------------------------|
G#|----------2---5-----------2---|----------2---5-----------2---|-----------------------------------|
D#|-0----------------------------|-0----------------------------|-0---------------------------------|


D#|-----------------------------------|------0-----------------------|------0-----------------------|
A#|----------3------------------------|------0-----------------------|------0-----------------------|
F#|------4-------4--2--0------0-------|------------------------------|------------------------------|
C#|-----------------------4-------2---|------------------4---2-------|------------------4---2-------|
G#|-----------------------------------|----------2---5-----------2---|----------2---5-----------2---|
D#|-0---------------------------------|-0----------------------------|-0----------------------------|


D#|----------7------------------------|-----------------------------------|------0-----------------------|
A#|------8-------8--7--5--0---3-------|----------3------------------------|------0-----------------------|
F#|-------------------------------2---|------4-------4--2--0------0-------|------------------------------|
C#|-----------------------------------|-----------------------4-------2---|------------------4---2-------|
G#|-----------------------------------|-----------------------------------|----------2---5-----------2---|
D#|-0---------------------------------|-0---------------------------------|-0----------------------------|


D#|------0-----------------------|--------|--------|--------|--------|--------|--------|
A#|------0-----------------------|--------|--------|--------|--------|--------|--------|
F#|------------------------------|--------|--------|--------|--------|--------|--------|
C#|------------------------------|--------|--------|--------|--------|--------|--------|
G#|------------------2-------0---|--------|--------|--------|--------|--------|--------|
D#|-0--------0---3-------2-------|--------|--------|--------|--------|--------|--------|


D#|--------|--------|------3---7---3--2--0--------------|-----------------------------------|
A#|--------|--------|------5---8---5--3--0--0---3-------|----------3------------------------|
F#|--------|--------|-----------------------0---2---2---|------4---4---4--2--0------0-------|
C#|--------|--------|-------------------------------2---|------5-------5--4--2--4---2---2---|
G#|--------|--------|-----------------------------------|-----------------------5-------2---|
D#|--------|--------|-0---------------------------------|-0---------------------------------|


D#|------0-----------------------|------0-----------------------|------3---7---3--2--0--------------|
A#|------0-----------------------|------0-----------------------|------5---8---5--3--0--0---3-------|
F#|------------------------------|------------------------------|-----------------------0---2---2---|
C#|------------------4---2-------|------------------4---2-------|-------------------------------2---|
G#|----------2---5-----------2---|----------2---5-----------2---|-----------------------------------|
D#|-0----------------------------|-0----------------------------|-0---------------------------------|


D#|-----------------------------------|------0-----------------------|------0-----------------------|
A#|----------3------------------------|------0-----------------------|------0-----------------------|
F#|------4---4---4--2--0------0-------|------------------------------|------------------------------|
C#|------5-------5--4--2--4---2---2---|------------------4---2-------|------------------------------|
G#|-----------------------5-------2---|----------2---5-----------2---|------------------2-------0---|
D#|-0---------------------------------|-0----------------------------|-0--------0---3-------2-------|


D#|--------|--------|--------|--------|--------|--------|--------|--------|--------|
A#|--------|--------|--------|--------|--------|--------|--------|--------|--------|
F#|--------|--------|--------|--------|--------|--------|--------|--------|--------|
C#|--------|--------|--------|--------|--------|--------|--------|--------|--------|
G#|--------|--------|--------|--------|--------|--------|--------|--------|--------|
D#|--------|--------|--------|--------|--------|--------|--------|--------|--------|


D#|--------|--------|--------|--------|--------|--------|--------|--------|--------|
A#|--------|--------|--------|--------|--------|--------|--------|--------|--------|
F#|--------|--------|--------|--------|--------|--------|--------|--------|--------|
C#|--------|--------|--------|--------|--------|--------|--------|--------|--------|
G#|--------|--------|--------|--------|--------|--------|--------|--------|--------|
D#|--------|--------|--------|--------|--------|--------|--------|--------|--------|


D#|--------|--------|--------|--------|--------|--------|--------|--------|--------|
A#|--------|--------|--------|--------|--------|--------|--------|--------|--------|
F#|--------|--------|--------|--------|--------|--------|--------|--------|--------|
C#|--------|--------|--------|--------|--------|--------|--------|--------|--------|
G#|--------|--------|--------|--------|--------|--------|--------|--------|--------|
D#|--------|--------|--------|--------|--------|--------|--------|--------|--------|


D#|--------|--------|--------|--------|--------|--------|--------|--------|--------|
A#|--------|--------|--------|--------|--------|--------|--------|--------|--------|
F#|--------|--------|--------|--------|--------|--------|--------|--------|--------|
C#|--------|--------|--------|--------|--------|--------|--------|--------|--------|
G#|--------|--------|--------|--------|--------|--------|--------|--------|--------|
D#|--------|--------|--------|--------|--------|--------|--------|--------|--------|


D#|--------|--------|--------|--------|--------|--------|--------|--------|--------|
A#|--------|--------|--------|--------|--------|--------|--------|--------|--------|
F#|--------|--------|--------|--------|--------|--------|--------|--------|--------|
C#|--------|--------|--------|--------|--------|--------|--------|--------|--------|
G#|--------|--------|--------|--------|--------|--------|--------|--------|--------|
D#|--------|--------|--------|--------|--------|--------|--------|--------|--------|


D#|--------|--------|--------|--------|--------|--------|--------|--------|--------|
A#|--------|--------|--------|--------|--------|--------|--------|--------|--------|
F#|--------|--------|--------|--------|--------|--------|--------|--------|--------|
C#|--------|--------|--------|--------|--------|--------|--------|--------|--------|
G#|--------|--------|--------|--------|--------|--------|--------|--------|--------|
D#|--------|--------|--------|--------|--------|--------|--------|--------|--------|


D#|--------|--------|--------|--------|--------|--------|--------|--------|--------|
A#|--------|--------|--------|--------|--------|--------|--------|--------|--------|
F#|--------|--------|--------|--------|--------|--------|--------|--------|--------|
C#|--------|--------|--------|--------|--------|--------|--------|--------|--------|
G#|--------|--------|--------|--------|--------|--------|--------|--------|--------|
D#|--------|--------|--------|--------|--------|--------|--------|--------|--------|


D#|--------|--------|
A#|--------|--------|
F#|--------|--------|
C#|--------|--------|
G#|--------|--------|
D#|--------|--------|





Track 2: Acoustic II

D#|----------3------------------------|-----------------------------------|------0-----------------------|
A#|------5-------5--3--0--------------|-----------------------------------|------0-----------------------|
F#|-----------------------0---2-------|----------4------------------------|------------------------------|
C#|-------------------------------2---|------5-------5--4--2--0---2-------|------------------4---2-------|
G#|-----------------------------------|-------------------------------2---|----------2---5-----------2---|
D#|-0---------------------------------|-0---------------------------------|-0----------------------------|


D#|------0-----------------------|----------3------------------------|-----------------------------------|
A#|------0-----------------------|------5-------5--3--0--------------|-----------------------------------|
F#|------------------------------|-----------------------0---2-------|----------4------------------------|
C#|------------------4---2-------|-------------------------------2---|------5-------5--4--2--0---2-------|
G#|----------2---5-----------2---|-----------------------------------|-------------------------------2---|
D#|-0----------------------------|-0---------------------------------|-0---------------------------------|


D#|------0-----------------------|------0-----------------------|----------3------------------------|
A#|------0-----------------------|------0-----------------------|------5-------5--3--0--------------|
F#|------------------------------|------------------------------|-----------------------0---2-------|
C#|------------------4---2-------|------------------4---2-------|-------------------------------2---|
G#|----------2---5-----------2---|----------2---5-----------2---|-----------------------------------|
D#|-0----------------------------|-0----------------------------|-0---------------------------------|


D#|-----------------------------------|------0-----------------------|------0-----------------------|
A#|-----------------------------------|------0-----------------------|------0-----------------------|
F#|----------4------------------------|------------------------------|------------------------------|
C#|------5-------5--4--2--0---2-------|------------------4---2-------|------------------4---2-------|
G#|-------------------------------2---|----------2---5-----------2---|----------2---5-----------2---|
D#|-0---------------------------------|-0----------------------------|-0----------------------------|


D#|----------3------------------------|-----------------------------------|------0-----------------------|
A#|------5-------5--3--0--------------|-----------------------------------|------0-----------------------|
F#|-----------------------0---2-------|----------4------------------------|------------------------------|
C#|-------------------------------2---|------5-------5--4--2--0---2-------|------------------4---2-------|
G#|-----------------------------------|-------------------------------2---|----------2---5-----------2---|
D#|-0---------------------------------|-0---------------------------------|-0----------------------------|


D#|------0-----------------------|--------|--------|--------|--------|--------|--------|
A#|------0-----------------------|--------|--------|--------|--------|--------|--------|
F#|------------------------------|--------|--------|--------|--------|--------|--------|
C#|------------------------------|--------|--------|--------|--------|--------|--------|
G#|------------------2-------0---|--------|--------|--------|--------|--------|--------|
D#|-0--------0---3-------2-------|--------|--------|--------|--------|--------|--------|


D#|--------|--------|--------|--------|--------|--------|--------|--------|--------|
A#|--------|--------|--------|--------|--------|--------|--------|--------|--------|
F#|--------|--------|--------|--------|--------|--------|--------|--------|--------|
C#|--------|--------|--------|--------|--------|--------|--------|--------|--------|
G#|--------|--------|--------|--------|--------|--------|--------|--------|--------|
D#|--------|--------|--------|--------|--------|--------|--------|--------|--------|


D#|--------|--------|--------|--------|--------|--------|--------|--------|--------|
A#|--------|--------|--------|--------|--------|--------|--------|--------|--------|
F#|--------|--------|--------|--------|--------|--------|--------|--------|--------|
C#|--------|--------|--------|--------|--------|--------|--------|--------|--------|
G#|--------|--------|--------|--------|--------|--------|--------|--------|--------|
D#|--------|--------|--------|--------|--------|--------|--------|--------|--------|


D#|--------|--------|--------|--------|--------|--------|--------|--------|--------|
A#|--------|--------|--------|--------|--------|--------|--------|--------|--------|
F#|--------|--------|--------|--------|--------|--------|--------|--------|--------|
C#|--------|--------|--------|--------|--------|--------|--------|--------|--------|
G#|--------|--------|--------|--------|--------|--------|--------|--------|--------|
D#|--------|--------|--------|--------|--------|--------|--------|--------|--------|


D#|--------|--------|--------|--------|--------|--------|--------|--------|--------|
A#|--------|--------|--------|--------|--------|--------|--------|--------|--------|
F#|--------|--------|--------|--------|--------|--------|--------|--------|--------|
C#|--------|--------|--------|--------|--------|--------|--------|--------|--------|
G#|--------|--------|--------|--------|--------|--------|--------|--------|--------|
D#|--------|--------|--------|--------|--------|--------|--------|--------|--------|


D#|--------|--------|--------|--------|--------|--------|--------|--------|--------|
A#|--------|--------|--------|--------|--------|--------|--------|--------|--------|
F#|--------|--------|--------|--------|--------|--------|--------|--------|--------|
C#|--------|--------|--------|--------|--------|--------|--------|--------|--------|
G#|--------|--------|--------|--------|--------|--------|--------|--------|--------|
D#|--------|--------|--------|--------|--------|--------|--------|--------|--------|


D#|--------|--------|--------|--------|--------|--------|--------|--------|--------|
A#|--------|--------|--------|--------|--------|--------|--------|--------|--------|
F#|--------|--------|--------|--------|--------|--------|--------|--------|--------|
C#|--------|--------|--------|--------|--------|--------|--------|--------|--------|
G#|--------|--------|--------|--------|--------|--------|--------|--------|--------|
D#|--------|--------|--------|--------|--------|--------|--------|--------|--------|


D#|--------|--------|--------|--------|--------|--------|--------|--------|--------|
A#|--------|--------|--------|--------|--------|--------|--------|--------|--------|
F#|--------|--------|--------|--------|--------|--------|--------|--------|--------|
C#|--------|--------|--------|--------|--------|--------|--------|--------|--------|
G#|--------|--------|--------|--------|--------|--------|--------|--------|--------|
D#|--------|--------|--------|--------|--------|--------|--------|--------|--------|


D#|--------|--------|--------|--------|--------|--------|--------|--------|--------|
A#|--------|--------|--------|--------|--------|--------|--------|--------|--------|
F#|--------|--------|--------|--------|--------|--------|--------|--------|--------|
C#|--------|--------|--------|--------|--------|--------|--------|--------|--------|
G#|--------|--------|--------|--------|--------|--------|--------|--------|--------|
D#|--------|--------|--------|--------|--------|--------|--------|--------|--------|


D#|--------|--------|--------|
A#|--------|--------|--------|
F#|--------|--------|--------|
C#|--------|--------|--------|
G#|--------|--------|--------|
D#|--------|--------|--------|





Track 3: Distortion I

D#|----------7------------------------|-----------------------------------|---------------------------|
A#|------8-------8--7--5--0---3-------|----------3------------------------|---------------------------|
F#|-------------------------------2---|------4-------4--2--0------0-------|---------------------------|
C#|-----------------------------------|-----------------------4-------2---|---------------4---2-------|
G#|-----------------------------------|-----------------------------------|-------2---5-----------2---|
D#|-0---------------------------------|-0---------------------------------|-0-------------------------|


D#|---------------------------|----------7------------------------|-----------------------------------|
A#|---------------------------|------8-------8--7--5--0---3-------|----------3------------------------|
F#|---------------------------|-------------------------------2---|------4-------4--2--0------0-------|
C#|---------------4---2-------|-----------------------------------|-----------------------4-------2---|
G#|-------2---5-----------2---|-----------------------------------|-----------------------------------|
D#|-0-------------------------|-0---------------------------------|-0---------------------------------|


D#|---------------------------|---------------------------|----------7------------------------|
A#|---------------------------|---------------------------|------8-------8--7--5--0---3-------|
F#|---------------------------|---------------------------|-------------------------------2---|
C#|---------------4---2-------|---------------4---2-------|-----------------------------------|
G#|-------2---5-----------2---|-------2---5-----------2---|-----------------------------------|
D#|-0-------------------------|-0-------------------------|-0---------------------------------|


D#|-----------------------------------|---------------------------|---------------------------|
A#|----------3------------------------|---------------------------|---------------------------|
F#|------4-------4--2--0------0-------|---------------------------|---------------------------|
C#|-----------------------4-------2---|---------------4---2-------|---------------4---2-------|
G#|-----------------------------------|-------2---5-----------2---|-------2---5-----------2---|
D#|-0---------------------------------|-0-------------------------|-0-------------------------|


D#|----------7------------------------|-----------------------------------|---------------------------|
A#|------8-------8--7--5--0---3-------|----------3------------------------|---------------------------|
F#|-------------------------------2---|------4-------4--2--0------0-------|---------------------------|
C#|-----------------------------------|-----------------------4-------2---|---------------4---2-------|
G#|-----------------------------------|-----------------------------------|-------2---5-----------2---|
D#|-0---------------------------------|-0---------------------------------|-0-------------------------|


D#|---------------------------|-----------------------------------|--------------------------------|
A#|---------------------------|-----------------------------------|--------------------------------|
F#|---------------------------|-----------------------------------|--------------------------------|
C#|---------------------------|-5----5---3--3--3------------------|-8----8----8----7-----------5---|
G#|---------------2-------0---|-5----5---3--3--3--4---5---4---2---|-8----8----8----7-----------5---|
D#|-0-----0---3-------2-------|-3----3---3--3--3--2---3---2---0---|-6----6----6----5-----------3---|


D#|------0-----------------------|------0-----------------------|-----------------------------------|
A#|------0-----------------------|------0-----------------------|-----------------------------------|
F#|------------------------------|------------------------------|-----------------------------------|
C#|-2----------------4---2---2---|-2----------------------------|-5----5---3--3--3------------------|
G#|-2------------5-----------2---|-2----------------2-------0---|-5----5---3--3--3--4---5---4---2---|
D#|-0--------0-------------------|-0--------0---3-------2-------|-3----3---3--3--3--2---3---2---0---|


D#|--------------------------------|------0-----------------------|------0-----------------------|
A#|--------------------------------|------0-----------------------|------0-----------------------|
F#|--------------------------------|------------------------------|------------------------------|
C#|-8----8----8----7-----------5---|-2----------------4---2---2---|-2----------------4---2---2---|
G#|-8----8----8----7-----------5---|-2------------5-----------2---|-2------------5-----------2---|
D#|-6----6----6----5-----------3---|-0--------0-------------------|-0--------0-------------------|


D#|----------7------------------------|-----------------------------------|------0-----------------------|
A#|------8-------8--7--5--0---3-------|----------3------------------------|------0-----------------------|
F#|-------------------------------2---|------4-------4--2--0------0-------|------------------------------|
C#|-----------------------------------|-----------------------4-------2---|-2----------------4---2---2---|
G#|-----------------------------------|-----------------------------------|-2--------2---5-----------2---|
D#|-0---------------------------------|-0---------------------------------|-0----------------------------|


D#|------0-----------------------|----------7------------------------|-----------------------------------|
A#|------0-----------------------|------8-------8--7--5--0---3-------|----------3------------------------|
F#|------------------------------|-------------------------------2---|------4-------4--2--0------0-------|
C#|-2----------------4---2---2---|-----------------------------------|-----------------------4-------2---|
G#|-2--------2---5-----------2---|-----------------------------------|-----------------------------------|
D#|-0----------------------------|-0---------------------------------|-0---------------------------------|


D#|------0-----------------------|------0-----------------------|--------------------------------|
A#|------0-----------------------|------0-----------------------|--------------------------------|
F#|------------------------------|------------------------------|--------------------------------|
C#|-2----------------4---2---2---|-2----------------------------|-5----5---3--3------------------|
G#|-2--------2---5-----------2---|-2----------------2-------0---|-5----5---3--3--4---5---4---2---|
D#|-0----------------------------|-0--------0---3-------2-------|-3----3---3--3--2---3---2---0---|


D#|--------------------------------|------0-----------------------|------0-----------------------|
A#|--------------------------------|------0-----------------------|------0-----------------------|
F#|--------------------------------|------------------------------|------------------------------|
C#|-8----8----8----7-----------5---|-2----------------4---2---2---|-2----------------------------|
G#|-8----8----8----7-----------5---|-2------------5-----------2---|-2----------------2-------0---|
D#|-6----6----6----5-----------3---|-0--------0-------------------|-0--------0---3-------2-------|


D#|-----------------------------------|--------------------------------|------0------------0-------|
A#|-----------------------------------|--------------------------------|------0------------0-------|
F#|-----------------------------------|--------------------------------|--------------4------------|
C#|-5----5---3--3--3------------------|-8----8----8----7-----------5---|-2------------4------------|
G#|-5----5---3--3--3--4---5---4---2---|-8----8----8----7-----------5---|-2------------2--------3---|
D#|-3----3---3--3--3--2---3---2---0---|-6----6----6----5-----------3---|-0--------0------------1---|


D#|---------------------------------|------0------------0-------|---------------------------------|
A#|---------------------------------|------0------------0-------|---------------------------------|
F#|---------------------------------|--------------4------------|---------------------------------|
C#|---------------------------------|-2------------4------------|---------------------------------|
G#|-5---3---5---3---5---6---5---3---|-2------------2--------3---|-5---3---5---3---5---6---5---3---|
D#|-3---1---3---1---3---4---3---1---|-0--------0------------1---|-3---1---3---1---3---4---3---1---|


D#|------0------------0-------|---------------------------------|------0------------0-------|
A#|------0------------0-------|---------------------------------|------0------------0-------|
F#|--------------4------------|---------------------------------|--------------4------------|
C#|-2------------4------------|---------------------------------|-2------------4------------|
G#|-2------------2--------3---|-5---3---5---3---5---6---5---3---|-2------------2--------3---|
D#|-0--------0------------1---|-3---1---3---1---3---4---3---1---|-0--------0------------1---|


D#|---------------------------------|---------------------------------------|-------------------------------------|
A#|---------------------------------|---------------------------------------|-------------------------------------|
F#|---------------------------------|---------------------------------------|-------------------------------------|
C#|---------------------------------|-9---9--9--9---9-------8--8--8--8------|-7---7--7--7---7-----------------10--|
G#|-5---3---5---3---5---6---7---8---|-7---7--7--7---7---8---8--8--8--8--8---|-5---5--5--5---5---9--9--8---7---8---|
D#|-3---1---3---1---3---4---5---6---|-----7--7--7-------6---6--6--6--6--6---|-----5--5--5-------7--7--6---5-------|


D#|---------------------------------------|---------------------------------------|
A#|---------------------------------------|---------------------------------------|
F#|---------------------------------------|---------------------------------------|
C#|-9---9--9--9---9-------8--8--8--8------|-7---7--7--7---7-------------------10--|
G#|-7---7--7--7---7---8---8--8--8--8--8---|-5---5--5--5---5---9--9--8---7--7--8---|
D#|-----7--7--7-------6---6--6--6--6--6---|-----5--5--5-------7--7--6---5--5------|


D#|---------------------------------------|-------------------------------------|---------------------------------------|
A#|---------------------------------------|-------------------------------------|---------------------------------------|
F#|---------------------------------------|-------------------------------------|---------------------------------------|
C#|-9---9--9--9---9-------8--8--8--8------|-7---7--7--7---7-----------------10--|-9---9--9--9---9-------8--8--8--8------|
G#|-7---7--7--7---7---8---8--8--8--8--8---|-5---5--5--5---5---9--9--8---7---8---|-7---7--7--7---7---8---8--8--8--8--8---|
D#|-----7--7--7-------6---6--6--6--6--6---|-----5--5--5-------7--7--6---5-------|-----7--7--7-------6---6--6--6--6--6---|


D#|---------------------------------------|---------------------------------------|
A#|---------------------------------------|---------------------------------------|
F#|---------------------------------------|---------------------------------------|
C#|-7---7--7--7---7-------------------10--|-9---9--9--9---9-------8--8--8--8------|
G#|-5---5--5--5---5---9--9--8---7--7--8---|-7---7--7--7---7---8---8--8--8--8--8---|
D#|-----5--5--5-------7--7--6---5--5------|-----7--7--7-------6---6--6--6--6--6---|


D#|-------------------------------------|-12---9--------------|---------------------|
A#|-------------------------------------|-----------11---8----|---------------------|
F#|-------------------------------------|---------------------|-9----6--------------|
C#|-7---7--7--7---7-----------------10--|---------------------|-----------8----5----|
G#|-5---5--5--5---5---9--9--8---7---8---|---------------------|---------------------|
D#|-----5--5--5-------7--7--6---5-------|---------------------|---------------------|


D#|---------------------------------------|-------------------------------------|---------------------------------------|
A#|---------------------------------------|-------------------------------------|---------------------------------------|
F#|---------------------------------------|-------------------------------------|---------------------------------------|
C#|-9---9--9--9---9-------8--8--8--8------|-7---7--7--7---7-----------------10--|-9---9--9--9---9-------8--8--8--8------|
G#|-7---7--7--7---7---8---8--8--8--8--8---|-5---5--5--5---5---9--9--8---7---8---|-7---7--7--7---7---8---8--8--8--8--8---|
D#|-----7--7--7-------6---6--6--6--6--6---|-----5--5--5-------7--7--6---5-------|-----7--7--7-------6---6--6--6--6--6---|


D#|-------------------------------------|---------------------------------------|-------------------------------------|
A#|-------------------------------------|---------------------------------------|-------------------------------------|
F#|-------------------------------------|---------------------------------------|-------------------------------------|
C#|-7---7--7--7---7-----------------10--|-9---9--9--9---9-------8--8--8--8------|-7---7--7--7---7-----------------10--|
G#|-5---5--5--5---5---9--9--8---7---8---|-7---7--7--7---7---8---8--8--8--8--8---|-5---5--5--5---5---9--9--8---7---8---|
D#|-----5--5--5-------7--7--6---5-------|-----7--7--7-------6---6--6--6--6--6---|-----5--5--5-------7--7--6---5-------|


D#|---------------------------------------|-------------------------------------|-7--------7---6--------6---|
A#|---------------------------------------|-------------------------------------|------5------------5-------|
F#|---------------------------------------|-------------------------------------|---------------------------|
C#|-9---9--9--9---9-------8--8--8--8------|-7---7--7--7---7-----------------10--|---------------------------|
G#|-7---7--7--7---7---8---8--8--8--8--8---|-5---5--5--5---5---9--9--8---7---8---|---------------------------|
D#|-----7--7--7-------6---6--6--6--6--6---|-----5--5--5-------7--7--6---5-------|---------------------------|


D#|-5--6--5-------5---3---------------|-7--------7---6--------6---|-5--6--5-------5---3---------------|
A#|-----------5-----------------------|------5------------5-------|-----------5-------------------7---|
F#|-----------------------4-------4---|---------------------------|-----------------------4-----------|
C#|---------------------------5-------|---------------------------|---------------------------5-------|
G#|-----------------------------------|---------------------------|-----------------------------------|
D#|-----------------------------------|---------------------------|-----------------------------------|


D#|-9--------9---8--------8---|-7--8--7-------7---5---------------|-9--------9---8--------8---|
A#|------7------------7-------|-----------7-----------------------|------7------------7-------|
F#|---------------------------|-----------------------6-------6---|---------------------------|
C#|---------------------------|---------------------------7-------|---------------------------|
G#|---------------------------|-----------------------------------|---------------------------|
D#|---------------------------|-----------------------------------|---------------------------|


D#|-7--8--7-------7---5-----------6---|-10-------10--9--------9---|-10-------10--9--------9---|
A#|-----------7-----------------------|------8------------8-------|------8------------8-------|
F#|-----------------------6-----------|---------------------------|---------------------------|
C#|---------------------------7-------|---------------------------|---------------------------|
G#|-----------------------------------|---------------------------|---------------------------|
D#|-----------------------------------|---------------------------|---------------------------|


D#|-10------9-------10------9-------|-10-7-----7--9--7-----7--10-7-----7--9--7-----7--|
A#|-----8-------8-------8-------8---|-------8-----------8-----------8-----------8-----|
F#|---------------------------------|-------------------------------------------------|
C#|---------------------------------|-------------------------------------------------|
G#|---------------------------------|-------------------------------------------------|
D#|---------------------------------|-------------------------------------------------|


D#|--------|--------------------|--------------------|--------|--------------------|
A#|--------|--------------------|--------------------|--------|--------------------|
F#|--------|--------------------|--------------------|--------|--------------------|
C#|-2------|-2---2---2----2-----|-------2---2---2----|-2------|-2---2---2----2-----|
G#|-2------|-2---2---2----2-----|-------2---2---2----|-2------|-2---2---2----2-----|
D#|-0------|-0---0---0----0-----|-------0---0---0----|-0------|-0---0---0----0-----|


D#|--------------------|-------------|------------------------|--------------------|
A#|--------------------|-------------|------------------------|--------------------|
F#|--------------------|-9----9------|--------------9----9----|--------------------|
C#|-------2---2---2----|-------------|-2---2---2--------------|-------2---2---2----|
G#|-------2---2---2----|-7----7------|-2---2---2----7----7----|-------2---2---2----|
D#|-------0---0---0----|-------------|-0---0---0--------------|-------0---0---0----|


D#|-------------|------------------------|--------------------|--------|--------------------|
A#|-------------|------------------------|--------------------|--------|--------------------|
F#|-9----9------|--------------9----9----|--------------------|--------|--------------------|
C#|-------------|-2---2---2--------------|-------2---2---2----|-2------|-2---2---2----2-----|
G#|-7----7------|-2---2---2----7----7----|-------2---2---2----|-2------|-2---2---2----2-----|
D#|-------------|-0---0---0--------------|-------0---0---0----|-0------|-0---0---0----0-----|


D#|--------------------|--------|--------------------|--------------------|--------|
A#|--------------------|--------|--------------------|--------------------|--------|
F#|--------------------|--------|--------------------|--------------------|--------|
C#|-------2---2---2----|-2------|-2---2---2----2-----|-------2---2---2----|-2------|
G#|-------2---2---2----|-2------|-2---2---2----2-----|-------2---2---2----|-2------|
D#|-------0---0---0----|-0------|-0---0---0----0-----|-------0---0---0----|-0------|





Track 4: Distortion II

D#|--------|--------|--------|--------|--------|--------|--------|--------|--------|
A#|--------|--------|--------|--------|--------|--------|--------|--------|--------|
F#|--------|--------|--------|--------|--------|--------|--------|--------|--------|
C#|--------|--------|--------|--------|--------|--------|--------|--------|--------|
G#|--------|--------|--------|--------|--------|--------|--------|--------|--------|
D#|--------|--------|--------|--------|--------|--------|--------|--------|--------|


D#|--------|--------|--------|--------|--------|--------|--------|--------|--------|
A#|--------|--------|--------|--------|--------|--------|--------|--------|--------|
F#|--------|--------|--------|--------|--------|--------|--------|--------|--------|
C#|--------|--------|--------|--------|--------|--------|--------|--------|--------|
G#|--------|--------|--------|--------|--------|--------|--------|--------|--------|
D#|--------|--------|--------|--------|--------|--------|--------|--------|--------|


D#|--------|--------|--------|--------|--------|--------|----------3------------------------|
A#|--------|--------|--------|--------|--------|--------|------5-------5--3--0--------------|
F#|--------|--------|--------|--------|--------|--------|-----------------------0---2-------|
C#|--------|--------|--------|--------|--------|--------|-------------------------------2---|
G#|--------|--------|--------|--------|--------|--------|-----------------------------------|
D#|--------|--------|--------|--------|--------|--------|-0---------------------------------|


D#|-----------------------------------|------0-----------------------|------0-----------------------|
A#|-----------------------------------|------0-----------------------|------0-----------------------|
F#|----------4------------------------|------------------------------|------------------------------|
C#|------5-------5--4--2--0---2---2---|-2----------------4---2---2---|-2----------------4---2---2---|
G#|-------------------------------2---|-2--------2---5-----------2---|-2--------2---5-----------2---|
D#|-0---------------------------------|-0----------------------------|-0----------------------------|


D#|----------3------------------------|-----------------------------------|------0-----------------------|
A#|------5-------5--3--0--------------|-----------------------------------|------0-----------------------|
F#|-----------------------0---2-------|----------4------------------------|------------------------------|
C#|-------------------------------2---|------5-------5--4--2--0---2---2---|-2----------------4---2---2---|
G#|-----------------------------------|-------------------------------2---|-2--------2---5-----------2---|
D#|-0---------------------------------|-0---------------------------------|-0----------------------------|


D#|------0-----------------------|--------|--------|--------|--------|--------|--------|
A#|------0-----------------------|--------|--------|--------|--------|--------|--------|
F#|------------------------------|--------|--------|--------|--------|--------|--------|
C#|-2----------------------------|--------|--------|--------|--------|--------|--------|
G#|-2----------------2-------0---|--------|--------|--------|--------|--------|--------|
D#|-0--------0---3-------2-------|--------|--------|--------|--------|--------|--------|


D#|--------|--------|--------|--------|--------|--------|--------|--------|--------------------|
A#|--------|--------|--------|--------|--------|--------|--------|--------|--------------------|
F#|--------|--------|--------|--------|--------|--------|--------|--------|--------------------|
C#|--------|--------|--------|--------|--------|--------|--------|--------|-9------------------|
G#|--------|--------|--------|--------|--------|--------|--------|--------|-7------------------|
D#|--------|--------|--------|--------|--------|--------|--------|--------|--------------------|


D#|--------|--------|--------|--------|--------|--------|--------|--------|-------------------------------------|
A#|--------|--------|--------|--------|--------|--------|--------|--------|-------------------------------------|
F#|--------|--------|--------|--------|--------|--------|--------|--------|-------------------------------------|
C#|--------|--------|--------|--------|--------|--------|--------|--------|-7---7--7--7---7-----------------10--|
G#|--------|--------|--------|--------|--------|--------|--------|--------|-5---5--5--5---5---9--9--8---7---8---|
D#|--------|--------|--------|--------|--------|--------|--------|--------|-----5--5--5-------7--7--6---5-------|


D#|-15---12-------------|---------------------|--------|--------|--------|--------|
A#|-----------14---11---|---------------------|--------|--------|--------|--------|
F#|---------------------|-12---9--------------|--------|--------|--------|--------|
C#|---------------------|-----------11---8----|--------|--------|--------|--------|
G#|---------------------|---------------------|--------|--------|--------|--------|
D#|---------------------|---------------------|--------|--------|--------|--------|


D#|--------|--------|--------|--------|---------------------------|-----------------------------------|
A#|--------|--------|--------|--------|---------------------------|-----------------------------------|
F#|--------|--------|--------|--------|-7--------7---6--------6---|-5--6--5-------5-------------------|
C#|--------|--------|--------|--------|------5------------5-------|-----------5-------9---5-------5---|
G#|--------|--------|--------|--------|---------------------------|---------------------------7-------|
D#|--------|--------|--------|--------|---------------------------|-----------------------------------|


D#|---------------------------|-----------------------------------|---------------------------|
A#|---------------------------|-----------------------------------|---------------------------|
F#|-7--------7---6--------6---|-5--6--5-------5-------------------|-9--------9---8--------8---|
C#|------5------------5-------|-----------5-------9---5-------5---|------7------------7-------|
G#|---------------------------|---------------------------7-------|---------------------------|
D#|---------------------------|-----------------------------------|---------------------------|


D#|-----------------------------------|---------------------------|-----------------------------------|
A#|-----------------------------------|---------------------------|-----------------------------------|
F#|-7--8--7-------7-------------------|-9--------9---8--------8---|-7--8--7-------7-------------------|
C#|-----------7-------11--7-------7---|------7------------7-------|-----------7-------11--7-------7---|
G#|---------------------------9-------|---------------------------|---------------------------9-------|
D#|-----------------------------------|---------------------------|-----------------------------------|


D#|---------------------------|---------------------------|---------------------------------|
A#|---------------------------|---------------------------|---------------------------------|
F#|-10-------10--9--------9---|-10-------10--9--------9---|-10------9-------10------9-------|
C#|------8------------8-------|------8------------8-------|-----8-------8-------8-------8---|
G#|---------------------------|---------------------------|---------------------------------|
D#|---------------------------|---------------------------|---------------------------------|


D#|-------------------------------------------------|--------|--------|--------|--------|
A#|-------------------------------------------------|--------|--------|--------|--------|
F#|-10-7-----7--9--7-----7--10-7-----7--9--7-----7--|--------|--------|--------|--------|
C#|-------8-----------8-----------8-----------8-----|--------|--------|--------|--------|
G#|-------------------------------------------------|--------|--------|--------|--------|
D#|-------------------------------------------------|--------|--------|--------|--------|


D#|--------|--------|-------------|------------------------|--------------------|-------------|
A#|--------|--------|-------------|------------------------|--------------------|-------------|
F#|--------|--------|-------------|------------------------|--------------------|-------------|
C#|--------|--------|-9----9------|-2---2---2----9----9----|-------2---2---2----|-9----9------|
G#|--------|--------|-7----7------|-2---2---2----7----7----|-------2---2---2----|-10---10-----|
D#|--------|--------|-------------|-0---0---0--------------|-------0---0---0----|-------------|


D#|------------------------|--------------------|--------|--------|--------|--------|
A#|------------------------|--------------------|--------|--------|--------|--------|
F#|------------------------|--------------------|--------|--------|--------|--------|
C#|-2---2---2----9----9----|-------2---2---2----|--------|--------|--------|--------|
G#|-2---2---2----7----7----|-------2---2---2----|--------|--------|--------|--------|
D#|-0---0---0--------------|-------0---0---0----|--------|--------|--------|--------|


D#|--------|--------|--------|
A#|--------|--------|--------|
F#|--------|--------|--------|
C#|--------|--------|--------|
G#|--------|--------|--------|
D#|--------|--------|--------|





Track 5: Bass

F#|--------|--------|--------|--------|--------|--------|--------|--------|--------|
C#|--------|--------|--------|--------|--------|--------|--------|--------|--------|
G#|--------|--------|--------|--------|--------|--------|--------|--------|--------|
D#|--------|--------|--------|--------|--------|--------|--------|--------|--------|


F#|--------|--------|--------|--------|--------|--------|--------|--------------------------------|
C#|--------|--------|--------|--------|--------|--------|--------|--------------------------------|
G#|--------|--------|--------|--------|--------|--------|--------|--------------------------------|
D#|--------|--------|--------|--------|--------|--------|--------|-3-----3--3--3--2---3---2---0---|


F#|--------------------------------|---------------------------|---------------------------|
C#|--------------------------------|---------------4---2-------|---------------------------|
G#|--------------------------------|-----------5-----------2---|---------------2-------0---|
D#|-6----6----6----5-----------3---|-0-----0-------------------|-0-----0---3-------2-------|


F#|--------------------------------|--------------------------------|---------------------------|
C#|--------------------------------|--------------------------------|---------------4---2-------|
G#|--------------------------------|--------------------------------|-----------5-----------2---|
D#|-3-----3--3--3--2---3---2---0---|-6----6----6----5-----------3---|-0-----0-------------------|


F#|---------------------------|---------------------|--------------------|---------------------------|
C#|---------------4---2-------|---------------------|-5-----4----2-------|---------------4---2-------|
G#|-----------5-----------2---|-----------5----5----|----------------2---|-----------5-----------2---|
D#|-0-----0-------------------|-0-----0-------------|--------------------|-0-----0-------------------|


F#|---------------------------|---------------------|--------------------|---------------------------|
C#|---------------4---2-------|---------------------|-5-----4----2-------|---------------4---2-------|
G#|-----------5-----------2---|-----------5----5----|----------------2---|-----------5-----------2---|
D#|-0-----0-------------------|-0-----0-------------|--------------------|-0-----0-------------------|


F#|---------------------------|-----------------------------|--------------------------------|
C#|---------------------------|-----------------------------|--------------------------------|
G#|---------------2-------0---|-----------------------------|--------------------------------|
D#|-0-----0---3-------2-------|-3-----3--3--2---3---2---0---|-6----6----6----5-----------3---|


F#|---------------------------|---------------------------|--------------------------------|
C#|---------------4---2-------|---------------------------|--------------------------------|
G#|-----------5-----------2---|---------------2-------0---|--------------------------------|
D#|-0-----0-------------------|-0-----0---3-------2-------|-3-----3--3--3--2---3---2---0---|


F#|--------------------------------|---------------------|---------------------------------|
C#|--------------------------------|---------------------|---------------------------------|
G#|--------------------------------|-----------2---------|---------------------------------|
D#|-6----6----6----5-----------3---|-0-----0---------1---|-3---1---3---1---3---4---3---1---|


F#|---------------------|---------------------------------|---------------------|---------------------------------|
C#|---------------------|---------------------------------|---------------------|---------------------------------|
G#|-----------2---------|---------------------------------|-----------2---------|---------------------------------|
D#|-0-----0---------1---|-3---1---3---1---3---4---3---1---|-0-----0---------1---|-3---1---3---1---3---4---3---1---|


F#|---------------------|---------------------------------|--------------------|--------|
C#|---------------------|---------------------------------|--------------------|--------|
G#|-----------2---------|---------------------------------|--------------------|--------|
D#|-0-----0---------1---|-3---1---3---1---3---4---5---6---|-0------------------|--------|


F#|--------|---------------------------|---------------------------------------|-------------------------------------|
C#|--------|---------------------------|---------------------------------------|-------------------------------------|
G#|--------|-----------------------8---|-7---7--7--7---7-----------------------|-5---5--5--5---5-----------------8---|
D#|--------|-------7--7--6---5--5------|-------------------6---6--6--6--6--6---|-------------------7--7--6---5-------|


F#|---------------------------------------|---------------------------------------|
C#|---------------------------------------|---------------------------------------|
G#|-7---7--7--7---7-----------------------|-5---5--5--5---5-------------------8---|
D#|-------------------6---6--6--6--6--6---|-------------------7--7--6---5--5------|


F#|---------------------------------------|-------------------------------------|-9----6--------------|
C#|---------------------------------------|-------------------------------------|-----------8----5----|
G#|-7---7--7--7---7-----------------------|-5---5--5--5---5-----------------8---|---------------------|
D#|-------------------6---6--6--6--6--6---|-------------------7--7--6---5-------|---------------------|


F#|---------------------|---------------------------------------|-------------------------------------|
C#|---------------------|---------------------------------------|-------------------------------------|
G#|-7----4--------------|-7---7--7--7---7-----------------------|-5---5--5--5---5-----------------8---|
D#|-----------6----3----|-------------------6---6--6--6--6--6---|-------------------7--7--6---5-------|


F#|---------------------------------------|---------------------------------------|
C#|---------------------------------------|---------------------------------------|
G#|-7---7--7--7---7-----------------------|-5---5--5--5---5-------------------8---|
D#|-------------------6---6--6--6--6--6---|-------------------7--7--6---5--5------|


F#|---------------------------------------|-------------------------------------|---------------------------------------|
C#|---------------------------------------|-------------------------------------|---------------------------------------|
G#|-7---7--7--7---7-----------------------|-5---5--5--5---5-----------------8---|-7---7--7--7---7-----------------------|
D#|-------------------6---6--6--6--6--6---|-------------------7--7--6---5-------|-------------------6---6--6--6--6--6---|


F#|---------------------------------------|-------------------------------------|-------------------------------------|
C#|---------------------------------------|-------------------------------------|-------------------------------------|
G#|-5---5--5--5---5-------------------8---|-7---7--7--7---7---------------------|-------------------------------------|
D#|-------------------7--7--6---5--5------|-------------------6---6--6--6---6---|-5---5--5--5---5---3---3--3--3---3---|


F#|-------------------------------------|-------------------------------------|-------------------------------------|
C#|-------------------------------------|-------------------------------------|-------------------------------------|
G#|-7---7--7--7---7---------------------|-------------------------------------|-9---9--9--9---9---------------------|
D#|-------------------6---6--6--6---6---|-5---5--5--5---5---3---3--3--3---3---|-------------------8---8--8--8---8---|


F#|-------------------------------------|-------------------------------------|-------------------------------------|
C#|-------------------------------------|-------------------------------------|-------------------------------------|
G#|-------------------------------------|-9---9--9--9---9---------------------|-------------------------------------|
D#|-7---7--7--7---7---5---5--5--5---5---|-------------------8---8--8--8---8---|-7---7--7--7---7---5---5--5--5---5---|


F#|-------------------------------------|-------------------------------------|------------------------------|
C#|-5---5--5--5---5---------------------|-------------------------------------|-5----------------------------|
G#|-------------------4---4--4--4---4---|-------------------4---4--4--4---4---|------4---4-----------4---4---|
D#|-------------------------------------|-3---3--3--3---3---------------------|--------------3---3-----------|


F#|------------------------------------------------|---------------------------------|
C#|-5---0--0--0--5---0--0--0--5---0--0--0--5---0---|-5---2-------5---4---0---5---4---|
G#|------------------------------------------------|---------------------------------|
D#|------------------------------------------------|---------0-----------------------|


F#|------------------------------|------------------------------|---------------------------------|
C#|-5---2--------5---2-------5---|-4---0---5---4---5---2--------|-5---2-------5---4---0---5---4---|
G#|------------------------------|------------------------------|---------------------------------|
D#|---------0------------0-------|-------------------------0----|---------0-----------------------|


F#|------------------------------|------------------------------|---------------------------------|
C#|-5---2--------5---2-------5---|-4---0---5---4---5---2--------|-5---2-------5---4---0---5---4---|
G#|------------------------------|------------------------------|---------------------------------|
D#|---------0------------0-------|-------------------------0----|---------0-----------------------|


F#|------------------------------|------------------------------|---------------------------------|
C#|-5---2--------5---2-------5---|-4---0---5---4---5---2--------|-5---2-------5---4---0---5---4---|
G#|------------------------------|------------------------------|---------------------------------|
D#|---------0------------0-------|-------------------------0----|---------0-----------------------|


F#|------------------------------|------------------------------|---------------------------------|
C#|-5---2--------5---2-------5---|-4---0---5---4---5---2--------|-5---2-------5---4---0---5---4---|
G#|------------------------------|------------------------------|---------------------------------|
D#|---------0------------0-------|-------------------------0----|---------0-----------------------|


F#|------------------------------|------------------------------|---------------------------------|
C#|-5---2--------5---2-------5---|-4---0---5---4---5---2--------|-5---2-------5---4---0---5---4---|
G#|------------------------------|------------------------------|---------------------------------|
D#|---------0------------0-------|-------------------------0----|---------0-----------------------|


F#|------------------------------|------------------------------|--------|
C#|-5---2--------5---2-------5---|-4---0---5---4---5---2--------|--------|
G#|------------------------------|------------------------------|--------|
D#|---------0------------0-------|-------------------------0----|-0------|