Menu:

 

Search:

 

megadeth - devils island:

 



Title: Devils Island
Artist: 
Album: Peace Sells...But Who's Buying
Author: Dave Mustaine


Track 1: Dist.Gtr.I

E|----------------------------|----------------------------|----------------------------|
B|----------------------------|----------------------------|----------------------------|
G|------4----3----------------|------4----3----------------|------4----3----------------|
D|-2----4----3----------------|-2----4----3----------------|-2----4----3----------------|
A|-2----2----1----2--0--------|-2----2----1----2--0--------|-2----2----1----2--0--------|
E|-0--------------------2--3--|-0--------------------2--3--|-0--------------------2--3--|


E|----------------------------|----------------------------|----------------------------|
B|----------------------------|----------------------------|----------------------------|
G|------4----3----------------|------4----3----------------|------4----3----------------|
D|-2----4----3----------------|-2----4----3----------------|-2----4----3----------------|
A|-2----2----1----2--0--------|-2----2----1----2--0--------|-2----2----1----2--0--------|
E|-0--------------------2--3--|-0--------------------2--3--|-0--------------------2--3--|


E|----------------------------|----------------------------|-------------------------------|
B|----------------------------|----------------------------|-------------------------------|
G|------4----3----------------|------4----3----------------|-------------------------------|
D|-2----4----3----------------|-2----4----3----------------|-2----2----10--10--------------|
A|-2----2----1----2--0--------|-2----2----1----2--0--------|-2-----------------2--0--------|
E|-0--------------------2--3--|-0--------------------2--3--|-0-----------------------2--3--|


E|-------------------------------|-------------------------------|-----------------|
B|-------------------------------|-------------------------------|-----------------|
G|-------------------------------|-------------------------------|-----------------|
D|-2----2----10--10--------------|-2----2----10--10--------------|-2----2----------|
A|-2-----------------2--0--------|-2-----------------2--0--------|-2---------------|
E|-0-----------------------2--3--|-0-----------------------2--3--|-0---------------|


E|--------|--------|--------|--------|--------|-----------------|--------|-------------|
B|--------|--------|--------|--------|--------|-----------------|--------|-------------|
G|--------|--------|--------|--------|-9------|-9---------------|--------|-------------|
D|--------|--------|--------|--------|-9------|-9---------------|--------|-------------|
A|--------|--------|--------|--------|-7------|-7---------------|--------|-------------|
E|--------|--------|--------|--------|--------|-----------------|--------|--------12---|


E|-----------------------------------------|-----------------------------------------|
B|-----------------------------------------|-----------------------------------------|
G|-----------------------------------------|-----------------------------------------|
D|-2---------------------------------------|-3---------------------------------------|
A|-2---------------------------------------|-3---------------------------------------|
E|-0---0--0--0---0--0--0---0--0--0---0--0--|-1---1--1--1---1--1--1---1--1--1---1--1--|


E|-----------------------------------------|-----------------------------------------|
B|-----------------------------------------|-----------------------------------------|
G|-----------------------------------------|-----------------------------------------|
D|-4---------------------------------------|-5---------------------------------------|
A|-4---------------------------------------|-5---------------------------------------|
E|-2---2--2--2---2--2--2---2--2--2---2--2--|-3---3--3--3---3--3--3---3--3--3---3--3--|


E|-----------------------------------------|-----------------------------------------|
B|-----------------------------------------|-----------------------------------------|
G|-----------------------------------------|-----------------------------------------|
D|-2---------------------------------------|-3---------------------------------------|
A|-2---------------------------------------|-3---------------------------------------|
E|-0---0--0--0---0--0--0---0--0--0---0--0--|-1---1--1--1---1--1--1---1--1--1---1--1--|


E|-----------------------------------------|-----------------------------------------|
B|-----------------------------------------|-----------------------------------------|
G|-----------------------------------------|-----------------------------------------|
D|-4---------------------------------------|-5---------------------------------------|
A|-4---------------------------------------|-5---------------------------------------|
E|-2---2--2--2---2--2--2---2--2--2---2--2--|-3---3--3--3---3--3--3---3--3--3---3--3--|


E|-----------------------------------------|-----------------------------------------|
B|-----------------------------------------|-----------------------------------------|
G|-----------------------------------------|-----------------------------------------|
D|-2---------------------------------------|-3---------------------------------------|
A|-2---------------------------------------|-3---------------------------------------|
E|-0---0--0--0---0--0--0---0--0--0---0--0--|-1---1--1--1---1--1--1---1--1--1---1--1--|


E|-----------------------------------------|-----------------------------------------|
B|-----------------------------------------|-----------------------------------------|
G|-----------------------------------------|-----------------------------------------|
D|-4---------------------------------------|-5---------------------------------------|
A|-4---------------------------------------|-5---------------------------------------|
E|-2---2--2--2---2--2--2---2--2--2---2--2--|-3---3--3--3---3--3--3---3--3--3---3--3--|


E|-----------------------------------------|-----------------------------------------|
B|-----------------------------------------|-----------------------------------------|
G|-----------------------------------------|-----------------------------------------|
D|-2---------------------------------------|-3---------------------------------------|
A|-2---------------------------------------|-3---------------------------------------|
E|-0---0--0--0---0--0--0---0--0--0---0--0--|-1---1--1--1---1--1--1---1--1--1---1--1--|


E|-----------------------------------------|-----------------------------------------|
B|-----------------------------------------|-----------------------------------------|
G|-----------------------------------------|-----------------------------------------|
D|-4---------------------------------------|-5---------------------------------------|
A|-4---------------------------------------|-5---------------------------------------|
E|-2---2--2--2---2--2--2---2--2--2---2--2--|-3---3--3--3---3--3--3---3--3--3---3--3--|


E|-------------------------------|----------------------------------|-------------------------------|
B|-------------------------------|----------------------------------|-------------------------------|
G|-------------------------------|-----------7--------------9---9---|-------------------------------|
D|-2----5------------------------|-----------7--------------9---9---|-2----5------------------------|
A|-2----5------------------------|-----------5--------------7---7---|-2----5------------------------|
E|-----------0---0--0--0---0--0--|-0---0--0-------0---0--0----------|-----------0---0--0--0---0--0--|


E|----------------------------------|-------------------------------|----------------------------------|
B|----------------------------------|-------------------------------|----------------------------------|
G|-----------7--------------9---9---|-------------------------------|-----------7--------------9---9---|
D|-----------7--------------9---9---|-2----5------------------------|-----------7--------------9---9---|
A|-----------5--------------7---7---|-2----5------------------------|-----------5--------------7---7---|
E|-0---0--0-------0---0--0----------|-----------0---0--0--0---0--0--|-0---0--0-------0---0--0----------|


E|-------------------------------|----------------------------------|-------------------------------|
B|-------------------------------|----------------------------------|-------------------------------|
G|-------------------------------|-----------7--------------9---9---|-------------------------------|
D|-2----5------------------------|-----------7--------------9---9---|-2----5----2-------------------|
A|-2----5------------------------|-----------5--------------7---7---|-2----5----2-------------------|
E|-----------0---0--0--0---0--0--|-0---0--0-------0---0--0----------|-----------0---0--0--0---0--0--|


E|-----------------------------------------|-----------------------------------------|
B|-----------------------------------------|-----------------------------------------|
G|-----------------------------------------|-----------------------------------------|
D|---------------------3-------------------|---------------------4-------------------|
A|---------------------3-------------------|---------------------4-------------------|
E|-0---0--0--0---0--0--1---1--1--1---1--1--|-1---1--1--1---1--1--2---2--2--2---2--2--|


E|-----------------------------------------|-----------------------------------------|
B|-----------------------------------------|-----------------------------------------|
G|-----------------------------------------|-----------------------------------------|
D|---------------------5-------------------|---------------------2-------------------|
A|---------------------5-------------------|---------------------2-------------------|
E|-2---2--2--2---2--2--3---3--3--3---3--3--|-3---3--3--3---3--3--0---0--0--0---0--0--|


E|-----------------------------------------|-----------------------------------------|
B|-----------------------------------------|-----------------------------------------|
G|-----------------------------------------|-----------------------------------------|
D|---------------------3-------------------|---------------------4-------------------|
A|---------------------3-------------------|---------------------4-------------------|
E|-0---0--0--0---0--0--1---1--1--1---1--1--|-1---1--1--1---1--1--2---2--2--2---2--2--|


E|-----------------------------------------|-------------------------------|------------------------------------|
B|-----------------------------------------|-------------------------------|------------------------------------|
G|-----------------------------------------|-------------------------------|-------------------------------7----|
D|---------------------5-------------------|---------------------2----5----|-------------------------------7----|
A|---------------------5-------------------|---------------------2----5----|-------------------------------5----|
E|-2---2--2--2---2--2--3---3--3--3---3--3--|-3---3--3--5---0--0------------|-0---0--0--0---0--0--0---0--0-------|


E|-----------------------------|------------------------------------|-----------------------------|
B|-----------------------------|------------------------------------|-----------------------------|
G|-----------9---9-------------|-------------------------------7----|-----------9---9-------------|
D|-----------9---9---2----5----|-------------------------------7----|-----------9---9---2----5----|
A|-----------7---7---2----5----|-------------------------------5----|-----------7---7---2----5----|
E|-0---0--0--------------------|-0---0--0--0---0--0--0---0--0-------|-0---0--0--------------------|


E|------------------------------------|-----------------------------|------------------------------------|
B|------------------------------------|-----------------------------|------------------------------------|
G|-------------------------------7----|-----------9---9-------------|-------------------------------7----|
D|-------------------------------7----|-----------9---9---2----5----|-------------------------------7----|
A|-------------------------------5----|-----------7---7---2----5----|-------------------------------5----|
E|-0---0--0--0---0--0--0---0--0-------|-0---0--0--------------------|-0---0--0--0---0--0--0---0--0-------|


E|-----------------------------|-----------------------------------------|-----------------------------------------|
B|-----------------------------|-----------------------------------------|-----------------------------------------|
G|-----------9---9-------------|-----------------------------------------|-----------------------------------------|
D|-----------9---9---2----5----|-----------5-------------------6--6--5---|-----------5-------------------6--6--5---|
A|-----------7---7---2----5----|-----------5-------------------6--6--5---|-----------5-------------------6--6--5---|
E|-0---0--0--------------------|-0---0--0------0--0--0---0--0------------|-0---0--0------0--0--0---0--0------------|


E|-----------------------------------------|-----------------------------------------|
B|-----------------------------------------|-----------------------------------------|
G|-----------------------------------------|-----------------------------------------|
D|-----------5-------------------6--6--5---|-----------5-------------------6--6--5---|
A|-----------5-------------------6--6--5---|-----------5-------------------6--6--5---|
E|-0---0--0------0--0--0---0--0------------|-0---0--0------0--0--0---0--0------------|


E|-----------------------------------------|-----------------------------------------|
B|-----------------------------------------|-----------------------------------------|
G|-----------------------------------------|-----------------------------------------|
D|-----------5-------------------6--6--5---|-----------5-------------------6--6--5---|
A|-----------5-------------------6--6--5---|-----------5-------------------6--6--5---|
E|-0---0--0------0--0--0---0--0------------|-0---0--0------0--0--0---0--0------------|


E|-----------------------------------------|-----------------------------------------|
B|-----------------------------------------|-----------------------------------------|
G|-----------------------------------------|-----------------------------------------|
D|-----------5-------------------6--6--5---|-----------5-------------------6--6--5---|
A|-----------5-------------------6--6--5---|-----------5-------------------6--6--5---|
E|-0---0--0------0--0--0---0--0------------|-0---0--0------0--0--0---0--0------------|


E|-----------------------------------------|-----------------------------------------|
B|-----------------------------------------|-----------------------------------------|
G|-----------------------------------------|-------------------------------2--2--3---|
D|-----------5-------------------6--6--5---|-----------5-------------------2--2--3---|
A|-----------5-------------------6--6--5---|-----------5-----------------------------|
E|-0---0--0------0--0--0---0--0------------|-0---0--0------0--0--0---0--0------------|


E|-----------------------------------------|-----------------------------------------|
B|-----------------------------------------|-----------------------------------------|
G|-----------------------------------------|-------------------------------2--2--3---|
D|-----------5-------------------6--6--5---|-----------5-------------------2--2--3---|
A|-----------5-------------------6--6--5---|-----------5-----------------------------|
E|-0---0--0------0--0--0---0--0------------|-0---0--0------0--0--0---0--0------------|


E|-----------------------------------------|-----------------------------------------|
B|-----------------------------------------|-----------------------------------------|
G|-----------------------------------------|-------------------------------2--2--3---|
D|-----------5-------------------6--6--5---|-----------5-------------------2--2--3---|
A|-----------5-------------------6--6--5---|-----------5-----------------------------|
E|-0---0--0------0--0--0---0--0------------|-0---0--0------0--0--0---0--0------------|


E|-----------------------------------------|-----------------------------------------|
B|-----------------------------------------|-----------------------------------------|
G|-----------------------------------------|-----------------------------------------|
D|-----------5-------------------6--6--5---|-----------5--5--4-------------4--4--3---|
A|-----------5-------------------6--6--5---|-----------5--5--4-------------4--4--3---|
E|-0---0--0------0--0--0---0--0------------|-0---0--0------------0---0--0------------|


E|-----------------------------------------|-----------------------------------------|
B|-----------------------------------------|-----------------------------------------|
G|-----------------------------------------|-------------------------------2--2--3---|
D|-----------5-------------------6--6--5---|-----------5-------------------2--2--3---|
A|-----------5-------------------6--6--5---|-----------5-----------------------------|
E|-0---0--0------0--0--0---0--0------------|-0---0--0------0--0--0---0--0------------|


E|-----------------------------------------|-----------------------------------------|
B|-----------------------------------------|-----------------------------------------|
G|-----------------------------------------|-----------------------------------------|
D|-----------5-------------------6--6--5---|-----------5--5--4-------------4--4--3---|
A|-----------5-------------------6--6--5---|-----------5--5--4-------------4--4--3---|
E|-0---0--0------0--0--0---0--0------------|-0---0--0------------0---0--0------------|


E|-----------------------------------------|-----------------------------------------|
B|-----------------------------------------|-----------------------------------------|
G|-----------------------------------------|-------------------------------2--2--3---|
D|-----------5-------------------6--6--5---|-----------5-------------------2--2--3---|
A|-----------5-------------------6--6--5---|-----------5-----------------------------|
E|-0---0--0------0--0--0---0--0------------|-0---0--0------0--0--0---0--0------------|


E|-----------------------------------------|-----------------------------------------|
B|-----------------------------------------|-----------------------------------------|
G|-----------------------------------------|-----------------------------------------|
D|-----------5-------------------6--6--5---|-----------5--5--4-------------4--4--3---|
A|-----------5-------------------6--6--5---|-----------5--5--4-------------4--4--3---|
E|-0---0--0------0--0--0---0--0------------|-0---0--0------------0---0--0------------|


E|----------------------------------------------------|------------------------------|
B|----------------------------------------------------|------------------------------|
G|----------------------------------------------------|------------------------------|
D|----------------------------------------------------|-----4-------7-------6----2---|
A|-------------------------------0--2--3--2--0--------|-----4---0---5-------4----0---|
E|-2--2--2--2--2--2--2--2--2--2-----------------2--0--|-2---2---0--------------------|


E|----------------------------------------------------|---------------------------|
B|----------------------------------------------------|---------------------------|
G|----------------------------------------------------|---------------------------|
D|----------------------------------------------------|-----4---4---5----4----2---|
A|-------------------------------0--2--3--2--0--------|-----4---4---5----4----2---|
E|-2--2--2--2--2--2--2--2--2--2-----------------2--0--|-2---2---2-----------------|


E|----------------------------------------------------|------------------------------|
B|----------------------------------------------------|------------------------------|
G|----------------------------------------------------|------------------------------|
D|----------------------------------------------------|-----4-------7-------6----2---|
A|-------------------------------0--2--3--2--0--------|-----4---0---5-------4----0---|
E|-2--2--2--2--2--2--2--2--2--2-----------------2--0--|-2---2---0--------------------|


E|----------------------------------------------------|---------------------------|
B|----------------------------------------------------|---------------------------|
G|----------------------------------------------------|---------------------------|
D|----------------------------------------------------|-----4---4---5----4----2---|
A|-------------------------------0--2--3--2--0--------|-----4---4---5----4----2---|
E|-2--2--2--2--2--2--2--2--2--2-----------------2--0--|-2---2---2-----------------|


E|----------------------------------------------------|------------------------------|
B|----------------------------------------------------|------------------------------|
G|----------------------------------------------------|------------------------------|
D|----------------------------------------------------|-----4-------7-------6----2---|
A|-------------------------------0--2--3--2--0--------|-----4---0---5-------4----0---|
E|-2--2--2--2--2--2--2--2--2--2-----------------2--0--|-2---2---0--------------------|


E|----------------------------------------------------|---------------------------|
B|----------------------------------------------------|---------------------------|
G|----------------------------------------------------|---------------------------|
D|----------------------------------------------------|-----4---4---5----4----2---|
A|-------------------------------0--2--3--2--0--------|-----4---4---5----4----2---|
E|-2--2--2--2--2--2--2--2--2--2-----------------2--0--|-2---2---2-----------------|


E|----------------------------------------------------|------------------------------|
B|----------------------------------------------------|------------------------------|
G|----------------------------------------------------|------------------------------|
D|----------------------------------------------------|-----4-------7-------6----2---|
A|-------------------------------0--2--3--2--0--------|-----4---0---5-------4----0---|
E|-2--2--2--2--2--2--2--2--2--2-----------------2--0--|-2---2---0--------------------|


E|----------------------------------------------------|---------------------------|
B|----------------------------------------------------|---------------------------|
G|----------------------------------------------------|---------------------------|
D|----------------------------------------------------|-----4---4---5----4----2---|
A|-------------------------------0--2--3--2--0--------|-----4---4---5----4----2---|
E|-2--2--2--2--2--2--2--2--2--2-----------------2--0--|-2---2---2-----------------|


E|----------------------------------------------------|---------------------------|
B|----------------------------------------------------|---------------------------|
G|----------------------------------------------------|---------------------------|
D|----------------------------------------------------|-----4-------7----6----2---|
A|-------------------------------0--2--3--2--0--------|-----4---0---5----4----0---|
E|-2--2--2--2--2--2--2--2--2--2-----------------2--0--|-2---2---0-----------------|


E|--------------------------------------------------|---------------------------|----------------------------------------------------|
B|--------------------------------------------------|---------------------------|----------------------------------------------------|
G|--------------------------------------------------|---------------------------|----------------------------------------------------|
D|--------------------------------------------------|-----4---4---5----4----2---|----------------------------------------------------|
A|-----------------------------0--2--3--2--0--------|-----4---4---5----4----2---|-------------------------------0--2--3--2--0--------|
E|-2--2--2--2--2--2--2--2--2------------------2--0--|-2---2---2-----------------|-2--2--2--2--2--2--2--2--2--2-----------------2--0--|


E|---------------------------|----------------------------------------------------|
B|---------------------------|----------------------------------------------------|
G|---------------------------|----------------------------------------------------|
D|-----4-------7----6----2---|----------------------------------------------------|
A|-----4---0---5----4----0---|-------------------------------0--2--3--2--0--------|
E|-2---2---0-----------------|-2--2--2--2--2--2--2--2--2--2-----------------2--0--|


E|---------------------------|----------------------------------------------------|
B|---------------------------|----------------------------------------------------|
G|---------------------------|----------------------------------------------------|
D|-----4---4---5----4----2---|----------------------------------------------------|
A|-----4---4---5----4----2---|-------------------------------0--2--3--2--0--------|
E|-2---2---2-----------------|-2--2--2--2--2--2--2--2--2--2-----------------2--0--|


E|---------------------------|----------------------------------------------------|
B|---------------------------|----------------------------------------------------|
G|---------------------------|----------------------------------------------------|
D|-----4-------7----6----2---|----------------------------------------------------|
A|-----4---0---5----4----0---|-------------------------------0--2--3--2--0--------|
E|-2---2---0-----------------|-2--2--2--2--2--2--2--2--2--2-----------------2--0--|


E|---------------------------|----------------------------------------------------|
B|---------------------------|----------------------------------------------------|
G|---------------------------|----------------------------------------------------|
D|-----4---4---5----4----2---|----------------------------------------------------|
A|-----4---4---5----4----2---|-------------------------------0--2--3--2--0--------|
E|-2---2---2-----------------|-2--2--2--2--2--2--2--2--2--2-----------------2--0--|


E|---------------------------|----------------------------------------------------|
B|---------------------------|----------------------------------------------------|
G|---------------------------|----------------------------------------------------|
D|-----4-------7----6----2---|----------------------------------------------------|
A|-----4---0---5----4----0---|-------------------------------0--2--3--2--0--------|
E|-2---2---0-----------------|-2--2--2--2--2--2--2--2--2--2-----------------2--0--|


E|---------------------------|-----------------------------------------|-----------------------------------------|
B|---------------------------|-----------------------------------------|-----------------------------------------|
G|---------------------------|-----------------------------------------|-----------------------------------------|
D|-----4---4---5----4----2---|-2---------------------------------------|-3---------------------------------------|
A|-----4---4---5----4----2---|-2---------------------------------------|-3---------------------------------------|
E|-2---2---2-----------------|-0---0--0--0---0--0--0---0--0--0---0--0--|-1---1--1--1---1--1--1---1--1--1---1--1--|


E|-----------------------------------------|-----------------------------------------|
B|-----------------------------------------|-----------------------------------------|
G|-----------------------------------------|-----------------------------------------|
D|-4---------------------------------------|-5---------------------------------------|
A|-4---------------------------------------|-5---------------------------------------|
E|-2---2--2--2---2--2--2---2--2--2---2--2--|-3---3--3--3---3--3--3---3--3--3---3--3--|


E|-----------------------------------------|-----------------------------------------|
B|-----------------------------------------|-----------------------------------------|
G|-----------------------------------------|-----------------------------------------|
D|-2---------------------------------------|-3---------------------------------------|
A|-2---------------------------------------|-3---------------------------------------|
E|-0---0--0--0---0--0--0---0--0--0---0--0--|-1---1--1--1---1--1--1---1--1--1---1--1--|


E|-----------------------------------------|-----------------------------------------|
B|-----------------------------------------|-----------------------------------------|
G|-----------------------------------------|-----------------------------------------|
D|-4---------------------------------------|-5---------------------------------------|
A|-4---------------------------------------|-5---------------------------------------|
E|-2---2--2--2---2--2--2---2--2--2---2--2--|-3---3--3--3---3--3--3---3--3--3---3--3--|


E|-----------------------------------------|-----------------------------------------|
B|-----------------------------------------|-----------------------------------------|
G|-----------------------------------------|-----------------------------------------|
D|-2---------------------------------------|-3---------------------------------------|
A|-2---------------------------------------|-3---------------------------------------|
E|-0---0--0--0---0--0--0---0--0--0---0--0--|-1---1--1--1---1--1--1---1--1--1---1--1--|


E|-----------------------------------------|-----------------------------------------|
B|-----------------------------------------|-----------------------------------------|
G|-----------------------------------------|-----------------------------------------|
D|-4---------------------------------------|-5---------------------------------------|
A|-4---------------------------------------|-5---------------------------------------|
E|-2---2--2--2---2--2--2---2--2--2---2--2--|-3---3--3--3---3--3--3---3--3--3---3--3--|


E|-----------------------------------------|-----------------------------------------|
B|-----------------------------------------|-----------------------------------------|
G|-----------------------------------------|-----------------------------------------|
D|-2---------------------------------------|-3---------------------------------------|
A|-2---------------------------------------|-3---------------------------------------|
E|-0---0--0--0---0--0--0---0--0--0---0--0--|-1---1--1--1---1--1--1---1--1--1---1--1--|


E|-----------------------------------------|-----------------------------------------|
B|-----------------------------------------|-----------------------------------------|
G|-----------------------------------------|-----------------------------------------|
D|-4---------------------------------------|-5---------------------------------------|
A|-4---------------------------------------|-5---------------------------------------|
E|-2---2--2--2---2--2--2---2--2--2---2--2--|-3---3--3--3---3--3--3---3--3--3---3--3--|


E|-------------------------------|----------------------------------|-------------------------------|
B|-------------------------------|----------------------------------|-------------------------------|
G|-------------------------------|-----------7--------------9---9---|-------------------------------|
D|-2----5------------------------|-----------7--------------9---9---|-2----5------------------------|
A|-2----5------------------------|-----------5--------------7---7---|-2----5------------------------|
E|-----------0---0--0--0---0--0--|-0---0--0-------0---0--0----------|-----------0---0--0--0---0--0--|


E|----------------------------------|-------------------------------|----------------------------------|
B|----------------------------------|-------------------------------|----------------------------------|
G|-----------7--------------9---9---|-------------------------------|-----------7--------------9---9---|
D|-----------7--------------9---9---|-2----5------------------------|-----------7--------------9---9---|
A|-----------5--------------7---7---|-2----5------------------------|-----------5--------------7---7---|
E|-0---0--0-------0---0--0----------|-----------0---0--0--0---0--0--|-0---0--0-------0---0--0----------|


E|-------------------------------|----------------------------------|-------------------------------|
B|-------------------------------|----------------------------------|-------------------------------|
G|-------------------------------|-----------7--------------9---9---|-------------------------------|
D|-2----5------------------------|-----------7--------------9---9---|-2----5------------------------|
A|-2----5------------------------|-----------5--------------7---7---|-2----5------------------------|
E|-----------0---0--0--0---0--0--|-0---0--0-------0---0--0----------|-----------0---0--0--0---0--0--|


E|----------------------------------|-------------------------------|----------------------------------|
B|----------------------------------|-------------------------------|----------------------------------|
G|-----------7--------------9---9---|-------------------------------|-----------7--------------9---9---|
D|-----------7--------------9---9---|-2----5------------------------|-----------7--------------9---9---|
A|-----------5--------------7---7---|-2----5------------------------|-----------5--------------7---7---|
E|-0---0--0-------0---0--0----------|-----------0---0--0--0---0--0--|-0---0--0-------0---0--0----------|


E|-------------------------------|----------------------------------|-------------------------------|
B|-------------------------------|----------------------------------|-------------------------------|
G|-------------------------------|-----------7--------------9---9---|-------------------------------|
D|-2----5------------------------|-----------7--------------9---9---|-2----5------------------------|
A|-2----5------------------------|-----------5--------------7---7---|-2----5------------------------|
E|-----------0---0--0--0---0--0--|-0---0--0-------0---0--0----------|-----------0---0--0--0---0--0--|


E|----------------------------------|-------------------------------|-----------------------------------------|
B|----------------------------------|-------------------------------|-----------------------------------------|
G|-----------7--------------9---9---|-------------------------------|-----------------------------------------|
D|-----------7--------------9---9---|-2----5--------------5---------|-----------6--6--5-------------5---------|
A|-----------5--------------7---7---|-2----5--------------5---------|-----------6--6--5-------------5---------|
E|-0---0--0-------0---0--0----------|-----------0---0--0------0--0--|-0---0--0------------0---0--0------0--0--|


E|-----------------------------------------|---------------------------------------|
B|-----------------------------------------|---------------------------------------|
G|-----------------------------------------|---------------------------------------|
D|-----------8--8--9-------------5---------|-----------6--6--5-------9--9--8-------|
A|-----------6--6--7-------------5---------|-----------6--6--5-------7--7--6-------|
E|-0---0--0------------0---0--0------0--0--|-0---0--0------------0-------------0---|


E|----------------------------------|-----------------------------------------|-----------------------------------------|
B|----------------------------------|-----------------------------------------|-----------------------------------------|
G|---------7------------------------|-----------------------------------------|-----------------------------------------|
D|---------7--------------5---------|-----------6--6--5-------------5---------|-----------8--8--9-------------5---------|
A|-8---9---5--------------5---------|-----------6--6--5-------------5---------|-----------6--6--7-------------5---------|
E|-6---7--------0---0--0------0--0--|-0---0--0------------0---0--0------0--0--|-0---0--0------------0---0--0------0--0--|


E|---------------------------------------|----------------------------------|-----------------------------------------|
B|---------------------------------------|----------------------------------|-----------------------------------------|
G|---------------------------------------|---------7------------------------|-----------------------------------------|
D|-----------6--6--5-------9--9--8-------|---------7--------------5---------|-----------6--6--5-------------5---------|
A|-----------6--6--5-------7--7--6-------|-8---9---5--------------5---------|-----------6--6--5-------------5---------|
E|-0---0--0------------0-------------0---|-6---7--------0---0--0------0--0--|-0---0--0------------0---0--0------0--0--|


E|-----------------------------------------|---------------------------------------|
B|-----------------------------------------|---------------------------------------|
G|-----------------------------------------|---------------------------------------|
D|-----------8--8--9-------------5---------|-----------6--6--5-------9--9--8-------|
A|-----------6--6--7-------------5---------|-----------6--6--5-------7--7--6-------|
E|-0---0--0------------0---0--0------0--0--|-0---0--0------------0-------------0---|


E|----------------------------------|-----------------------------------------|-----------------------------------------|
B|----------------------------------|-----------------------------------------|-----------------------------------------|
G|---------7------------------------|-----------------------------------------|-----------------------------------------|
D|---------7--------------5---------|-----------6--6--5-------------5---------|-----------8--8--9-------------5---------|
A|-8---9---5--------------5---------|-----------6--6--5-------------5---------|-----------6--6--7-------------5---------|
E|-6---7--------0---0--0------0--0--|-0---0--0------------0---0--0------0--0--|-0---0--0------------0---0--0------0--0--|


E|---------------------------------------|--------------------|--------|--------|--------|
B|---------------------------------------|--------------------|--------|--------|--------|
G|---------------------------------------|---------7----------|--------|--------|--------|
D|-----------6--6--5-------9--9--8-------|---------7----------|--------|--------|--------|
A|-----------6--6--5-------7--7--6-------|-8---9---5----------|--------|--------|--------|
E|-0---0--0------------0-------------0---|-6---7--------------|--------|--------|--------|


E|--------|--------|--------|--------|--------|--------|--------|--------|--------|
B|--------|--------|--------|--------|--------|--------|--------|--------|--------|
G|--------|--------|--------|--------|--------|--------|--------|--------|--------|
D|--------|--------|--------|--------|--------|--------|--------|--------|--------|
A|--------|--------|--------|--------|--------|--------|--------|--------|--------|
E|--------|--------|--------|--------|--------|--------|--------|--------|--------|


E|--------|--------|--------|--------|---------------------------|-----------------------------------------|
B|--------|--------|--------|--------|---------------------------|-----------------------------------------|
G|--------|--------|--------|--------|---------------------------|-----------------------------------------|
D|--------|--------|--------|--------|-----------------5---------|-----------8--8--9-------------5---------|
A|--------|--------|--------|--------|-----------------5---------|-----------6--6--7-------------5---------|
E|--------|--------|--------|--------|-------0---0--0------0--0--|-0---0--0------------0---0--0------0--0--|


E|---------------------------------------|----------------------------------|-----------------------------------------|
B|---------------------------------------|----------------------------------|-----------------------------------------|
G|---------------------------------------|---------7------------------------|-----------------------------------------|
D|-----------6--6--5-------9--9--8-------|---------7--------------5---------|-----------6--6--5-------------5---------|
A|-----------6--6--5-------7--7--6-------|-8---9---5--------------5---------|-----------6--6--5-------------5---------|
E|-0---0--0------------0-------------0---|-6---7--------0---0--0------0--0--|-0---0--0------------0---0--0------0--0--|


E|-----------------------------------------|---------------------------------------|
B|-----------------------------------------|---------------------------------------|
G|-----------------------------------------|---------------------------------------|
D|-----------8--8--9-------------5---------|-----------6--6--5-------9--9--8-------|
A|-----------6--6--7-------------5---------|-----------6--6--5-------7--7--6-------|
E|-0---0--0------------0---0--0------0--0--|-0---0--0------------0-------------0---|


E|----------------------------------|-----------------------------------------|-----------------------------------------|
B|----------------------------------|-----------------------------------------|-----------------------------------------|
G|---------7------------------------|-----------------------------------------|-----------------------------------------|
D|---------7--------------5---------|-----------6--6--5-------------5---------|-----------8--8--9-------------5---------|
A|-8---9---5--------------5---------|-----------6--6--5-------------5---------|-----------6--6--7-------------5---------|
E|-6---7--------0---0--0------0--0--|-0---0--0------------0---0--0------0--0--|-0---0--0------------0---0--0------0--0--|


E|---------------------------------------|----------------------------------|-----------------------------------------|
B|---------------------------------------|----------------------------------|-----------------------------------------|
G|---------------------------------------|---------7------------------------|-----------------------------------------|
D|-----------6--6--5-------9--9--8-------|---------7--------------5---------|-----------6--6--5-------------5---------|
A|-----------6--6--5-------7--7--6-------|-8---9---5--------------5---------|-----------6--6--5-------------5---------|
E|-0---0--0------------0-------------0---|-6---7--------0---0--0------0--0--|-0---0--0------------0---0--0------0--0--|


E|-----------------------------------------|---------------------------------------|
B|-----------------------------------------|---------------------------------------|
G|-----------------------------------------|---------------------------------------|
D|-----------8--8--9-------------5---------|-----------6--6--5-------9--9--8-------|
A|-----------6--6--7-------------5---------|-----------6--6--5-------7--7--6-------|
E|-0---0--0------------0---0--0------0--0--|-0---0--0------------0-------------0---|


E|-------------------------|-------------|
B|-------------------------|-------------|
G|-------------------------|-------------|
D|-------------------------|-------------|
A|-8---9---5--5--7---7-----|-------------|
E|-6---7-------------------|-------------|





Track 2: Dist.Gtr.II

E|----------------------------|----------------------------|----------------------------|
B|----------------------------|----------------------------|----------------------------|
G|------4----3----------------|------4----3----------------|------4----3----------------|
D|-2----4----3----4--2--------|-2----4----3----4--2--------|-2----4----3----4--2--------|
A|-2----2----1----------4--5--|-2----2----1----------4--5--|-2----2----1----------4--5--|
E|-0--------------------------|-0--------------------------|-0--------------------------|


E|----------------------------|--------|--------|--------|--------|--------|--------|
B|----------------------------|--------|--------|--------|--------|--------|--------|
G|------4----3----------------|--------|--------|--------|--------|--------|--------|
D|-2----4----3----4--2--------|--------|--------|--------|--------|--------|--------|
A|-2----2----1----------4--5--|--------|--------|--------|--------|--------|--------|
E|-0--------------------------|--------|--------|--------|--------|--------|--------|


E|--------|--------|--------|--------|--------|--------|--------|--------|--------|
B|--------|--------|--------|--------|--------|--------|--------|--------|--------|
G|--------|--------|--------|--------|--------|--------|--------|--------|--------|
D|--------|--------|--------|--------|--------|--------|--------|--------|--------|
A|--------|--------|--------|--------|--------|--------|--------|--------|--------|
E|--------|--------|--------|--------|--------|--------|--------|--------|--------|


E|--------|--------|--------|--------|--------|--------|--------|--------|--------|
B|--------|--------|--------|--------|--------|--------|--------|--------|--------|
G|--------|--------|--------|--------|--------|--------|--------|--------|--------|
D|--------|--------|--------|--------|--------|--------|--------|--------|--------|
A|--------|--------|--------|--------|--------|--------|--------|--------|--------|
E|--------|--------|--------|--------|--------|--------|--------|--------|--------|


E|--------|--------|--------|--------|--------|--------|--------|--------|-------------------------------|
B|--------|--------|--------|--------|--------|--------|--------|--------|-------------------------------|
G|--------|--------|--------|--------|--------|--------|--------|--------|-------------------------------|
D|--------|--------|--------|--------|--------|--------|--------|--------|-------------------------------|
A|--------|--------|--------|--------|--------|--------|--------|--------|-2----5------------------------|
E|--------|--------|--------|--------|--------|--------|--------|--------|-0----3----0---0--0--0---0--0--|


E|----------------------------------|-------------------------------|----------------------------------|
B|----------------------------------|-------------------------------|----------------------------------|
G|-----------7--------------9---9---|-------------------------------|-----------7--------------9---9---|
D|-----------7--------------9---9---|-------------------------------|-----------7--------------9---9---|
A|-----------5--------------7---7---|-2----5------------------------|-----------5--------------7---7---|
E|-0---0--0-------0---0--0----------|-0----3----0---0--0--0---0--0--|-0---0--0-------0---0--0----------|


E|-------------------------------|----------------------------------|-------------------------------|
B|-------------------------------|----------------------------------|-------------------------------|
G|-------------------------------|-----------7--------------9---9---|-------------------------------|
D|-------------------------------|-----------7--------------9---9---|-------------------------------|
A|-2----5------------------------|-----------5--------------7---7---|-2----5------------------------|
E|-0----3----0---0--0--0---0--0--|-0---0--0-------0---0--0----------|-0----3----0---0--0--0---0--0--|


E|----------------------------------|-----------------|--------|--------|--------|
B|----------------------------------|-----------------|--------|--------|--------|
G|-----------7--------------9---9---|-----------------|--------|--------|--------|
D|-----------7--------------9---9---|-----------------|--------|--------|--------|
A|-----------5--------------7---7---|-2----5----------|--------|--------|--------|
E|-0---0--0-------0---0--0----------|-0----3----------|--------|--------|--------|


E|--------|--------|--------|--------|-----------------|------------------------------------|
B|--------|--------|--------|--------|-----------------|------------------------------------|
G|--------|--------|--------|--------|-----------------|-------------------------------7----|
D|--------|--------|--------|--------|-----------------|-------------------------------7----|
A|--------|--------|--------|--------|-------2----5----|-------------------------------5----|
E|--------|--------|--------|--------|-------0----3----|-0---0--0--0---0--0--0---0--0-------|


E|-----------------------------|------------------------------------|-----------------------------|
B|-----------------------------|------------------------------------|-----------------------------|
G|-----------9---9-------------|-------------------------------7----|-----------9---9-------------|
D|-----------9---9-------------|-------------------------------7----|-----------9---9-------------|
A|-----------7---7---2----5----|-------------------------------5----|-----------7---7---2----5----|
E|-0---0--0----------0----3----|-0---0--0--0---0--0--0---0--0-------|-0---0--0----------0----3----|


E|------------------------------------|-----------------------------|------------------------------------|
B|------------------------------------|-----------------------------|------------------------------------|
G|-------------------------------7----|-----------9---9-------------|-------------------------------7----|
D|-------------------------------7----|-----------9---9-------------|-------------------------------7----|
A|-------------------------------5----|-----------7---7---2----5----|-------------------------------5----|
E|-0---0--0--0---0--0--0---0--0-------|-0---0--0----------0----3----|-0---0--0--0---0--0--0---0--0-------|


E|-----------------------------|--------|--------|--------|--------|--------|--------|
B|-----------------------------|--------|--------|--------|--------|--------|--------|
G|-----------9---9-------------|--------|--------|--------|--------|--------|--------|
D|-----------9---9-------------|--------|--------|--------|--------|--------|--------|
A|-----------7---7---2----5----|--------|--------|--------|--------|--------|--------|
E|-0---0--0----------0----3----|--------|--------|--------|--------|--------|--------|


E|--------|--------|--------|--------|--------|--------|--------|--------|--------|
B|--------|--------|--------|--------|--------|--------|--------|--------|--------|
G|--------|--------|--------|--------|--------|--------|--------|--------|--------|
D|--------|--------|--------|--------|--------|--------|--------|--------|--------|
A|--------|--------|--------|--------|--------|--------|--------|--------|--------|
E|--------|--------|--------|--------|--------|--------|--------|--------|--------|


E|--------|--------|--------|--------|--------|--------|--------|--------|--------|
B|--------|--------|--------|--------|--------|--------|--------|--------|--------|
G|--------|--------|--------|--------|--------|--------|--------|--------|--------|
D|--------|--------|--------|--------|--------|--------|--------|--------|--------|
A|--------|--------|--------|--------|--------|--------|--------|--------|--------|
E|--------|--------|--------|--------|--------|--------|--------|--------|--------|


E|--------|--------|--------|--------|--------|--------|--------|--------|--------|
B|--------|--------|--------|--------|--------|--------|--------|--------|--------|
G|--------|--------|--------|--------|--------|--------|--------|--------|--------|
D|--------|--------|--------|--------|--------|--------|--------|--------|--------|
A|--------|--------|--------|--------|--------|--------|--------|--------|--------|
E|--------|--------|--------|--------|--------|--------|--------|--------|--------|


E|--------|--------|--------|--------|--------|--------|--------|--------|--------|
B|--------|--------|--------|--------|--------|--------|--------|--------|--------|
G|--------|--------|--------|--------|--------|--------|--------|--------|--------|
D|--------|--------|--------|--------|--------|--------|--------|--------|--------|
A|--------|--------|--------|--------|--------|--------|--------|--------|--------|
E|--------|--------|--------|--------|--------|--------|--------|--------|--------|


E|--------|--------|--------|--------|--------|--------|--------|--------|--------|
B|--------|--------|--------|--------|--------|--------|--------|--------|--------|
G|--------|--------|--------|--------|--------|--------|--------|--------|--------|
D|--------|--------|--------|--------|--------|--------|--------|--------|--------|
A|--------|--------|--------|--------|--------|--------|--------|--------|--------|
E|--------|--------|--------|--------|--------|--------|--------|--------|--------|


E|--------|--------|--------|--------|--------|--------|--------|--------|--------|
B|--------|--------|--------|--------|--------|--------|--------|--------|--------|
G|--------|--------|--------|--------|--------|--------|--------|--------|--------|
D|--------|--------|--------|--------|--------|--------|--------|--------|--------|
A|--------|--------|--------|--------|--------|--------|--------|--------|--------|
E|--------|--------|--------|--------|--------|--------|--------|--------|--------|


E|--------|--------|--------|--------|--------|--------|--------|--------|--------|
B|--------|--------|--------|--------|--------|--------|--------|--------|--------|
G|--------|--------|--------|--------|--------|--------|--------|--------|--------|
D|--------|--------|--------|--------|--------|--------|--------|--------|--------|
A|--------|--------|--------|--------|--------|--------|--------|--------|--------|
E|--------|--------|--------|--------|--------|--------|--------|--------|--------|


E|--------|--------|--------|-------------------------------|----------------------------------|
B|--------|--------|--------|-------------------------------|----------------------------------|
G|--------|--------|--------|-------------------------------|-----------7--------------9---9---|
D|--------|--------|--------|-------------------------------|-----------7--------------9---9---|
A|--------|--------|--------|-2----5------------------------|-----------5--------------7---7---|
E|--------|--------|--------|-0----3----0---0--0--0---0--0--|-0---0--0-------0---0--0----------|


E|-------------------------------|----------------------------------|-------------------------------|
B|-------------------------------|----------------------------------|-------------------------------|
G|-------------------------------|-----------7--------------9---9---|-------------------------------|
D|-------------------------------|-----------7--------------9---9---|-------------------------------|
A|-2----5------------------------|-----------5--------------7---7---|-2----5------------------------|
E|-0----3----0---0--0--0---0--0--|-0---0--0-------0---0--0----------|-0----3----0---0--0--0---0--0--|


E|----------------------------------|-------------------------------|----------------------------------|
B|----------------------------------|-------------------------------|----------------------------------|
G|-----------7--------------9---9---|-------------------------------|-----------7--------------9---9---|
D|-----------7--------------9---9---|-------------------------------|-----------7--------------9---9---|
A|-----------5--------------7---7---|-2----5------------------------|-----------5--------------7---7---|
E|-0---0--0-------0---0--0----------|-0----3----0---0--0--0---0--0--|-0---0--0-------0---0--0----------|


E|-------------------------------|----------------------------------|-------------------------------|
B|-------------------------------|----------------------------------|-------------------------------|
G|-------------------------------|-----------7--------------9---9---|-------------------------------|
D|-------------------------------|-----------7--------------9---9---|-------------------------------|
A|-2----5------------------------|-----------5--------------7---7---|-2----5------------------------|
E|-0----3----0---0--0--0---0--0--|-0---0--0-------0---0--0----------|-0----3----0---0--0--0---0--0--|


E|----------------------------------|-------------------------------|----------------------------------|
B|----------------------------------|-------------------------------|----------------------------------|
G|-----------7--------------9---9---|-------------------------------|-----------7--------------9---9---|
D|-----------7--------------9---9---|-------------------------------|-----------7--------------9---9---|
A|-----------5--------------7---7---|-2----5------------------------|-----------5--------------7---7---|
E|-0---0--0-------0---0--0----------|-0----3----0---0--0--0---0--0--|-0---0--0-------0---0--0----------|


E|-------------------------------|----------------------------------|-----------------|
B|-------------------------------|----------------------------------|-----------------|
G|-------------------------------|-----------7--------------9---9---|-----------------|
D|-------------------------------|-----------7--------------9---9---|-----------------|
A|-2----5------------------------|-----------5--------------7---7---|-2----5----------|
E|-0----3----0---0--0--0---0--0--|-0---0--0-------0---0--0----------|-0----3----------|


E|--------|--------|--------|--------|--------|--------|--------|--------|--------|
B|--------|--------|--------|--------|--------|--------|--------|--------|--------|
G|--------|--------|--------|--------|--------|--------|--------|--------|--------|
D|--------|--------|--------|--------|--------|--------|--------|--------|--------|
A|--------|--------|--------|--------|--------|--------|--------|--------|--------|
E|--------|--------|--------|--------|--------|--------|--------|--------|--------|


E|--------|--------|--------|--------|--------|--------|--------|--------|--------|
B|--------|--------|--------|--------|--------|--------|--------|--------|--------|
G|--------|--------|--------|--------|--------|--------|--------|--------|--------|
D|--------|--------|--------|--------|--------|--------|--------|--------|--------|
A|--------|--------|--------|--------|--------|--------|--------|--------|--------|
E|--------|--------|--------|--------|--------|--------|--------|--------|--------|


E|--------|--------|--------|--------|--------|--------|--------|--------|--------|
B|--------|--------|--------|--------|--------|--------|--------|--------|--------|
G|--------|--------|--------|--------|--------|--------|--------|--------|--------|
D|--------|--------|--------|--------|--------|--------|--------|--------|--------|
A|--------|--------|--------|--------|--------|--------|--------|--------|--------|
E|--------|--------|--------|--------|--------|--------|--------|--------|--------|


E|--------|--------|--------|--------|--------|--------|--------|--------|--------|
B|--------|--------|--------|--------|--------|--------|--------|--------|--------|
G|--------|--------|--------|--------|--------|--------|--------|--------|--------|
D|--------|--------|--------|--------|--------|--------|--------|--------|--------|
A|--------|--------|--------|--------|--------|--------|--------|--------|--------|
E|--------|--------|--------|--------|--------|--------|--------|--------|--------|


E|--------|--------|-------------------------|--------------------|--------|--------|
B|--------|--------|-------------------------|--------------------|--------|--------|
G|--------|--------|-------------------------|---------7----------|--------|--------|
D|--------|--------|-----------9--9--8-------|---------7----------|--------|--------|
A|--------|--------|-----------7--7--6-------|-8---9---5----------|--------|--------|
E|--------|--------|-------0-------------0---|-6---7--------------|--------|--------|


E|-------------------------|--------------------|--------|--------|-------------------------|
B|-------------------------|--------------------|--------|--------|-------------------------|
G|-------------------------|---------7----------|--------|--------|-------------------------|
D|-----------9--9--8-------|---------7----------|--------|--------|-----------9--9--8-------|
A|-----------7--7--6-------|-8---9---5----------|--------|--------|-----------7--7--6-------|
E|-------0-------------0---|-6---7--------------|--------|--------|-------0-------------0---|


E|-----------------------------|-------------|
B|-----------------------------|-------------|
G|-----------------------------|-------------|
D|-------------------2---------|-------------|
A|-8---9---5--5--7---2---------|-------------|
E|-6---7-------------0---------|-------------|





Track 3: Solo Gtr.

E|--------|--------|--------|--------|-191512191512191512191512------------------------------------------------------------------------|
B|--------|--------|--------|--------|-------------------------201512201512201512201512191411191411191411191411181310181310181310181310|
G|--------|--------|--------|--------|-------------------------------------------------------------------------------------------------|
D|--------|--------|--------|--------|-------------------------------------------------------------------------------------------------|
A|--------|--------|--------|--------|-------------------------------------------------------------------------------------------------|
E|--------|--------|--------|--------|-------------------------------------------------------------------------------------------------|


E|-191512191512191512191512------------------------------------------------------------------------|
B|-------------------------201512201512201512201512191411191411191411191411181310181310181310181310|
G|-------------------------------------------------------------------------------------------------|
D|-------------------------------------------------------------------------------------------------|
A|-------------------------------------------------------------------------------------------------|
E|-------------------------------------------------------------------------------------------------|


E|-191512191512191512191512------------------------------------------------------------------------|
B|-------------------------201512201512201512201512191411191411191411191411181310181310181310181310|
G|-------------------------------------------------------------------------------------------------|
D|-------------------------------------------------------------------------------------------------|
A|-------------------------------------------------------------------------------------------------|
E|-------------------------------------------------------------------------------------------------|


E|-191512191512----------------------------------------------------------------------|
B|-------------201512201512191411191418131017128-16108-7-158-7-5-147-5-7-158-6-5-----|
G|-------------------------------------------------------------------------------5-7-|
D|-----------------------------------------------------------------------------------|
A|-----------------------------------------------------------------------------------|
E|-----------------------------------------------------------------------------------|


E|------------|-------------------------------------------------|--------|-------------|
B|------------|-------------------------------------------------|-0------|-0-----------|
G|-9------9---|-7---7---7---7---7---7---7---7---7---7---7---7---|--------|-------------|
D|------------|-------------------------------------------------|--------|-------------|
A|------------|-------------------------------------------------|--------|-------------|
E|------------|-------------------------------------------------|--------|-------------|


E|--------|--------|--------|--------|--------|--------|--------|--------|--------|
B|--------|--------|--------|--------|--------|--------|--------|--------|--------|
G|--------|--------|--------|--------|--------|--------|--------|--------|--------|
D|--------|--------|--------|--------|--------|--------|--------|--------|--------|
A|--------|--------|--------|--------|--------|--------|--------|--------|--------|
E|--------|--------|--------|--------|--------|--------|--------|--------|--------|


E|--------|--------|--------|--------|--------|--------|--------|--------|--------|
B|--------|--------|--------|--------|--------|--------|--------|--------|--------|
G|--------|--------|--------|--------|--------|--------|--------|--------|--------|
D|--------|--------|--------|--------|--------|--------|--------|--------|--------|
A|--------|--------|--------|--------|--------|--------|--------|--------|--------|
E|--------|--------|--------|--------|--------|--------|--------|--------|--------|


E|--------|--------|--------|--------|--------|--------|--------|--------|--------|
B|--------|--------|--------|--------|--------|--------|--------|--------|--------|
G|--------|--------|--------|--------|--------|--------|--------|--------|--------|
D|--------|--------|--------|--------|--------|--------|--------|--------|--------|
A|--------|--------|--------|--------|--------|--------|--------|--------|--------|
E|--------|--------|--------|--------|--------|--------|--------|--------|--------|


E|--------|--------|--------|--------|--------|--------|--------|--------|--------|
B|--------|--------|--------|--------|--------|--------|--------|--------|--------|
G|--------|--------|--------|--------|--------|--------|--------|--------|--------|
D|--------|--------|--------|--------|--------|--------|--------|--------|--------|
A|--------|--------|--------|--------|--------|--------|--------|--------|--------|
E|--------|--------|--------|--------|--------|--------|--------|--------|--------|


E|--------|--------|--------|--------|--------|--------|--------|--------|--------|
B|--------|--------|--------|--------|--------|--------|--------|--------|--------|
G|--------|--------|--------|--------|--------|--------|--------|--------|--------|
D|--------|--------|--------|--------|--------|--------|--------|--------|--------|
A|--------|--------|--------|--------|--------|--------|--------|--------|--------|
E|--------|--------|--------|--------|--------|--------|--------|--------|--------|


E|--------|--------|--------|--------|--------|--------|--------|--------|--------|
B|--------|--------|--------|--------|--------|--------|--------|--------|--------|
G|--------|--------|--------|--------|--------|--------|--------|--------|--------|
D|--------|--------|--------|--------|--------|--------|--------|--------|--------|
A|--------|--------|--------|--------|--------|--------|--------|--------|--------|
E|--------|--------|--------|--------|--------|--------|--------|--------|--------|


E|--------|--------|--------|--------|--------|--------|--------|--------|--------|
B|--------|--------|--------|--------|--------|--------|--------|--------|--------|
G|--------|--------|--------|--------|--------|--------|--------|--------|--------|
D|--------|--------|--------|--------|--------|--------|--------|--------|--------|
A|--------|--------|--------|--------|--------|--------|--------|--------|--------|
E|--------|--------|--------|--------|--------|--------|--------|--------|--------|


E|--------|--------|--------|--------|--------|--------|--------|--------|--------|
B|--------|--------|--------|--------|--------|--------|--------|--------|--------|
G|--------|--------|--------|--------|--------|--------|--------|--------|--------|
D|--------|--------|--------|--------|--------|--------|--------|--------|--------|
A|--------|--------|--------|--------|--------|--------|--------|--------|--------|
E|--------|--------|--------|--------|--------|--------|--------|--------|--------|


E|--------|--------|--------|--------|--------|--------|--------|--------|--------|
B|--------|--------|--------|--------|--------|--------|--------|--------|--------|
G|--------|--------|--------|--------|--------|--------|--------|--------|--------|
D|--------|--------|--------|--------|--------|--------|--------|--------|--------|
A|--------|--------|--------|--------|--------|--------|--------|--------|--------|
E|--------|--------|--------|--------|--------|--------|--------|--------|--------|


E|--------|--------|--------|--------|--------|--------|--------|--------|-----------------|
B|--------|--------|--------|--------|--------|--------|--------|--------|-----------------|
G|--------|--------|--------|--------|--------|--------|--------|--------|-2-----2-----4---|
D|--------|--------|--------|--------|--------|--------|--------|--------|-2-----2---------|
A|--------|--------|--------|--------|--------|--------|--------|--------|-----------------|
E|--------|--------|--------|--------|--------|--------|--------|--------|-----------------|


E|-----------------------------------|--------------------|------------------------|
B|-----------------------------------|--------------------|------7-----------------|
G|-4---2-------2---------------------|-4-----4----4----9--|-9--------9---9---9-----|
D|---------4-------4--2------2-------|-4-----4------------|------------------------|
A|-----------------------4-------0---|--------------------|------------------------|
E|-----------------------------------|--------------------|------------------------|


E|---------------------12--|-12-12---------------------------------------|--------|
B|------------------15-----|-------14----14----14-13-12-10-----10--------|--------|
G|-7-----7---7---11--------|----------12----14-------------11------11----|-9------|
D|-7-----------------------|---------------------------------------------|-9------|
A|-------------------------|---------------------------------------------|--------|
E|-------------------------|---------------------------------------------|--------|


E|-19-19--19--19--19--19-19-19---19-|-17-14-12-19-14-12-17-14-12-16-14-12-14-17-14-12-|
B|----------------------------------|-------------------------------------------------|
G|----------------------------------|-------------------------------------------------|
D|----------------------------------|-------------------------------------------------|
A|----------------------------------|-------------------------------------------------|
E|----------------------------------|-------------------------------------------------|


E|-17-14-12-19-14-12-17-14-12-16-14-12-14-17-14-12-|-17-14-12-19-14-12-17-14-12-16-14-12-14-17-14-12-|
B|-------------------------------------------------|-------------------------------------------------|
G|-------------------------------------------------|-------------------------------------------------|
D|-------------------------------------------------|-------------------------------------------------|
A|-------------------------------------------------|-------------------------------------------------|
E|-------------------------------------------------|-------------------------------------------------|


E|-17-14-12-19-14-12-17-14-12-16-14-12-14-21-0--0--|-21-0--0--19-0--0--17-0--19-0--0--17-0--0--21-0--|
B|-------------------------------------------------|-------------------------------------------------|
G|-------------------------------------------------|-------------------------------------------------|
D|-------------------------------------------------|-------------------------------------------------|
A|-------------------------------------------------|-------------------------------------------------|
E|-------------------------------------------------|-------------------------------------------------|


E|-21-0--0--19-0--0--17-0--19-0--0--17-0--0--16-0--|-21-0--0--19-0--0--17-0--19-0--0--17-0--0--15-0--|
B|-------------------------------------------------|-------------------------------------------------|
G|-------------------------------------------------|-------------------------------------------------|
D|-------------------------------------------------|-------------------------------------------------|
A|-------------------------------------------------|-------------------------------------------------|
E|-------------------------------------------------|-------------------------------------------------|


E|-17-14-14-1714----14---------------------------------|-----------------------------|
B|---------------17----17-14-16-17-16-14---------------|-----------------------------|
G|---------------------------------------17-16-14------|-----------9---7-------------|
D|------------------------------------------------1614-|------9-------------9--------|
A|-----------------------------------------------------|-7-----------------------7---|
E|-----------------------------------------------------|-----------------------------|


E|-----------------------------|-----------------------------|-----------------------------|
B|-----------------------------|-----------------------------|-----------------------------|
G|-----------9---7-------------|-----------9---7-------------|-----------9---7-------------|
D|------9-------------9--------|------9-------------9--------|------9-------------9--------|
A|-8-----------------------8---|-9-----------------------9---|-10----------------------10--|
E|-----------------------------|-----------------------------|-----------------------------|


E|-----------------------------|---------------15---14-------|-17-15-12----------------------------------------|
B|---------------10---9--------|------15---14------------15--|----------17-15-12----12-17-15-12----------------|
G|-----------7-------------7---|-----------------------------|-------------------14-------------15-14-12-------|
D|------9----------------------|-11--------------------------|-------------------------------------------15-14-|
A|-7---------------------------|-----------------------------|-------------------------------------------------|
E|-----------------------------|-----------------------------|-------------------------------------------------|


E|-------------------------------------------------|--------|--------|--------|--------|
B|-17-15-12----------------------------------------|--------|--------|--------|--------|
G|----------15-14-12-------15-14-12----------------|--------|--------|-9------|-9------|
D|-------------------15-14----------15-14-12-------|--------|--------|--------|--------|
A|-------------------------------------------15-14-|-7------|-7------|-7------|-7------|
E|-------------------------------------------------|--------|--------|--------|--------|


E|-16-----|-16----16----|-16-----|-16-----|--------|--------|--------|--------|--------|
B|--------|-17----17----|-17-----|-17-----|--------|--------|--------|--------|--------|
G|--------|-------------|--------|--------|--------|--------|--------|--------|--------|
D|--------|-------------|--------|--------|--------|--------|--------|--------|--------|
A|-7------|-7-----7-----|-7------|-7------|--------|--------|--------|--------|--------|
E|--------|-------------|--------|--------|--------|--------|--------|--------|--------|


E|--------|--------|--------|--------|--------|--------|--------|--------|--------|
B|--------|--------|--------|--------|--------|--------|--------|--------|--------|
G|--------|--------|--------|--------|--------|--------|--------|--------|--------|
D|--------|--------|--------|--------|--------|--------|--------|--------|--------|
A|--------|--------|--------|--------|--------|--------|--------|--------|--------|
E|--------|--------|--------|--------|--------|--------|--------|--------|--------|


E|--------|--------|-------------|--------------------|-------------|--------------------|
B|--------|--------|-------------|--------------------|-------------|--------------------|
G|--------|--------|-------------|--------------------|-------------|--------------------|
D|--------|--------|-------------|--------------------|-------------|--------------------|
A|--------|--------|-------2-----|-------2------------|-------2-----|-------2------------|
E|--------|--------|-------0-----|-------0------------|-------0-----|-------0------------|


E|-------------|--------|--------|--------|--------|--------|--------|--------|--------|
B|-------------|--------|--------|--------|--------|--------|--------|--------|--------|
G|-------------|--------|--------|--------|--------|--------|--------|--------|--------|
D|-------------|--------|--------|--------|--------|--------|--------|--------|--------|
A|-------------|--------|--------|--------|--------|--------|--------|--------|--------|
E|-------------|--------|--------|--------|--------|--------|--------|--------|--------|


E|--------|--------|--------|--------------------|---------------------------|----------------------------9--------------|
B|--------|--------|--------|-------13--13---13--|-------13--15--15--15--15--|-15--15---15-12----9--10-12----12-10-9-----|
G|--------|--------|--------|--------------------|---------------------------|----------------14----------------------12-|
D|--------|--------|--------|--------------------|---------------------------|-------------------------------------------|
A|--------|--------|--------|--------------------|---------------------------|-------------------------------------------|
E|--------|--------|--------|--------------------|---------------------------|-------------------------------------------|


E|-------------------------------------------------|--------------------------|--------------------------------|
B|-10-9--------------------------------------------|--------------------------|--------------------------------|
G|-------12-10-9--7--10-9--7-----------------------|----------------12--12----|-----12---12-12-9------9---9----|
D|----------------------------10-9--7--10-9--7-----|--------------------------|-------------------12-----------|
A|----------------------------------------------10-|-9--7--5----5-------------|--------------------------------|
E|-------------------------------------------------|--------------------------|--------------------------------|


E|-------------------------------------------------|-------------------------------------------------|
B|-8-------8---10--11--10--8-----------8-----------|-------------------------------------------------|
G|-----9-----------------------9---9-------9---7---|-----9---8---7-----------------------------------|
D|-------------------------------------------------|-9---------------9---7---------------------------|
A|-------------------------------------------------|-------------------------10--7-------7-------7---|
E|-------------------------------------------------|---------------------------------10------10------|


E|------------------------------|------------------------------------|-12-----------12-10-12-10----10-12-14-|
B|------------------14--12------|-14------------------------------12-|-----15--15---------------12----------|
G|------------------14--12------|-14--12-----------12----12-13-14----|--------------------------------------|
D|--------------14----------14--|---------14---14-----14-------------|--------------------------------------|
A|-7---7---7--------------------|------------------------------------|--------------------------------------|
E|------------------------------|------------------------------------|--------------------------------------|


E|-12-10------------------------------------|--------------------|-------------------------------------------------|
B|-------14-12------------------------------|----------------12--|-10-9--10-9--10--12--109-109-10-12-109-109-10-12-|
G|-------------15---14--12------14--13------|-------12--12-------|-------------------------------------------------|
D|--------------------------14----------14--|-12-----------------|-------------------------------------------------|
A|------------------------------------------|--------------------|-------------------------------------------------|
E|------------------------------------------|--------------------|-------------------------------------------------|


E|-----------------------------------------------12--15--|-15--15---14-12----14-12----------------|
B|-109-109-10-12-109-109-10-12-109-109-10-12-15----------|----------------15-------15-14-12-------|
G|-------------------------------------------------------|----------------------------------15-14-|
D|-------------------------------------------------------|----------------------------------------|
A|-------------------------------------------------------|----------------------------------------|
E|-------------------------------------------------------|----------------------------------------|


E|-----------------------------------------|-------------|--------|--------|--------|
B|-----------------------------------------|-------------|--------|--------|--------|
G|-12--------------------------------------|-------------|--------|--------|--------|
D|----15-14-12-----------------------------|-------------|--------|--------|--------|
A|-------------15-14-12--------------------|-------------|--------|--------|--------|
E|----------------------16-15--15--15------|-------------|--------|--------|--------|


E|--------|--------|--------|--------|--------|--------|--------|--------|--------|
B|--------|--------|--------|--------|--------|--------|--------|--------|--------|
G|--------|--------|--------|--------|--------|--------|--------|--------|--------|
D|--------|--------|--------|--------|--------|--------|--------|--------|--------|
A|--------|--------|--------|--------|--------|--------|--------|--------|--------|
E|--------|--------|--------|--------|--------|--------|--------|--------|--------|


E|--------|--------|--------|--------|
B|--------|--------|--------|--------|
G|--------|--------|--------|--------|
D|--------|--------|--------|--------|
A|--------|--------|--------|--------|
E|--------|--------|--------|--------|





Track 4: Pick Slides

E|--------|--------|--------|--------|--------|--------|--------|--------|--------|
B|--------|--------|--------|--------|--------|--------|--------|--------|--------|
G|--------|--------|--------|--------|--------|--------|--------|--------|--------|
D|--------|--------|--------|--------|--------|--------|--------|--------|--------|
A|--------|--------|--------|--------|--------|--------|--------|--------|--------|
E|--------|--------|--------|--------|--------|--------|--------|--------|--------|


E|--------|--------|-------------------------------|-------------------------------------------------|
B|--------|--------|-------------------------------|-------------------------------------------------|
G|--------|--------|-------------------------------|-------------------------------------------------|
D|--------|--------|-------------------------------|-------------------------------------------------|
A|--------|--------|-------23-22-21-20-19-18-17-16-|-15-14-13-12-11-10-9--8--7--6--5--4--3--2--1--0--|
E|--------|--------|-------23-22-21-20-19-18-17-16-|-15-14-13-12-11-10-9--8--7--6--5--4--3--2--1--0--|


E|--------|--------|--------|--------|--------|--------|--------|--------|--------|
B|--------|--------|--------|--------|--------|--------|--------|--------|--------|
G|--------|--------|--------|--------|--------|--------|--------|--------|--------|
D|--------|--------|--------|--------|--------|--------|--------|--------|--------|
A|--------|--------|--------|--------|--------|--------|--------|--------|--------|
E|--------|--------|--------|--------|--------|--------|--------|--------|--------|


E|--------|--------|--------|--------|--------|--------|--------|--------|--------|
B|--------|--------|--------|--------|--------|--------|--------|--------|--------|
G|--------|--------|--------|--------|--------|--------|--------|--------|--------|
D|--------|--------|--------|--------|--------|--------|--------|--------|--------|
A|--------|--------|--------|--------|--------|--------|--------|--------|--------|
E|--------|--------|--------|--------|--------|--------|--------|--------|--------|


E|--------|--------|--------|--------|--------|--------|--------|--------|--------|
B|--------|--------|--------|--------|--------|--------|--------|--------|--------|
G|--------|--------|--------|--------|--------|--------|--------|--------|--------|
D|--------|--------|--------|--------|--------|--------|--------|--------|--------|
A|--------|--------|--------|--------|--------|--------|--------|--------|--------|
E|--------|--------|--------|--------|--------|--------|--------|--------|--------|


E|--------|--------|--------|--------|--------|--------|--------|--------|--------|
B|--------|--------|--------|--------|--------|--------|--------|--------|--------|
G|--------|--------|--------|--------|--------|--------|--------|--------|--------|
D|--------|--------|--------|--------|--------|--------|--------|--------|--------|
A|--------|--------|--------|--------|--------|--------|--------|--------|--------|
E|--------|--------|--------|--------|--------|--------|--------|--------|--------|


E|--------|--------|--------|--------|--------|--------|--------|--------|--------|
B|--------|--------|--------|--------|--------|--------|--------|--------|--------|
G|--------|--------|--------|--------|--------|--------|--------|--------|--------|
D|--------|--------|--------|--------|--------|--------|--------|--------|--------|
A|--------|--------|--------|--------|--------|--------|--------|--------|--------|
E|--------|--------|--------|--------|--------|--------|--------|--------|--------|


E|--------|--------|--------|--------|--------|--------|--------|--------|--------|
B|--------|--------|--------|--------|--------|--------|--------|--------|--------|
G|--------|--------|--------|--------|--------|--------|--------|--------|--------|
D|--------|--------|--------|--------|--------|--------|--------|--------|--------|
A|--------|--------|--------|--------|--------|--------|--------|--------|--------|
E|--------|--------|--------|--------|--------|--------|--------|--------|--------|


E|--------|--------|--------|--------|--------|--------|--------|--------|--------|
B|--------|--------|--------|--------|--------|--------|--------|--------|--------|
G|--------|--------|--------|--------|--------|--------|--------|--------|--------|
D|--------|--------|--------|--------|--------|--------|--------|--------|--------|
A|--------|--------|--------|--------|--------|--------|--------|--------|--------|
E|--------|--------|--------|--------|--------|--------|--------|--------|--------|


E|--------|--------|--------|--------|--------|--------|--------|--------|--------|
B|--------|--------|--------|--------|--------|--------|--------|--------|--------|
G|--------|--------|--------|--------|--------|--------|--------|--------|--------|
D|--------|--------|--------|--------|--------|--------|--------|--------|--------|
A|--------|--------|--------|--------|--------|--------|--------|--------|--------|
E|--------|--------|--------|--------|--------|--------|--------|--------|--------|


E|--------|--------|--------|--------|--------|--------|--------|--------|--------|
B|--------|--------|--------|--------|--------|--------|--------|--------|--------|
G|--------|--------|--------|--------|--------|--------|--------|--------|--------|
D|--------|--------|--------|--------|--------|--------|--------|--------|--------|
A|--------|--------|--------|--------|--------|--------|--------|--------|--------|
E|--------|--------|--------|--------|--------|--------|--------|--------|--------|


E|--------|--------|--------|--------|--------|--------|--------|--------|--------|
B|--------|--------|--------|--------|--------|--------|--------|--------|--------|
G|--------|--------|--------|--------|--------|--------|--------|--------|--------|
D|--------|--------|--------|--------|--------|--------|--------|--------|--------|
A|--------|--------|--------|--------|--------|--------|--------|--------|--------|
E|--------|--------|--------|--------|--------|--------|--------|--------|--------|


E|--------|--------|--------|--------|--------|--------|--------|--------|--------|
B|--------|--------|--------|--------|--------|--------|--------|--------|--------|
G|--------|--------|--------|--------|--------|--------|--------|--------|--------|
D|--------|--------|--------|--------|--------|--------|--------|--------|--------|
A|--------|--------|--------|--------|--------|--------|--------|--------|--------|
E|--------|--------|--------|--------|--------|--------|--------|--------|--------|


E|--------|--------|--------|--------|--------|--------|--------|--------|--------|
B|--------|--------|--------|--------|--------|--------|--------|--------|--------|
G|--------|--------|--------|--------|--------|--------|--------|--------|--------|
D|--------|--------|--------|--------|--------|--------|--------|--------|--------|
A|--------|--------|--------|--------|--------|--------|--------|--------|--------|
E|--------|--------|--------|--------|--------|--------|--------|--------|--------|


E|--------|--------|--------|--------|--------|--------|--------|--------|--------|
B|--------|--------|--------|--------|--------|--------|--------|--------|--------|
G|--------|--------|--------|--------|--------|--------|--------|--------|--------|
D|--------|--------|--------|--------|--------|--------|--------|--------|--------|
A|--------|--------|--------|--------|--------|--------|--------|--------|--------|
E|--------|--------|--------|--------|--------|--------|--------|--------|--------|


E|--------|--------|--------|--------|--------|--------|--------|--------|--------|
B|--------|--------|--------|--------|--------|--------|--------|--------|--------|
G|--------|--------|--------|--------|--------|--------|--------|--------|--------|
D|--------|--------|--------|--------|--------|--------|--------|--------|--------|
A|--------|--------|--------|--------|--------|--------|--------|--------|--------|
E|--------|--------|--------|--------|--------|--------|--------|--------|--------|


E|--------|--------|--------|--------|--------|--------|--------|--------|--------|
B|--------|--------|--------|--------|--------|--------|--------|--------|--------|
G|--------|--------|--------|--------|--------|--------|--------|--------|--------|
D|--------|--------|--------|--------|--------|--------|--------|--------|--------|
A|--------|--------|--------|--------|--------|--------|--------|--------|--------|
E|--------|--------|--------|--------|--------|--------|--------|--------|--------|


E|--------|--------|--------|--------|--------|--------|--------|--------|--------|
B|--------|--------|--------|--------|--------|--------|--------|--------|--------|
G|--------|--------|--------|--------|--------|--------|--------|--------|--------|
D|--------|--------|--------|--------|--------|--------|--------|--------|--------|
A|--------|--------|--------|--------|--------|--------|--------|--------|--------|
E|--------|--------|--------|--------|--------|--------|--------|--------|--------|


E|--------|--------|--------|--------|--------|--------|--------|--------|--------|
B|--------|--------|--------|--------|--------|--------|--------|--------|--------|
G|--------|--------|--------|--------|--------|--------|--------|--------|--------|
D|--------|--------|--------|--------|--------|--------|--------|--------|--------|
A|--------|--------|--------|--------|--------|--------|--------|--------|--------|
E|--------|--------|--------|--------|--------|--------|--------|--------|--------|


E|--------|--------|--------|--------|--------|--------|--------|--------|--------|
B|--------|--------|--------|--------|--------|--------|--------|--------|--------|
G|--------|--------|--------|--------|--------|--------|--------|--------|--------|
D|--------|--------|--------|--------|--------|--------|--------|--------|--------|
A|--------|--------|--------|--------|--------|--------|--------|--------|--------|
E|--------|--------|--------|--------|--------|--------|--------|--------|--------|


E|--------|--------|--------|--------|--------|--------|--------|--------|--------|
B|--------|--------|--------|--------|--------|--------|--------|--------|--------|
G|--------|--------|--------|--------|--------|--------|--------|--------|--------|
D|--------|--------|--------|--------|--------|--------|--------|--------|--------|
A|--------|--------|--------|--------|--------|--------|--------|--------|--------|
E|--------|--------|--------|--------|--------|--------|--------|--------|--------|


E|--------|--------|--------|--------|--------|--------|--------|--------|--------|
B|--------|--------|--------|--------|--------|--------|--------|--------|--------|
G|--------|--------|--------|--------|--------|--------|--------|--------|--------|
D|--------|--------|--------|--------|--------|--------|--------|--------|--------|
A|--------|--------|--------|--------|--------|--------|--------|--------|--------|
E|--------|--------|--------|--------|--------|--------|--------|--------|--------|


E|--------|--------|--------|--------|--------|--------|
B|--------|--------|--------|--------|--------|--------|
G|--------|--------|--------|--------|--------|--------|
D|--------|--------|--------|--------|--------|--------|
A|--------|--------|--------|--------|--------|--------|
E|--------|--------|--------|--------|--------|--------|





Track 5: Dist.Gtr.I

E|--------|--------|--------|--------|--------|--------|--------|--------|--------|
B|--------|--------|--------|--------|--------|--------|--------|--------|--------|
G|--------|--------|--------|--------|--------|--------|--------|--------|--------|
D|--------|--------|--------|--------|--------|--------|--------|--------|--------|
A|--------|--------|--------|--------|--------|--------|--------|--------|--------|
E|--------|--------|--------|--------|--------|--------|--------|--------|--------|


E|--------|--------|---------------------------|-----------------|--------|--------|
B|--------|--------|---------------------------|-----------------|--------|--------|
G|--------|--------|---------------------------|-----------------|--------|--------|
D|--------|--------|-------10--10--------------|-2---------------|--------|--------|
A|--------|--------|---------------2--0--------|-2---------------|--------|--------|
E|--------|--------|---------------------2--3--|-0---------------|--------|--------|


E|--------|--------|--------|--------|--------|--------|--------|--------|--------|
B|--------|--------|--------|--------|--------|--------|--------|--------|--------|
G|--------|--------|--------|--------|--------|--------|--------|--------|--------|
D|--------|--------|--------|--------|--------|--------|--------|--------|--------|
A|--------|--------|--------|--------|--------|--------|--------|--------|--------|
E|--------|--------|--------|--------|--------|--------|--------|--------|--------|


E|--------|--------|--------|--------|--------|--------|--------|--------|--------|
B|--------|--------|--------|--------|--------|--------|--------|--------|--------|
G|--------|--------|--------|--------|--------|--------|--------|--------|--------|
D|--------|--------|--------|--------|--------|--------|--------|--------|--------|
A|--------|--------|--------|--------|--------|--------|--------|--------|--------|
E|--------|--------|--------|--------|--------|--------|--------|--------|--------|


E|--------|--------|--------|--------|--------|--------|--------|--------|--------|
B|--------|--------|--------|--------|--------|--------|--------|--------|--------|
G|--------|--------|--------|--------|--------|--------|--------|--------|--------|
D|--------|--------|--------|--------|--------|--------|--------|--------|--------|
A|--------|--------|--------|--------|--------|--------|--------|--------|--------|
E|--------|--------|--------|--------|--------|--------|--------|--------|--------|


E|--------|--------|--------|--------|--------|--------|--------|--------|--------|
B|--------|--------|--------|--------|--------|--------|--------|--------|--------|
G|--------|--------|--------|--------|--------|--------|--------|--------|--------|
D|--------|--------|--------|--------|--------|--------|--------|--------|--------|
A|--------|--------|--------|--------|--------|--------|--------|--------|--------|
E|--------|--------|--------|--------|--------|--------|--------|--------|--------|


E|--------|--------|--------|--------|--------|--------|--------|--------|--------|
B|--------|--------|--------|--------|--------|--------|--------|--------|--------|
G|--------|--------|--------|--------|--------|--------|--------|--------|--------|
D|--------|--------|--------|--------|--------|--------|--------|--------|--------|
A|--------|--------|--------|--------|--------|--------|--------|--------|--------|
E|--------|--------|--------|--------|--------|--------|--------|--------|--------|


E|--------|--------|--------|--------|--------|--------|--------|--------|--------|
B|--------|--------|--------|--------|--------|--------|--------|--------|--------|
G|--------|--------|--------|--------|--------|--------|--------|--------|--------|
D|--------|--------|--------|--------|--------|--------|--------|--------|--------|
A|--------|--------|--------|--------|--------|--------|--------|--------|--------|
E|--------|--------|--------|--------|--------|--------|--------|--------|--------|


E|--------|--------|--------|--------|--------|--------|--------|--------|--------|
B|--------|--------|--------|--------|--------|--------|--------|--------|--------|
G|--------|--------|--------|--------|--------|--------|--------|--------|--------|
D|--------|--------|--------|--------|--------|--------|--------|--------|--------|
A|--------|--------|--------|--------|--------|--------|--------|--------|--------|
E|--------|--------|--------|--------|--------|--------|--------|--------|--------|


E|--------|--------|--------|--------|--------|--------|--------|--------|--------|
B|--------|--------|--------|--------|--------|--------|--------|--------|--------|
G|--------|--------|--------|--------|--------|--------|--------|--------|--------|
D|--------|--------|--------|--------|--------|--------|--------|--------|--------|
A|--------|--------|--------|--------|--------|--------|--------|--------|--------|
E|--------|--------|--------|--------|--------|--------|--------|--------|--------|


E|--------|--------|--------|--------|--------|--------|--------|--------|--------|
B|--------|--------|--------|--------|--------|--------|--------|--------|--------|
G|--------|--------|--------|--------|--------|--------|--------|--------|--------|
D|--------|--------|--------|--------|--------|--------|--------|--------|--------|
A|--------|--------|--------|--------|--------|--------|--------|--------|--------|
E|--------|--------|--------|--------|--------|--------|--------|--------|--------|


E|--------|--------|--------|--------|--------|--------|--------|--------|--------|
B|--------|--------|--------|--------|--------|--------|--------|--------|--------|
G|--------|--------|--------|--------|--------|--------|--------|--------|--------|
D|--------|--------|--------|--------|--------|--------|--------|--------|--------|
A|--------|--------|--------|--------|--------|--------|--------|--------|--------|
E|--------|--------|--------|--------|--------|--------|--------|--------|--------|


E|--------|--------|--------|--------|--------|--------|--------|--------|--------|
B|--------|--------|--------|--------|--------|--------|--------|--------|--------|
G|--------|--------|--------|--------|--------|--------|--------|--------|--------|
D|--------|--------|--------|--------|--------|--------|--------|--------|--------|
A|--------|--------|--------|--------|--------|--------|--------|--------|--------|
E|--------|--------|--------|--------|--------|--------|--------|--------|--------|


E|--------|--------|--------|--------|--------|--------|--------|--------|--------|
B|--------|--------|--------|--------|--------|--------|--------|--------|--------|
G|--------|--------|--------|--------|--------|--------|--------|--------|--------|
D|--------|--------|--------|--------|--------|--------|--------|--------|--------|
A|--------|--------|--------|--------|--------|--------|--------|--------|--------|
E|--------|--------|--------|--------|--------|--------|--------|--------|--------|


E|--------|--------|--------|--------|--------|--------|--------|--------|--------|
B|--------|--------|--------|--------|--------|--------|--------|--------|--------|
G|--------|--------|--------|--------|--------|--------|--------|--------|--------|
D|--------|--------|--------|--------|--------|--------|--------|--------|--------|
A|--------|--------|--------|--------|--------|--------|--------|--------|--------|
E|--------|--------|--------|--------|--------|--------|--------|--------|--------|


E|--------|--------|--------|--------|--------|--------|--------|--------|--------|
B|--------|--------|--------|--------|--------|--------|--------|--------|--------|
G|--------|--------|--------|--------|--------|--------|--------|--------|--------|
D|--------|--------|--------|--------|--------|--------|--------|--------|--------|
A|--------|--------|--------|--------|--------|--------|--------|--------|--------|
E|--------|--------|--------|--------|--------|--------|--------|--------|--------|


E|--------|--------|--------|--------|--------|--------|--------|--------|--------|
B|--------|--------|--------|--------|--------|--------|--------|--------|--------|
G|--------|--------|--------|--------|--------|--------|--------|--------|--------|
D|--------|--------|--------|--------|--------|--------|--------|--------|--------|
A|--------|--------|--------|--------|--------|--------|--------|--------|--------|
E|--------|--------|--------|--------|--------|--------|--------|--------|--------|


E|--------|--------|--------|-------------|--------------------|-------------|--------------------|
B|--------|--------|--------|-------------|--------------------|-------------|--------------------|
G|--------|--------|--------|-------------|--------------------|-------------|--------------------|
D|--------|--------|--------|-------------|--------------------|-------------|--------------------|
A|--------|--------|--------|-------2-----|-------2------------|-------2-----|-------2------------|
E|--------|--------|--------|-------0-----|-------0------------|-------0-----|-------0------------|


E|-------------|--------------------|-------------|--------------------|-------------|
B|-------------|--------------------|-------------|--------------------|-------------|
G|-------------|--------------------|-------------|--------------------|-------------|
D|-------------|--------------------|-------------|--------------------|-------------|
A|-------2-----|-------2------------|-------2-----|-------2------------|-------2-----|
E|-------0-----|-------0------------|-------0-----|-------0------------|-------0-----|


E|--------------------|-------------|--------------------|-------------|--------|--------|
B|--------------------|-------------|--------------------|-------------|--------|--------|
G|--------------------|-------------|--------------------|-------------|--------|--------|
D|--------------------|-------------|--------------------|-------------|--------|--------|
A|-------2------------|-------2-----|-------2------------|-------------|--------|--------|
E|-------0------------|-------0-----|-------0------------|-------------|--------|--------|


E|--------|--------|--------|--------|--------|--------|--------|--------|--------|
B|--------|--------|--------|--------|--------|--------|--------|--------|--------|
G|--------|--------|--------|--------|--------|--------|--------|--------|--------|
D|--------|--------|--------|--------|--------|--------|--------|--------|--------|
A|--------|--------|--------|--------|--------|--------|--------|--------|--------|
E|--------|--------|--------|--------|--------|--------|--------|--------|--------|


E|--------|--------|--------|--------|--------|--------|--------|--------|--------|
B|--------|--------|--------|--------|--------|--------|--------|--------|--------|
G|--------|--------|--------|--------|--------|--------|--------|--------|--------|
D|--------|--------|--------|--------|--------|--------|--------|--------|--------|
A|--------|--------|--------|--------|--------|--------|--------|--------|--------|
E|--------|--------|--------|--------|--------|--------|--------|--------|--------|


E|--------|--------|--------|--------|--------|--------|--------|--------|--------|
B|--------|--------|--------|--------|--------|--------|--------|--------|--------|
G|--------|--------|--------|--------|--------|--------|--------|--------|--------|
D|--------|--------|--------|--------|--------|--------|--------|--------|--------|
A|--------|--------|--------|--------|--------|--------|--------|--------|--------|
E|--------|--------|--------|--------|--------|--------|--------|--------|--------|


E|--------|--------|--------|--------|
B|--------|--------|--------|--------|
G|--------|--------|--------|--------|
D|--------|--------|--------|--------|
A|--------|--------|--------|--------|
E|--------|--------|--------|--------|





Track 6: Dist.Gtr.I

E|--------|--------|--------|--------|--------|--------|--------|--------|--------|
B|--------|--------|--------|--------|--------|--------|--------|--------|--------|
G|--------|--------|--------|--------|--------|--------|--------|--------|--------|
D|--------|--------|--------|--------|--------|--------|--------|--------|--------|
A|--------|--------|--------|--------|--------|--------|--------|--------|--------|
E|--------|--------|--------|--------|--------|--------|--------|--------|--------|


E|--------|--------|--------|--------|--------|--------|--------|--------|--------|
B|--------|--------|--------|--------|--------|--------|--------|--------|--------|
G|--------|--------|--------|--------|--------|--------|--------|--------|--------|
D|--------|--------|--------|--------|--------|--------|--------|--------|--------|
A|--------|--------|--------|--------|--------|--------|--------|--------|--------|
E|--------|--------|--------|--------|--------|--------|--------|--------|--------|


E|--------|--------|--------|--------|--------|--------|--------|--------|--------|
B|--------|--------|--------|--------|--------|--------|--------|--------|--------|
G|--------|--------|--------|--------|--------|--------|--------|--------|--------|
D|--------|--------|--------|--------|--------|--------|--------|--------|--------|
A|--------|--------|--------|--------|--------|--------|--------|--------|--------|
E|--------|--------|--------|--------|--------|--------|--------|--------|--------|


E|--------|--------|--------|--------|--------|--------|--------|--------|--------|
B|--------|--------|--------|--------|--------|--------|--------|--------|--------|
G|--------|--------|--------|--------|--------|--------|--------|--------|--------|
D|--------|--------|--------|--------|--------|--------|--------|--------|--------|
A|--------|--------|--------|--------|--------|--------|--------|--------|--------|
E|--------|--------|--------|--------|--------|--------|--------|--------|--------|


E|--------|--------|--------|--------|--------|--------|--------|--------|--------|
B|--------|--------|--------|--------|--------|--------|--------|--------|--------|
G|--------|--------|--------|--------|--------|--------|--------|--------|--------|
D|--------|--------|--------|--------|--------|--------|--------|--------|--------|
A|--------|--------|--------|--------|--------|--------|--------|--------|--------|
E|--------|--------|--------|--------|--------|--------|--------|--------|--------|


E|--------|--------|--------|--------|--------|--------|--------|--------|--------|
B|--------|--------|--------|--------|--------|--------|--------|--------|--------|
G|--------|--------|--------|--------|--------|--------|--------|--------|--------|
D|--------|--------|--------|--------|--------|--------|--------|--------|--------|
A|--------|--------|--------|--------|--------|--------|--------|--------|--------|
E|--------|--------|--------|--------|--------|--------|--------|--------|--------|


E|--------|--------|--------|--------|--------|--------|--------|--------|--------|
B|--------|--------|--------|--------|--------|--------|--------|--------|--------|
G|--------|--------|--------|--------|--------|--------|--------|--------|--------|
D|--------|--------|--------|--------|--------|--------|--------|--------|--------|
A|--------|--------|--------|--------|--------|--------|--------|--------|--------|
E|--------|--------|--------|--------|--------|--------|--------|--------|--------|


E|--------|--------|--------|--------|--------|--------|--------|--------|--------|
B|--------|--------|--------|--------|--------|--------|--------|--------|--------|
G|--------|--------|--------|--------|--------|--------|--------|--------|--------|
D|--------|--------|--------|--------|--------|--------|--------|--------|--------|
A|--------|--------|--------|--------|--------|--------|--------|--------|--------|
E|--------|--------|--------|--------|--------|--------|--------|--------|--------|


E|--------|--------|--------|--------|--------|--------|--------|--------|--------|
B|--------|--------|--------|--------|--------|--------|--------|--------|--------|
G|--------|--------|--------|--------|--------|--------|--------|--------|--------|
D|--------|--------|--------|--------|--------|--------|--------|--------|--------|
A|--------|--------|--------|--------|--------|--------|--------|--------|--------|
E|--------|--------|--------|--------|--------|--------|--------|--------|--------|


E|--------|--------|--------|--------|--------|--------|--------|--------|--------|
B|--------|--------|--------|--------|--------|--------|--------|--------|--------|
G|--------|--------|--------|--------|--------|--------|--------|--------|--------|
D|--------|--------|--------|--------|--------|--------|--------|--------|--------|
A|--------|--------|--------|--------|--------|--------|--------|--------|--------|
E|--------|--------|--------|--------|--------|--------|--------|--------|--------|


E|--------|--------|--------|--------|--------|--------|--------|--------|--------|
B|--------|--------|--------|--------|--------|--------|--------|--------|--------|
G|--------|--------|--------|--------|--------|--------|--------|--------|--------|
D|--------|--------|--------|--------|--------|--------|--------|--------|--------|
A|--------|--------|--------|--------|--------|--------|--------|--------|--------|
E|--------|--------|--------|--------|--------|--------|--------|--------|--------|


E|--------|--------|--------|--------|--------|--------|--------|--------|--------|
B|--------|--------|--------|--------|--------|--------|--------|--------|--------|
G|--------|--------|--------|--------|--------|--------|--------|--------|--------|
D|--------|--------|--------|--------|--------|--------|--------|--------|--------|
A|--------|--------|--------|--------|--------|--------|--------|--------|--------|
E|--------|--------|--------|--------|--------|--------|--------|--------|--------|


E|--------|--------|--------|--------|--------|--------|--------|--------|--------|
B|--------|--------|--------|--------|--------|--------|--------|--------|--------|
G|--------|--------|--------|--------|--------|--------|--------|--------|--------|
D|--------|--------|--------|--------|--------|--------|--------|--------|--------|
A|--------|--------|--------|--------|--------|--------|--------|--------|--------|
E|--------|--------|--------|--------|--------|--------|--------|--------|--------|


E|--------|--------|--------|--------|--------|--------|--------|--------|--------|
B|--------|--------|--------|--------|--------|--------|--------|--------|--------|
G|--------|--------|--------|--------|--------|--------|--------|--------|--------|
D|--------|--------|--------|--------|--------|--------|--------|--------|--------|
A|--------|--------|--------|--------|--------|--------|--------|--------|--------|
E|--------|--------|--------|--------|--------|--------|--------|--------|--------|


E|--------|--------|--------|--------|--------|--------|--------|--------|--------|
B|--------|--------|--------|--------|--------|--------|--------|--------|--------|
G|--------|--------|--------|--------|--------|--------|--------|--------|--------|
D|--------|--------|--------|--------|--------|--------|--------|--------|--------|
A|--------|--------|--------|--------|--------|--------|--------|--------|--------|
E|--------|--------|--------|--------|--------|--------|--------|--------|--------|


E|--------|--------|--------|--------|--------|--------|--------|--------|--------|
B|--------|--------|--------|--------|--------|--------|--------|--------|--------|
G|--------|--------|--------|--------|--------|--------|--------|--------|--------|
D|--------|--------|--------|--------|--------|--------|--------|--------|--------|
A|--------|--------|--------|--------|--------|--------|--------|--------|--------|
E|--------|--------|--------|--------|--------|--------|--------|--------|--------|


E|--------|--------|--------|--------|--------|--------|--------|--------|--------|
B|--------|--------|--------|--------|--------|--------|--------|--------|--------|
G|--------|--------|--------|--------|--------|--------|--------|--------|--------|
D|--------|--------|--------|--------|--------|--------|--------|--------|--------|
A|--------|--------|--------|--------|--------|--------|--------|--------|--------|
E|--------|--------|--------|--------|--------|--------|--------|--------|--------|


E|--------|--------|--------|--------|--------|--------|--------|--------|--------|
B|--------|--------|--------|--------|--------|--------|--------|--------|--------|
G|--------|--------|--------|--------|--------|--------|--------|--------|--------|
D|--------|--------|--------|--------|--------|--------|--------|--------|--------|
A|--------|--------|--------|--------|--------|--------|--------|--------|--------|
E|--------|--------|--------|--------|--------|--------|--------|--------|--------|


E|--------|--------|--------|---------------------------|-----------------------------------------|
B|--------|--------|--------|---------------------------|-----------------------------------------|
G|--------|--------|--------|---------------------------|-----------------------------------------|
D|--------|--------|--------|-----------------5---------|-----------6--6--5-------------5---------|
A|--------|--------|--------|-----------------5---------|-----------6--6--5-------------5---------|
E|--------|--------|--------|-------0---0--0------0--0--|-0---0--0------------0---0--0------0--0--|


E|-----------------------------------------|---------------------------------------|
B|-----------------------------------------|---------------------------------------|
G|-----------------------------------------|---------------------------------------|
D|-----------8--8--9-------------5---------|-----------6--6--5-------9--9--8-------|
A|-----------6--6--7-------------5---------|-----------6--6--5-------7--7--6-------|
E|-0---0--0------------0---0--0------0--0--|-0---0--0------------0-------------0---|


E|----------------------------------|-----------------------------------------|-----------------------------------------|
B|----------------------------------|-----------------------------------------|-----------------------------------------|
G|---------7------------------------|-----------------------------------------|-----------------------------------------|
D|---------7--------------5---------|-----------6--6--5-------------5---------|-----------8--8--9-------------5---------|
A|-8---9---5--------------5---------|-----------6--6--5-------------5---------|-----------6--6--7-------------5---------|
E|-6---7--------0---0--0------0--0--|-0---0--0------------0---0--0------0--0--|-0---0--0------------0---0--0------0--0--|


E|---------------------------------------|----------------------------------|-----------------------------------------|
B|---------------------------------------|----------------------------------|-----------------------------------------|
G|---------------------------------------|---------7------------------------|-----------------------------------------|
D|-----------6--6--5-------9--9--8-------|---------7--------------5---------|-----------6--6--5-------------5---------|
A|-----------6--6--5-------7--7--6-------|-8---9---5--------------5---------|-----------6--6--5-------------5---------|
E|-0---0--0------------0-------------0---|-6---7--------0---0--0------0--0--|-0---0--0------------0---0--0------0--0--|


E|-----------------------------------------|---------------------------------------|
B|-----------------------------------------|---------------------------------------|
G|-----------------------------------------|---------------------------------------|
D|-----------8--8--9-------------5---------|-----------6--6--5-------9--9--8-------|
A|-----------6--6--7-------------5---------|-----------6--6--5-------7--7--6-------|
E|-0---0--0------------0---0--0------0--0--|-0---0--0------------0-------------0---|


E|----------------------------------|-----------------------------------------|-----------------------------------------|
B|----------------------------------|-----------------------------------------|-----------------------------------------|
G|---------7------------------------|-----------------------------------------|-----------------------------------------|
D|---------7--------------5---------|-----------6--6--5-------------5---------|-----------8--8--9-------------5---------|
A|-8---9---5--------------5---------|-----------6--6--5-------------5---------|-----------6--6--7-------------5---------|
E|-6---7--------0---0--0------0--0--|-0---0--0------------0---0--0------0--0--|-0---0--0------------0---0--0------0--0--|


E|---------------------------------------|----------------------------------|---------------------------|
B|---------------------------------------|----------------------------------|---------------------------|
G|---------------------------------------|---------7------------------------|---------------------------|
D|-----------6--6--5-------9--9--8-------|---------7--------------5---------|-----------6--6--5---------|
A|-----------6--6--5-------7--7--6-------|-8---9---5--------------5---------|-----------6--6--5---------|
E|-0---0--0------------0-------------0---|-6---7--------0---0--0------0--0--|-0---0--0------------------|


E|--------|--------|--------|--------|--------|--------|--------|--------|--------|
B|--------|--------|--------|--------|--------|--------|--------|--------|--------|
G|--------|--------|--------|--------|--------|--------|--------|--------|--------|
D|--------|--------|--------|--------|--------|--------|--------|--------|--------|
A|--------|--------|--------|--------|--------|--------|--------|--------|--------|
E|--------|--------|--------|--------|--------|--------|--------|--------|--------|


E|--------|--------|--------|--------|--------|--------|--------|
B|--------|--------|--------|--------|--------|--------|--------|
G|--------|--------|--------|--------|--------|--------|--------|
D|--------|--------|--------|--------|--------|--------|--------|
A|--------|--------|--------|--------|--------|--------|--------|
E|--------|--------|--------|--------|--------|--------|--------|





Track 7: Gunshot

E|--------|--------|--------|--------|--------|--------|--------|--------|--------|
B|--------|--------|--------|--------|--------|--------|--------|--------|--------|
G|--------|--------|--------|--------|--------|--------|--------|--------|--------|
D|--------|--------|--------|--------|--------|--------|--------|--------|--------|
A|--------|--------|--------|--------|--------|--------|--------|--------|--------|
E|--------|--------|--------|--------|--------|--------|--------|--------|--------|


E|--------|--------|--------|--------|--------|--------|--------|--------|--------|
B|--------|--------|--------|--------|--------|--------|--------|--------|--------|
G|--------|--------|--------|--------|--------|--------|--------|--------|--------|
D|--------|--------|--------|--------|--------|--------|--------|--------|--------|
A|--------|--------|--------|--------|--------|--------|--------|--------|--------|
E|--------|--------|--------|--------|--------|--------|--------|--------|--------|


E|--------|--------|--------|--------|--------|--------|--------|--------|--------|
B|--------|--------|--------|--------|--------|--------|--------|--------|--------|
G|--------|--------|--------|--------|--------|--------|--------|--------|--------|
D|--------|--------|--------|--------|--------|--------|--------|--------|--------|
A|--------|--------|--------|--------|--------|--------|--------|--------|--------|
E|--------|--------|--------|--------|--------|--------|--------|--------|--------|


E|--------|--------|--------|--------|--------|--------|--------|--------|--------|
B|--------|--------|--------|--------|--------|--------|--------|--------|--------|
G|--------|--------|--------|--------|--------|--------|--------|--------|--------|
D|--------|--------|--------|--------|--------|--------|--------|--------|--------|
A|--------|--------|--------|--------|--------|--------|--------|--------|--------|
E|--------|--------|--------|--------|--------|--------|--------|--------|--------|


E|--------|--------|--------|--------|--------|--------|--------|--------|--------|
B|--------|--------|--------|--------|--------|--------|--------|--------|--------|
G|--------|--------|--------|--------|--------|--------|--------|--------|--------|
D|--------|--------|--------|--------|--------|--------|--------|--------|--------|
A|--------|--------|--------|--------|--------|--------|--------|--------|--------|
E|--------|--------|--------|--------|--------|--------|--------|--------|--------|


E|--------|--------|--------|--------|--------|--------|--------|--------|--------|
B|--------|--------|--------|--------|--------|--------|--------|--------|--------|
G|--------|--------|--------|--------|--------|--------|--------|--------|--------|
D|--------|--------|--------|--------|--------|--------|--------|--------|--------|
A|--------|--------|--------|--------|--------|--------|--------|--------|--------|
E|--------|--------|--------|--------|--------|--------|--------|--------|--------|


E|--------|--------|--------|--------|--------|--------|--------|--------|--------|
B|--------|--------|--------|--------|--------|--------|--------|--------|--------|
G|--------|--------|--------|--------|--------|--------|--------|--------|--------|
D|--------|--------|--------|--------|--------|--------|--------|--------|--------|
A|--------|--------|--------|--------|--------|--------|--------|--------|--------|
E|--------|--------|--------|--------|--------|--------|--------|--------|--------|


E|--------|--------|--------|--------|--------|--------|--------|--------|--------|
B|--------|--------|--------|--------|--------|--------|--------|--------|--------|
G|--------|--------|--------|--------|--------|--------|--------|--------|--------|
D|--------|--------|--------|--------|--------|--------|--------|--------|--------|
A|--------|--------|--------|--------|--------|--------|--------|--------|--------|
E|--------|--------|--------|--------|--------|--------|--------|--------|--------|


E|--------|--------|--------|--------|--------|--------|--------|--------|--------|
B|--------|--------|--------|--------|--------|--------|--------|--------|--------|
G|--------|--------|--------|--------|--------|--------|--------|--------|--------|
D|--------|--------|--------|--------|--------|--------|--------|--------|--------|
A|--------|--------|--------|--------|--------|--------|--------|--------|--------|
E|--------|--------|--------|--------|--------|--------|--------|--------|--------|


E|--------|--------|--------|--------|--------|--------|--------|--------|--------|
B|--------|--------|--------|--------|--------|--------|--------|--------|--------|
G|--------|--------|--------|--------|--------|--------|--------|--------|--------|
D|--------|--------|--------|--------|--------|--------|--------|--------|--------|
A|--------|--------|--------|--------|--------|--------|--------|--------|--------|
E|--------|--------|--------|--------|--------|--------|--------|--------|--------|


E|--------|--------|--------|--------|--------|--------|--------|--------|--------|
B|--------|--------|--------|--------|--------|--------|--------|--------|--------|
G|--------|--------|--------|--------|--------|--------|--------|--------|--------|
D|--------|--------|--------|--------|--------|--------|--------|--------|--------|
A|--------|--------|--------|--------|--------|--------|--------|--------|--------|
E|--------|--------|--------|--------|--------|--------|--------|--------|--------|


E|--------|--------|--------|--------|--------|--------|--------|--------|--------|
B|--------|--------|--------|--------|--------|--------|--------|--------|--------|
G|--------|--------|--------|--------|--------|--------|--------|--------|--------|
D|--------|--------|--------|--------|--------|--------|--------|--------|--------|
A|--------|--------|--------|--------|--------|--------|--------|--------|--------|
E|--------|--------|--------|--------|--------|--------|--------|--------|--------|


E|--------|--------|--------|--------|--------|--------|--------|--------|--------|
B|--------|--------|--------|--------|--------|--------|--------|--------|--------|
G|--------|--------|--------|--------|--------|--------|--------|--------|--------|
D|--------|--------|--------|--------|--------|--------|--------|--------|--------|
A|--------|--------|--------|--------|--------|--------|--------|--------|--------|
E|--------|--------|--------|--------|--------|--------|--------|--------|--------|


E|--------|--------|--------|--------|--------|--------|--------|--------|--------|
B|--------|--------|--------|--------|--------|--------|--------|--------|--------|
G|--------|--------|--------|--------|--------|--------|--------|--------|--------|
D|--------|--------|--------|--------|--------|--------|--------|--------|--------|
A|--------|--------|--------|--------|--------|--------|--------|--------|--------|
E|--------|--------|--------|--------|--------|--------|--------|--------|--------|


E|--------|--------|--------|--------|--------|--------|--------|--------|--------|
B|--------|--------|--------|--------|--------|--------|--------|--------|--------|
G|--------|--------|--------|--------|--------|--------|--------|--------|--------|
D|--------|--------|--------|--------|--------|--------|--------|--------|--------|
A|--------|--------|--------|--------|--------|--------|--------|--------|--------|
E|--------|--------|--------|--------|--------|--------|--------|--------|--------|


E|--------|--------|--------|--------|--------|--------|--------|--------|--------|
B|--------|--------|--------|--------|--------|--------|--------|--------|--------|
G|--------|--------|--------|--------|--------|--------|--------|--------|--------|
D|--------|--------|--------|--------|--------|--------|--------|--------|--------|
A|--------|--------|--------|--------|--------|--------|--------|--------|--------|
E|--------|--------|--------|--------|--------|--------|--------|--------|--------|


E|--------|--------|--------|--------|--------|--------|--------|--------|--------|
B|--------|--------|--------|--------|--------|--------|--------|--------|--------|
G|--------|--------|--------|--------|--------|--------|--------|--------|--------|
D|--------|--------|--------|--------|--------|--------|--------|--------|--------|
A|--------|--------|--------|--------|--------|--------|--------|--------|--------|
E|--------|--------|--------|--------|--------|--------|--------|--------|--------|


E|--------|--------|--------|--------|--------|--------|--------|--------|--------|
B|--------|--------|--------|--------|--------|--------|--------|--------|--------|
G|--------|--------|--------|--------|--------|--------|--------|--------|--------|
D|--------|--------|--------|--------|--------|--------|--------|--------|--------|
A|--------|--------|--------|--------|--------|--------|--------|--------|--------|
E|--------|--------|--------|--------|--------|--------|--------|--------|--------|


E|--------|--------|--------|--------|--------|--------|--------|--------|--------|
B|--------|--------|--------|--------|--------|--------|--------|--------|--------|
G|--------|--------|--------|--------|--------|--------|--------|--------|--------|
D|--------|--------|--------|--------|--------|--------|--------|--------|--------|
A|--------|--------|--------|--------|--------|--------|--------|--------|--------|
E|--------|--------|--------|--------|--------|--------|--------|--------|--------|


E|--------|--------|--------|--------|--------|--------|--------|--------|--------|
B|--------|--------|--------|--------|--------|--------|--------|--------|--------|
G|--------|--------|--------|--------|--------|--------|--------|--------|--------|
D|--------|--------|--------|--------|--------|--------|--------|--------|--------|
A|--------|--------|--------|--------|--------|--------|--------|--------|--------|
E|--------|--------|--------|--------|--------|--------|--------|--------|--------|


E|--------|--------|--------|--------|--------|--------|--------|--------|--------|
B|--------|--------|--------|--------|--------|--------|--------|--------|--------|
G|--------|--------|--------|--------|--------|--------|--------|--------|--------|
D|--------|--------|--------|--------|--------|--------|--------|--------|--------|
A|--------|--------|--------|--------|--------|--------|--------|--------|--------|
E|--------|--------|--------|--------|--------|--------|--------|--------|--------|


E|--------|--------|--------|--------|--------|--------|--------|--------|--------|
B|--------|--------|--------|--------|--------|--------|--------|--------|--------|
G|--------|--------|--------|--------|--------|--------|--------|--------|--------|
D|--------|--------|--------|--------|--------|--------|--------|--------|--------|
A|--------|--------|--------|--------|--------|--------|--------|--------|--------|
E|--------|--------|--------|--------|--------|--------|--------|--------|--------|


E|-------------|
B|-------------|
G|-------8-----|
D|-------------|
A|-------------|
E|-------------|





Track 8: Dist.Gtr.I

E|--------|--------|--------|--------|--------|--------|--------|--------|--------|
B|--------|--------|--------|--------|--------|--------|--------|--------|--------|
G|--------|--------|--------|--------|--------|--------|--------|--------|--------|
D|--------|--------|--------|--------|--------|--------|--------|--------|--------|
A|--------|--------|--------|--------|--------|--------|--------|--------|--------|
E|--------|--------|--------|--------|--------|--------|--------|--------|--------|


E|--------|--------|--------|--------|--------|--------|--------|--------|--------|
B|--------|--------|--------|--------|--------|--------|--------|--------|--------|
G|--------|--------|--------|--------|--------|--------|--------|--------|--------|
D|--------|--------|--------|--------|--------|--------|--------|--------|--------|
A|--------|--------|--------|--------|--------|--------|--------|--------|--------|
E|--------|--------|--------|--------|--------|--------|--------|--------|--------|


E|--------|--------|--------|--------|--------|--------|--------|--------|--------|
B|--------|--------|--------|--------|--------|--------|--------|--------|--------|
G|--------|--------|--------|--------|--------|--------|--------|--------|--------|
D|--------|--------|--------|--------|--------|--------|--------|--------|--------|
A|--------|--------|--------|--------|--------|--------|--------|--------|--------|
E|--------|--------|--------|--------|--------|--------|--------|--------|--------|


E|--------|--------|--------|--------|--------|--------|--------|--------|--------|
B|--------|--------|--------|--------|--------|--------|--------|--------|--------|
G|--------|--------|--------|--------|--------|--------|--------|--------|--------|
D|--------|--------|--------|--------|--------|--------|--------|--------|--------|
A|--------|--------|--------|--------|--------|--------|--------|--------|--------|
E|--------|--------|--------|--------|--------|--------|--------|--------|--------|


E|--------|--------|--------|--------|--------|--------|--------|--------|--------|
B|--------|--------|--------|--------|--------|--------|--------|--------|--------|
G|--------|--------|--------|--------|--------|--------|--------|--------|--------|
D|--------|--------|--------|--------|--------|--------|--------|--------|--------|
A|--------|--------|--------|--------|--------|--------|--------|--------|--------|
E|--------|--------|--------|--------|--------|--------|--------|--------|--------|


E|--------|--------|--------|--------|--------|--------|--------|--------|--------|
B|--------|--------|--------|--------|--------|--------|--------|--------|--------|
G|--------|--------|--------|--------|--------|--------|--------|--------|--------|
D|--------|--------|--------|--------|--------|--------|--------|--------|--------|
A|--------|--------|--------|--------|--------|--------|--------|--------|--------|
E|--------|--------|--------|--------|--------|--------|--------|--------|--------|


E|--------|--------|--------|--------|--------|--------|--------|--------|--------|
B|--------|--------|--------|--------|--------|--------|--------|--------|--------|
G|--------|--------|--------|--------|--------|--------|--------|--------|--------|
D|--------|--------|--------|--------|--------|--------|--------|--------|--------|
A|--------|--------|--------|--------|--------|--------|--------|--------|--------|
E|--------|--------|--------|--------|--------|--------|--------|--------|--------|


E|--------|--------|--------|--------|--------|--------|--------|--------|--------|
B|--------|--------|--------|--------|--------|--------|--------|--------|--------|
G|--------|--------|--------|--------|--------|--------|--------|--------|--------|
D|--------|--------|--------|--------|--------|--------|--------|--------|--------|
A|--------|--------|--------|--------|--------|--------|--------|--------|--------|
E|--------|--------|--------|--------|--------|--------|--------|--------|--------|


E|--------|--------|--------|--------|--------|--------|--------|--------|--------|
B|--------|--------|--------|--------|--------|--------|--------|--------|--------|
G|--------|--------|--------|--------|--------|--------|--------|--------|--------|
D|--------|--------|--------|--------|--------|--------|--------|--------|--------|
A|--------|--------|--------|--------|--------|--------|--------|--------|--------|
E|--------|--------|--------|--------|--------|--------|--------|--------|--------|


E|--------|--------|--------|--------|--------|--------|--------|--------|--------|
B|--------|--------|--------|--------|--------|--------|--------|--------|--------|
G|--------|--------|--------|--------|--------|--------|--------|--------|--------|
D|--------|--------|--------|--------|--------|--------|--------|--------|--------|
A|--------|--------|--------|--------|--------|--------|--------|--------|--------|
E|--------|--------|--------|--------|--------|--------|--------|--------|--------|


E|--------|--------|--------|--------|--------|--------|--------|--------|--------|
B|--------|--------|--------|--------|--------|--------|--------|--------|--------|
G|--------|--------|--------|--------|--------|--------|--------|--------|--------|
D|--------|--------|--------|--------|--------|--------|--------|--------|--------|
A|--------|--------|--------|--------|--------|--------|--------|--------|--------|
E|--------|--------|--------|--------|--------|--------|--------|--------|--------|


E|--------|--------|--------|--------|--------|--------|--------|--------|--------|
B|--------|--------|--------|--------|--------|--------|--------|--------|--------|
G|--------|--------|--------|--------|--------|--------|--------|--------|--------|
D|--------|--------|--------|--------|--------|--------|--------|--------|--------|
A|--------|--------|--------|--------|--------|--------|--------|--------|--------|
E|--------|--------|--------|--------|--------|--------|--------|--------|--------|


E|--------|--------|--------|--------|--------|--------|--------|--------|--------|
B|--------|--------|--------|--------|--------|--------|--------|--------|--------|
G|--------|--------|--------|--------|--------|--------|--------|--------|--------|
D|--------|--------|--------|--------|--------|--------|--------|--------|--------|
A|--------|--------|--------|--------|--------|--------|--------|--------|--------|
E|--------|--------|--------|--------|--------|--------|--------|--------|--------|


E|--------|--------|--------|--------|--------|--------|--------|--------|--------|
B|--------|--------|--------|--------|--------|--------|--------|--------|--------|
G|--------|--------|--------|--------|--------|--------|--------|--------|--------|
D|--------|--------|--------|--------|--------|--------|--------|--------|--------|
A|--------|--------|--------|--------|--------|--------|--------|--------|--------|
E|--------|--------|--------|--------|--------|--------|--------|--------|--------|


E|--------|--------|--------|--------|--------|--------|--------|--------|--------|
B|--------|--------|--------|--------|--------|--------|--------|--------|--------|
G|--------|--------|--------|--------|--------|--------|--------|--------|--------|
D|--------|--------|--------|--------|--------|--------|--------|--------|--------|
A|--------|--------|--------|--------|--------|--------|--------|--------|--------|
E|--------|--------|--------|--------|--------|--------|--------|--------|--------|


E|--------|--------|--------|--------|--------|--------|--------|--------|--------|
B|--------|--------|--------|--------|--------|--------|--------|--------|--------|
G|--------|--------|--------|--------|--------|--------|--------|--------|--------|
D|--------|--------|--------|--------|--------|--------|--------|--------|--------|
A|--------|--------|--------|--------|--------|--------|--------|--------|--------|
E|--------|--------|--------|--------|--------|--------|--------|--------|--------|


E|--------|--------|--------|--------|--------|--------|--------|--------|--------|
B|--------|--------|--------|--------|--------|--------|--------|--------|--------|
G|--------|--------|--------|--------|--------|--------|--------|--------|--------|
D|--------|--------|--------|--------|--------|--------|--------|--------|--------|
A|--------|--------|--------|--------|--------|--------|--------|--------|--------|
E|--------|--------|--------|--------|--------|--------|--------|--------|--------|


E|--------|--------|--------|--------|--------|--------|--------|--------|--------|
B|--------|--------|--------|--------|--------|--------|--------|--------|--------|
G|--------|--------|--------|--------|--------|--------|--------|--------|--------|
D|--------|--------|--------|--------|--------|--------|--------|--------|--------|
A|--------|--------|--------|--------|--------|--------|--------|--------|--------|
E|--------|--------|--------|--------|--------|--------|--------|--------|--------|


E|--------|--------|--------|--------|--------|--------|--------|--------|--------|
B|--------|--------|--------|--------|--------|--------|--------|--------|--------|
G|--------|--------|--------|--------|--------|--------|--------|--------|--------|
D|--------|--------|--------|--------|--------|--------|--------|--------|--------|
A|--------|--------|--------|--------|--------|--------|--------|--------|--------|
E|--------|--------|--------|--------|--------|--------|--------|--------|--------|


E|--------|--------|--------|--------|--------|--------|--------|--------|--------|
B|--------|--------|--------|--------|--------|--------|--------|--------|--------|
G|--------|--------|--------|--------|--------|--------|--------|--------|--------|
D|--------|--------|--------|--------|--------|--------|--------|--------|--------|
A|--------|--------|--------|--------|--------|--------|--------|--------|--------|
E|--------|--------|--------|--------|--------|--------|--------|--------|--------|


E|--------|--------|--------|--------|--------|--------|--------|--------|--------|
B|--------|--------|--------|--------|--------|--------|--------|--------|--------|
G|--------|--------|--------|--------|--------|--------|--------|--------|--------|
D|--------|--------|--------|--------|--------|--------|--------|--------|--------|
A|--------|--------|--------|--------|--------|--------|--------|--------|--------|
E|--------|--------|--------|--------|--------|--------|--------|--------|--------|


E|--------|--------|--------|--------|--------|--------|--------|--------|--------|
B|--------|--------|--------|--------|--------|--------|--------|--------|--------|
G|--------|--------|--------|--------|--------|--------|--------|--------|--------|
D|--------|--------|--------|--------|--------|--------|--------|--------|--------|
A|--------|--------|--------|--------|--------|--------|--------|--------|--------|
E|--------|--------|--------|--------|--------|--------|--------|--------|--------|


E|-------------|
B|-------------|
G|-------------|
D|-------------|
A|-------------|
E|-------------|





Track 9: Bass

G|----------------------------|----------------------------|----------------------------|
D|----------------------------|----------------------------|----------------------------|
A|------2----1----2--0--------|------2----1----2--0--------|------2----1----2--0--------|
E|-0--------------------2--3--|-0--------------------2--3--|-0--------------------2--3--|


G|----------------------------|----------------------------|----------------------------|
D|----------------------------|----------------------------|----------------------------|
A|------2----1----2--0--------|------2----1----2--0--------|------2----1----2--0--------|
E|-0--------------------2--3--|-0--------------------2--3--|-0--------------------2--3--|


G|----------------------------|----------------------------|----------------------------|
D|----------------------------|----------------------------|----------------------------|
A|------2----1----2--0--------|------2----1----2--0--------|------2----1----2--0--------|
E|-0--------------------2--3--|-0--------------------2--3--|-0--------------------2--3--|


G|----------------------------|----------------------------|----------------------------|
D|----------------------------|----------------------------|----------------------------|
A|------2----1----2--0--------|------2----1----2--0--------|------2----1----2--0--------|
E|-0--------------------2--3--|-0--------------------2--3--|-0--------------------2--3--|


G|---------------------------------|---------------------------------|---------------------------------|
D|---------------------------------|---------------------------------|---------------------------------|
A|---------------------------------|---------------------------------|---------------------------------|
E|-0----0--0----0--0----0--0----0--|-0----0--0----0--0----0--0----0--|-0----0--0----0--0----0--0----0--|


G|---------------------------------|---------------------------------|---------------------------------|
D|---------------------------------|---------------------------------|---------------------------------|
A|---------------------------------|---------------------------------|---------------------------------|
E|-0----0--0----0--0----0--0----0--|-0----0--0----0--0----0--0----0--|-0----0--0----0--0----0--0----0--|


G|---------------------------------|---------------------------------|-----------------------------------------|
D|---------------------------------|---------------------------------|-----------------------------------------|
A|---------------------------------|---------------------------------|-----------------------------------------|
E|-0----0--0----0--0----0--0----0--|-0----0--0----0--0----0--0----0--|-0---0--0--0---0--0--0---0--0--0---0--0--|


G|-----------------------------------------|-----------------------------------------|
D|-----------------------------------------|-----------------------------------------|
A|-----------------------------------------|-----------------------------------------|
E|-1---1--1--1---1--1--1---1--1--1---1--1--|-2---2--2--2---2--2--2---2--2--2---2--2--|


G|-----------------------------------------|-----------------------------------------|
D|-----------------------------------------|-----------------------------------------|
A|-----------------------------------------|-----------------------------------------|
E|-3---3--3--3---3--3--3---3--3--3---3--3--|-0---0--0--0---0--0--0---0--0--0---0--0--|


G|-----------------------------------------|-----------------------------------------|
D|-----------------------------------------|-----------------------------------------|
A|-----------------------------------------|-----------------------------------------|
E|-1---1--1--1---1--1--1---1--1--1---1--1--|-2---2--2--2---2--2--2---2--2--2---2--2--|


G|-----------------------------------------|-----------------------------------------|
D|-----------------------------------------|-----------------------------------------|
A|-----------------------------------------|-----------------------------------------|
E|-3---3--3--3---3--3--3---3--3--3---3--3--|-0---0--0--0---0--0--0---0--0--0---0--0--|


G|-----------------------------------------|-----------------------------------------|
D|-----------------------------------------|-----------------------------------------|
A|-----------------------------------------|-----------------------------------------|
E|-1---1--1--1---1--1--1---1--1--1---1--1--|-2---2--2--2---2--2--2---2--2--2---2--2--|


G|-----------------------------------------|-----------------------------------------|
D|-----------------------------------------|-----------------------------------------|
A|-----------------------------------------|-----------------------------------------|
E|-3---3--3--3---3--3--3---3--3--3---3--3--|-0---0--0--0---0--0--0---0--0--0---0--0--|


G|-----------------------------------------|-----------------------------------------|
D|-----------------------------------------|-----------------------------------------|
A|-----------------------------------------|-----------------------------------------|
E|-1---1--1--1---1--1--1---1--1--1---1--1--|-2---2--2--2---2--2--2---2--2--2---2--2--|


G|-----------------------------------------|-------------------------------|-------------------------------|
D|-----------------------------------------|-------------------------------|-------------------------------|
A|-----------------------------------------|-------------------------------|-----------5--------------7----|
E|-3---3--3--3---3--3--3---3--3--3---3--3--|-0----3----0---0--0--0---0--0--|-0---0--0-------0---0--0-------|


G|-------------------------------|-------------------------------|-------------------------------|
D|-------------------------------|-------------------------------|-------------------------------|
A|-------------------------------|-----------5--------------7----|-------------------------------|
E|-0----3----0---0--0--0---0--0--|-0---0--0-------0---0--0-------|-0----3----0---0--0--0---0--0--|


G|-------------------------------|-------------------------------|-------------------------------|
D|-------------------------------|-------------------------------|-------------------------------|
A|-----------5--------------7----|-------------------------------|-----------5--------------7----|
E|-0---0--0-------0---0--0-------|-0----3----0---0--0--0---0--0--|-0---0--0-------0---0--0-------|


G|-------------------------------|-----------------------------------------|-----------------------------------------|
D|-------------------------------|-----------------------------------------|-----------------------------------------|
A|-------------------------------|-----------------------------------------|-----------------------------------------|
E|-0----3----0---0--0--0---0--0--|-0---0--0--0---0--0--1---1--1--1---1--1--|-1---1--1--1---1--1--2---2--2--2---2--2--|


G|-----------------------------------------|-----------------------------------------|
D|-----------------------------------------|-----------------------------------------|
A|-----------------------------------------|-----------------------------------------|
E|-2---2--2--2---2--2--3---3--3--3---3--3--|-3---3--3--3---3--3--0---0--0--0---0--0--|


G|-----------------------------------------|-----------------------------------------|
D|-----------------------------------------|-----------------------------------------|
A|-----------------------------------------|-----------------------------------------|
E|-0---0--0--0---0--0--1---1--1--1---1--1--|-1---1--1--1---1--1--2---2--2--2---2--2--|


G|-----------------------------------------|-------------------------------|------------------------------------|
D|-----------------------------------------|-------------------------------|------------------------------------|
A|-----------------------------------------|-------------------------------|-------------------------------5----|
E|-2---2--2--2---2--2--3---3--3--3---3--3--|-3---3--3--3---3--3--0----3----|-0---0--0--0---0--0--0---0--0-------|


G|--------------------------|------------------------------------|--------------------------|
D|--------------------------|------------------------------------|--------------------------|
A|-----------7--------------|-------------------------------5----|-----------7--------------|
E|-0---0--0-------0----3----|-0---0--0--0---0--0--0---0--0-------|-0---0--0-------0----3----|


G|------------------------------------|--------------------------|------------------------------------|
D|------------------------------------|--------------------------|------------------------------------|
A|-------------------------------5----|-----------7--------------|-------------------------------5----|
E|-0---0--0--0---0--0--0---0--0-------|-0---0--0-------0----3----|-0---0--0--0---0--0--0---0--0-------|


G|--------------------------|-----------------------------------------|-----------------------------------------|
D|--------------------------|-----------------------------------------|-----------------------------------------|
A|-----------7--------------|-----------------------------------------|-----------------------------------------|
E|-0---0--0-------0----3----|-0---0--0--3---0--0--0---0--0--4--4--3---|-0---0--0--3---0--0--0---0--0--4--4--3---|


G|-----------------------------------------|-----------------------------------------|
D|-----------------------------------------|-----------------------------------------|
A|-----------------------------------------|-----------------------------------------|
E|-0---0--0--3---0--0--0---0--0--4--4--3---|-0---0--0--3---0--0--0---0--0--4--4--3---|


G|-----------------------------------------|-----------------------------------------|
D|-----------------------------------------|-----------------------------------------|
A|-----------------------------------------|-----------------------------------------|
E|-0---0--0--3---0--0--0---0--0--4--4--3---|-0---0--0--3---0--0--0---0--0--4--4--3---|


G|-----------------------------------------|-----------------------------------------|
D|-----------------------------------------|-----------------------------------------|
A|-----------------------------------------|-----------------------------------------|
E|-0---0--0--3---0--0--0---0--0--4--4--3---|-0---0--0--3---0--0--0---0--0--4--4--3---|


G|-----------------------------------------|-----------------------------------------|
D|-----------------------------------------|-----------------------------------------|
A|-----------------------------------------|-----------------------------------------|
E|-0---0--0--3---0--0--0---0--0--4--4--3---|-0---0--0--3---0--0--0---0--0--5--5--6---|


G|-----------------------------------------|-----------------------------------------|
D|-----------------------------------------|-----------------------------------------|
A|-----------------------------------------|-----------------------------------------|
E|-0---0--0--3---0--0--0---0--0--4--4--3---|-0---0--0--3---0--0--0---0--0--5--5--6---|


G|-----------------------------------------|-----------------------------------------|
D|-----------------------------------------|-----------------------------------------|
A|-----------------------------------------|-----------------------------------------|
E|-0---0--0--3---0--0--0---0--0--4--4--3---|-0---0--0--3---0--0--0---0--0--5--5--6---|


G|-----------------------------------------|-----------------------------------------|
D|-----------------------------------------|-----------------------------------------|
A|-----------------------------------------|-----------------------------------------|
E|-0---0--0--3---0--0--0---0--0--4--4--3---|-0---0--0--3--3--2---0---0--0--2--2--1---|


G|-----------------------------------------|-----------------------------------------|
D|-----------------------------------------|-----------------------------------------|
A|-----------------------------------------|-----------------------------------------|
E|-0---0--0--3---0--0--0---0--0--4--4--3---|-0---0--0--3---0--0--0---0--0--5--5--6---|


G|-----------------------------------------|-----------------------------------------|
D|-----------------------------------------|-----------------------------------------|
A|-----------------------------------------|-----------------------------------------|
E|-0---0--0--3---0--0--0---0--0--4--4--3---|-0---0--0--3--3--2---0---0--0--2--2--1---|


G|-----------------------------------------|-----------------------------------------|
D|-----------------------------------------|-----------------------------------------|
A|-----------------------------------------|-----------------------------------------|
E|-0---0--0--3---0--0--0---0--0--4--4--3---|-0---0--0--3---0--0--0---0--0--5--5--6---|


G|-----------------------------------------|-----------------------------------------|
D|-----------------------------------------|-----------------------------------------|
A|-----------------------------------------|-----------------------------------------|
E|-0---0--0--3---0--0--0---0--0--4--4--3---|-0---0--0--3--3--2---0---0--0--2--2--1---|


G|--------------------|---------------------------|--------------------|------------------------|
D|--------------------|---------------------------|--------------------|------------------------|
A|--------------------|----------5-------4--------|--------------------|------------------------|
E|-2------------------|-2---------------------5---|-2------------------|-2--------3----2----0---|


G|--------------------|---------------------------|--------------------|------------------------|
D|--------------------|---------------------------|--------------------|------------------------|
A|--------------------|----------5-------4--------|--------------------|------------------------|
E|-2------------------|-2---------------------5---|-2------------------|-2--------3----2----0---|


G|--------------------|---------------------------|--------------------|------------------------|
D|--------------------|---------------------------|--------------------|------------------------|
A|--------------------|----------5-------4--------|--------------------|------------------------|
E|-2------------------|-2---------------------5---|-2------------------|-2--------3----2----0---|


G|--------------------|---------------------------|--------------------|------------------------|
D|--------------------|---------------------------|--------------------|------------------------|
A|--------------------|----------5-------4--------|--------------------|------------------------|
E|-2------------------|-2---------------------5---|-2------------------|-2--------3----2----0---|


G|---------------------|---------------------------|---------------------|---------------------------|
D|---------------------|---------------------------|---------------------|---------------------------|
A|---------------------|-------------5----4--------|---------------------|---------------------------|
E|-2----2----2----2----|-2---0---0-------------5---|-2----2----2----2----|-2---0---0---3----2----0---|


G|---------------------|---------------------------|---------------------|---------------------------|
D|---------------------|---------------------------|---------------------|---------------------------|
A|---------------------|-------------5----4--------|---------------------|---------------------------|
E|-2----2----2----2----|-2---0---0-------------5---|-2----2----2----2----|-2---0---0---3----2----0---|


G|---------------------|---------------------------|---------------------|---------------------------|
D|---------------------|---------------------------|---------------------|---------------------------|
A|---------------------|-------------5----4--------|---------------------|---------------------------|
E|-2----2----2----2----|-2---0---0-------------5---|-2----2----2----2----|-2---0---0---3----2----0---|


G|---------------------|---------------------------|---------------------|---------------------------|
D|---------------------|---------------------------|---------------------|---------------------------|
A|---------------------|-------------5----4--------|---------------------|---------------------------|
E|-2----2----2----2----|-2---0---0-------------5---|-2----2----2----2----|-2---0---0---3----2----0---|


G|-----------------------------------------|-----------------------------------------|
D|-----------------------------------------|-----------------------------------------|
A|-----------------------------------------|-----------------------------------------|
E|-0---0--0--0---0--0--0---0--0--0---0--0--|-1---1--1--1---1--1--1---1--1--1---1--1--|


G|-----------------------------------------|-----------------------------------------|
D|-----------------------------------------|-----------------------------------------|
A|-----------------------------------------|-----------------------------------------|
E|-2---2--2--2---2--2--2---2--2--2---2--2--|-3---3--3--3---3--3--3---3--3--3---3--3--|


G|-----------------------------------------|-----------------------------------------|
D|-----------------------------------------|-----------------------------------------|
A|-----------------------------------------|-----------------------------------------|
E|-0---0--0--0---0--0--0---0--0--0---0--0--|-1---1--1--1---1--1--1---1--1--1---1--1--|


G|-----------------------------------------|-----------------------------------------|
D|-----------------------------------------|-----------------------------------------|
A|-----------------------------------------|-----------------------------------------|
E|-2---2--2--2---2--2--2---2--2--2---2--2--|-3---3--3--3---3--3--3---3--3--3---3--3--|


G|-----------------------------------------|-----------------------------------------|
D|-----------------------------------------|-----------------------------------------|
A|-----------------------------------------|-----------------------------------------|
E|-0---0--0--0---0--0--0---0--0--0---0--0--|-1---1--1--1---1--1--1---1--1--1---1--1--|


G|-----------------------------------------|-----------------------------------------|
D|-----------------------------------------|-----------------------------------------|
A|-----------------------------------------|-----------------------------------------|
E|-2---2--2--2---2--2--2---2--2--2---2--2--|-3---3--3--3---3--3--3---3--3--3---3--3--|


G|-----------------------------------------|-----------------------------------------|
D|-----------------------------------------|-----------------------------------------|
A|-----------------------------------------|-----------------------------------------|
E|-0---0--0--0---0--0--0---0--0--0---0--0--|-1---1--1--1---1--1--1---1--1--1---1--1--|


G|-----------------------------------------|-----------------------------------------|
D|-----------------------------------------|-----------------------------------------|
A|-----------------------------------------|-----------------------------------------|
E|-2---2--2--2---2--2--2---2--2--2---2--2--|-3---3--3--3---3--3--3---3--3--3---3--3--|


G|-------------------------------|-------------------------------|-------------------------------|
D|-------------------------------|-------------------------------|-------------------------------|
A|-------------------------------|-----------5--------------7----|-------------------------------|
E|-0----3----0---0--0--0---0--0--|-0---0--0-------0---0--0-------|-0----3----0---0--0--0---0--0--|


G|-------------------------------|-------------------------------|-------------------------------|
D|-------------------------------|-------------------------------|-------------------------------|
A|-----------5--------------7----|-------------------------------|-----------5--------------7----|
E|-0---0--0-------0---0--0-------|-0----3----0---0--0--0---0--0--|-0---0--0-------0---0--0-------|


G|-------------------------------|-------------------------------|-------------------------------|
D|-------------------------------|-------------------------------|-------------------------------|
A|-------------------------------|-----------5--------------7----|-------------------------------|
E|-0----3----0---0--0--0---0--0--|-0---0--0-------0---0--0-------|-0----3----0---0--0--0---0--0--|


G|-------------------------------|-------------------------------|-------------------------------|
D|-------------------------------|-------------------------------|-------------------------------|
A|-----------5--------------7----|-------------------------------|-----------5--------------7----|
E|-0---0--0-------0---0--0-------|-0----3----0---0--0--0---0--0--|-0---0--0-------0---0--0-------|


G|-------------------------------|-------------------------------|-------------------------------|
D|-------------------------------|-------------------------------|-------------------------------|
A|-------------------------------|-----------5--------------7----|-------------------------------|
E|-0----3----0---0--0--0---0--0--|-0---0--0-------0---0--0-------|-0----3----0---0--0--0---0--0--|


G|-------------------------------|-----------------|--------------------|-------------|
D|-------------------------------|-----------------|--------------------|-------------|
A|-----------5--------------7----|-----------------|--------------------|-------------|
E|-0---0--0-------0---0--0-------|-0----3----0-----|-------0------------|-------0-----|


G|--------------------|-------------|--------------------|-------------|--------------------|
D|--------------------|-------------|--------------------|-------------|--------------------|
A|--------------------|-------------|--------------------|-------------|--------------------|
E|-------0------------|-------0-----|-------0------------|-------0-----|-------0------------|


G|-----------------------|------------------------------|-----------------------|------------------------------|
D|-----------------------|------------------------------|-----------------------|------------------------------|
A|-----------------------|------------------------------|-----------------------|------------------------------|
E|-------0---0---0---0---|-0---0---0---0---0------------|-------0---0---0---0---|-0---0---0---0---0------------|


G|---------------------------|----------------------------------|---------------------------|
D|---------------------------|----------------------------------|---------------------------|
A|---------------------------|----------------------------------|---------------------------|
E|-------0---0--0--0---0--0--|-0---0--0--0---0--0--0------------|-------0---0--0--0---0--0--|


G|---------------------------------------|----------------------------------|-----------------------------------------|
D|---------------------------------------|----------------------------------|-----------------------------------------|
A|-------------------------7--7--6-------|---------5------------------------|-----------------------------------------|
E|-0---0--0--0---0--0--0-------------0---|-6---7--------0---0--0--3---0--0--|-0---0--0--4--4--3---0---0--0--3---0--0--|


G|-----------------------------------------|---------------------------------------|
D|-----------------------------------------|---------------------------------------|
A|-----------6--6--7-----------------------|-------------------------7--7--6-------|
E|-0---0--0------------0---0--0--3---0--0--|-0---0--0--4--4--3---0-------------0---|


G|----------------------------------|-----------------------------------------|-----------------------------------------|
D|----------------------------------|-----------------------------------------|-----------------------------------------|
A|---------5------------------------|-----------------------------------------|-----------6--6--7-----------------------|
E|-6---7--------0---0--0--3---0--0--|-0---0--0--4--4--3---0---0--0--3---0--0--|-0---0--0------------0---0--0--3---0--0--|


G|---------------------------------------|----------------------------------|-----------------------------------------|
D|---------------------------------------|----------------------------------|-----------------------------------------|
A|-------------------------7--7--6-------|---------5------------------------|-----------------------------------------|
E|-0---0--0--4--4--3---0-------------0---|-6---7--------0---0--0--3---0--0--|-0---0--0--4--4--3---0---0--0--3---0--0--|


G|-----------------------------------------|---------------------------------------|
D|-----------------------------------------|---------------------------------------|
A|-----------6--6--7-----------------------|-------------------------7--7--6-------|
E|-0---0--0------------0---0--0--3---0--0--|-0---0--0--4--4--3---0-------------0---|


G|----------------------------------|-----------------------------------------|-----------------------------------------|
D|----------------------------------|-----------------------------------------|-----------------------------------------|
A|---------5------------------------|-----------------------------------------|-----------6--6--7-----------------------|
E|-6---7--------0---0--0--3---0--0--|-0---0--0--4--4--3---0---0--0--3---0--0--|-0---0--0------------0---0--0--3---0--0--|


G|---------------------------------------|----------------------------------|-----------------------------------------|
D|---------------------------------------|----------------------------------|-----------------------------------------|
A|-------------------------7--7--6-------|---------5------------------------|-----------------------------------------|
E|-0---0--0--4--4--3---0-------------0---|-6---7--------0---0--0--3---0--0--|-0---0--0--4--4--3---0---0--0--3---0--0--|


G|-----------------------------------------|---------------------------------------|
D|-----------------------------------------|---------------------------------------|
A|-----------6--6--7-----------------------|-------------------------7--7--6-------|
E|-0---0--0------------0---0--0--3---0--0--|-0---0--0--4--4--3---0-------------0---|


G|----------------------------------|-----------------------------------------|-----------------------------------------|
D|----------------------------------|-----------------------------------------|-----------------------------------------|
A|---------5------------------------|-----------------------------------------|-----------6--6--7-----------------------|
E|-6---7--------0---0--0--3---0--0--|-0---0--0--4--4--3---0---0--0--3---0--0--|-0---0--0------------0---0--0--3---0--0--|


G|---------------------------------------|----------------------------------|-----------------------------------------|
D|---------------------------------------|----------------------------------|-----------------------------------------|
A|-------------------------7--7--6-------|---------5------------------------|-----------------------------------------|
E|-0---0--0--4--4--3---0-------------0---|-6---7--------0---0--0--3---0--0--|-0---0--0--4--4--3---0---0--0--3---0--0--|


G|-----------------------------------------|---------------------------------------|
D|-----------------------------------------|---------------------------------------|
A|-----------6--6--7-----------------------|-------------------------7--7--6-------|
E|-0---0--0------------0---0--0--3---0--0--|-0---0--0--4--4--3---0-------------0---|


G|----------------------------------|-----------------------------------------|-----------------------------------------|
D|----------------------------------|-----------------------------------------|-----------------------------------------|
A|---------5------------------------|-----------------------------------------|-----------6--6--7-----------------------|
E|-6---7--------0---0--0--3---0--0--|-0---0--0--4--4--3---0---0--0--3---0--0--|-0---0--0------------0---0--0--3---0--0--|


G|---------------------------------------|---------------------------|-------------|
D|---------------------------------------|---------------------------|-------------|
A|-------------------------7--7--6-------|---------5---7---7---------|-------------|
E|-0---0--0--4--4--3---0-------------0---|-6---7---------------------|-------------|





Track 10: Sound Effect

G|--------|--------|--------|--------|--------|--------|--------|--------|--------|
D|--------|--------|--------|--------|--------|--------|--------|--------|--------|
A|--------|--------|--------|--------|--------|--------|--------|--------|--------|
E|--------|--------|--------|--------|--------|--------|--------|--------|--------|


G|--------|--------|--------|--------|--------|--------|--------|--------|--------|
D|--------|--------|--------|--------|--------|--------|--------|--------|--------|
A|--------|--------|--------|--------|--------|--------|--------|--------|--------|
E|--------|--------|--------|--------|--------|--------|--------|--------|--------|


G|--------|--------|--------|--------|--------|--------|--------|--------|--------|
D|--------|--------|--------|--------|--------|--------|--------|--------|--------|
A|--------|--------|--------|--------|--------|--------|--------|--------|--------|
E|--------|--------|--------|--------|--------|--------|--------|--------|--------|


G|--------|--------|--------|--------|--------|--------|--------|--------|--------|
D|--------|--------|--------|--------|--------|--------|--------|--------|--------|
A|--------|--------|--------|--------|--------|--------|--------|--------|--------|
E|--------|--------|--------|--------|--------|--------|--------|--------|--------|


G|--------|--------|--------|--------|--------|--------|--------|--------|--------|
D|--------|--------|--------|--------|--------|--------|--------|--------|--------|
A|--------|--------|--------|--------|--------|--------|--------|--------|--------|
E|--------|--------|--------|--------|--------|--------|--------|--------|--------|


G|--------|--------|--------|--------|--------|--------|--------|--------|--------|
D|--------|--------|--------|--------|--------|--------|--------|--------|--------|
A|--------|--------|--------|--------|--------|--------|--------|--------|--------|
E|--------|--------|--------|--------|--------|--------|--------|--------|--------|


G|--------|--------|--------|--------|--------|--------|--------|--------|--------|
D|--------|--------|--------|--------|--------|--------|--------|--------|--------|
A|--------|--------|--------|--------|--------|--------|--------|--------|--------|
E|--------|--------|--------|--------|--------|--------|--------|--------|--------|


G|--------|--------|--------|--------|--------|--------|--------|--------|--------|
D|--------|--------|--------|--------|--------|--------|--------|--------|--------|
A|--------|--------|--------|--------|--------|--------|--------|--------|--------|
E|--------|--------|--------|--------|--------|--------|--------|--------|--------|


G|--------|--------|--------|--------|--------|--------|--------|--------|--------|
D|--------|--------|--------|--------|--------|--------|--------|--------|--------|
A|--------|--------|--------|--------|--------|--------|--------|--------|--------|
E|--------|--------|--------|--------|--------|--------|--------|--------|--------|


G|--------|--------|--------|--------|--------|--------|--------|--------|--------|
D|--------|--------|--------|--------|--------|--------|--------|--------|--------|
A|--------|--------|--------|--------|--------|--------|--------|--------|--------|
E|--------|--------|--------|--------|--------|--------|--------|--------|--------|


G|--------|--------|--------|--------|--------|--------|--------|--------|--------|
D|--------|--------|--------|--------|--------|--------|--------|--------|--------|
A|--------|--------|--------|--------|--------|--------|--------|--------|--------|
E|--------|--------|--------|--------|--------|--------|--------|--------|--------|


G|--------|--------|--------|--------|--------|--------|--------|--------|--------|
D|--------|--------|--------|--------|--------|--------|--------|--------|--------|
A|--------|--------|--------|--------|--------|--------|--------|--------|--------|
E|--------|--------|--------|--------|--------|--------|--------|--------|--------|


G|--------|--------|--------|--------|--------|--------|--------|--------|--------|
D|--------|--------|--------|--------|--------|--------|--------|--------|--------|
A|--------|--------|--------|--------|--------|--------|--------|--------|--------|
E|--------|--------|--------|--------|--------|--------|--------|--------|--------|


G|--------|--------|--------|--------|--------|--------|--------|--------|--------|
D|--------|--------|--------|--------|--------|--------|--------|--------|--------|
A|--------|--------|--------|--------|--------|--------|--------|--------|--------|
E|--------|--------|--------|--------|--------|--------|--------|--------|--------|


G|--------|--------|--------|--------|--------|--------|--------|--------|--------|
D|--------|--------|--------|--------|--------|--------|--------|--------|--------|
A|--------|--------|--------|--------|--------|--------|--------|--------|--------|
E|--------|--------|--------|--------|--------|--------|--------|--------|--------|


G|--------|--------|--------|--------|--------|--------|--------|--------|--------|
D|--------|--------|--------|--------|--------|--------|--------|--------|--------|
A|--------|--------|--------|--------|--------|--------|--------|--------|--------|
E|--------|--------|--------|--------|--------|--------|--------|--------|--------|


G|--------|--------|--------|--------|--------|--------|--------|--------|--------|
D|--------|--------|--------|--------|--------|--------|--------|--------|--------|
A|--------|--------|--------|--------|--------|--------|--------|--------|--------|
E|--------|--------|--------|--------|--------|--------|--------|--------|--------|


G|--------|--------|--------|--------|--------|--------|--------|--------|--------|
D|--------|--------|--------|--------|--------|--------|--------|--------|--------|
A|--------|--------|--------|--------|--------|--------|--------|--------|--------|
E|--------|--------|--------|--------|--------|--------|--------|--------|--------|


G|--------|--------|--------|--------|--------|--------|--------|--------|--------|
D|--------|--------|--------|--------|--------|--------|--------|--------|--------|
A|--------|--------|--------|--------|--------|--------|--------|--------|--------|
E|--------|--------|--------|--------|--------|--------|--------|--------|--------|


G|--------|--------|--------|--------|--------|--------|--------|--------|--------|
D|--------|--------|--------|--------|--------|--------|--------|--------|--------|
A|--------|--------|--------|--------|--------|--------|--------|--------|--------|
E|--------|--------|--------|--------|--------|--------|--------|--------|--------|


G|--------|--------|--------|--------|--------|--------|--------|--------|--------|
D|--------|--------|--------|--------|--------|--------|--------|--------|--------|
A|--------|--------|--------|--------|--------|--------|--------|--------|--------|
E|--------|--------|--------|--------|--------|--------|--------|--------|--------|


G|--------|--------|--------|--------|--------|--------|--------|-------------|-------15----|
D|--------|--------|--------|--------|--------|--------|--------|-------------|-------15----|
A|--------|--------|--------|--------|--------|--------|--------|-------------|-------15----|
E|--------|--------|--------|--------|--------|--------|--------|-------------|-------------|


G|-------15----|
D|-------15----|
A|-------15----|
E|-------------|