Menu:

 

Search:

 

megadeth - dawn patrol:

 



Title: Dawn Patrol
Artist: 
Album: Rust In Peace
Author: Dave Mustaine & Dave Ellefson


Track 1: Bass

E|-----------------|-----------------------------------------|---------------------------------------------|
B|-----------------|-----------------------------------------|---------------------------------------------|
G|-----------------|-----------------------------------------|---------------------------------------------|
D|-----------------|-----------------------------------------|---------------------8--9--------7--8--------|
A|-----------------|-5--7------7---7--7--5--8------8---8--8--|-5--7------7---7--7--------9--8--------8--7--|
E|------------12---|-------0-------------------0-------------|-------0-------------------------------------|


E|-----------------------------------------|-------------------------------------|
B|-----------------------------------------|-------------------------------------|
G|-----------------------------------------|-----------------------------2---0---|
D|-----------------------------------------|-------------------------------------|
A|-5--7------7---7--7--5--8------8---8--8--|-5--7------7---7---1--0--------------|
E|-------0-------------------0-------------|-------0-----------------3-----------|


E|-----------------------------------------|---------------------------------------------|
B|-----------------------------------------|---------------------------------------------|
G|-----------------------------------------|---------------------------------------------|
D|-----------------------------------------|---------------------8--9--------7--8--------|
A|-5--7------7---7--7--5--8------8---8--8--|-5--7------7---7--7--------9--8--------8--7--|
E|-------0-------------------0-------------|-------0-------------------------------------|


E|-----------------------------------------|----------------------------------|-----------------------------------------|
B|-----------------------------------------|----------------------------------|-----------------------------------------|
G|-----------------------------------------|----------------------------------|-----------------------------------------|
D|-----------------------------------------|----------------------------------|-----------------------------------------|
A|-5--7------7---7--7--5--8------8---8--8--|-5--7------7---7---3--2--0--------|-5--7------7---7--7--5--8------8---8--8--|
E|-------0-------------------0-------------|-------0---------------------0----|-------0-------------------0-------------|


E|---------------------------------------------|-----------------------------------------|
B|---------------------------------------------|-----------------------------------------|
G|---------------------------------------------|-----------------------------------------|
D|---------------------8--9--------7--8--------|-----------------------------------------|
A|-5--7------7---7--7--------9--8--------8--7--|-5--7------7---7--7--5--8------8---8--8--|
E|-------0-------------------------------------|-------0-------------------0-------------|


E|-------------------------------------|-----------------------------------------|
B|-------------------------------------|-----------------------------------------|
G|-----------------------------2---0---|-----------------------------------------|
D|-------------------------------------|-----------------------------------------|
A|-5--7------7---7---1--0--------------|-5--7------7---7--7--5--8------8---8--8--|
E|-------0-----------------3-----------|-------0-------------------0-------------|


E|---------------------------------------------|-----------------------------------------|
B|---------------------------------------------|-----------------------------------------|
G|---------------------------------------------|-----------------------------------------|
D|---------------------8--9--------7--8--------|-----------------------------------------|
A|-5--7------7---7--7--------9--8--------8--7--|-5--7------7---7--7--5--8------8---8--8--|
E|-------0-------------------------------------|-------0-------------------0-------------|


E|-------------------------------------|-----------------------------------------|
B|-------------------------------------|-----------------------------------------|
G|-----------------------------2---0---|-----------------------------------------|
D|-------------------------------------|-----------------------------------------|
A|-5--7------7---7---1--0--------------|-5--7------7---7--7--5--8------8---8--8--|
E|-------0-----------------3-----------|-------0-------------------0-------------|


E|---------------------------------------------|-----------------------------------------|
B|---------------------------------------------|-----------------------------------------|
G|---------------------------------------------|-----------------------------------------|
D|---------------------8--9--------7--8--------|-----------------------------------------|
A|-5--7------7---7--7--------9--8--------8--7--|-5--7------7---7--7--5--8------8---8--8--|
E|-------0-------------------------------------|-------0-------------------0-------------|


E|----------------------------------|-----------------------------------------|---------------------------------------------|
B|----------------------------------|-----------------------------------------|---------------------------------------------|
G|----------------------------------|-----------------------------------------|---------------------------------------------|
D|----------------------------------|-----------------------------------------|---------------------8--9--------7--8--------|
A|-5--7------7---7---3--2--0--------|-5--7------7---7--7--5--8------8---8--8--|-5--7------7---7--7--------9--8--------8--7--|
E|-------0---------------------0----|-------0-------------------0-------------|-------0-------------------------------------|


E|-----------------------------------------|-------------------------------------|
B|-----------------------------------------|-------------------------------------|
G|-----------------------------------------|-----------------------------2---0---|
D|-----------------------------------------|-------------------------------------|
A|-5--7------7---7--7--5--8------8---8--8--|-5--7------7---7---1--0--------------|
E|-------0-------------------0-------------|-------0-----------------3-----------|


E|-----------------------------------------|---------------------------------------------|
B|-----------------------------------------|---------------------------------------------|
G|-----------------------------------------|---------------------------------------------|
D|-----------------------------------------|---------------------8--9--------7--8--------|
A|-5--7------7---7--7--5--8------8---8--8--|-5--7------7---7--7--------9--8--------8--7--|
E|-------0-------------------0-------------|-------0-------------------------------------|


E|-----------------------------------------|-------------------------------------|
B|-----------------------------------------|-------------------------------------|
G|-----------------------------------------|-----------------------------2---0---|
D|-----------------------------------------|-------------------------------------|
A|-5--7------7---7--7--5--8------8---8--8--|-5--7------7---7---1--0--------------|
E|-------0-------------------0-------------|-------0-----------------3-----------|


E|-----------------------------------------|---------------------------------------------|
B|-----------------------------------------|---------------------------------------------|
G|-----------------------------------------|---------------------------------------------|
D|-----------------------------------------|---------------------8--9--------7--8--------|
A|-5--7------7---7--7--5--8------8---8--8--|-5--7------7---7--7--------9--8--------8--7--|
E|-------0-------------------0-------------|-------0-------------------------------------|


E|-----------------------------------------|----------------------------------|
B|-----------------------------------------|----------------------------------|
G|-----------------------------------------|----------------------------------|
D|-----------------------------------------|----------------------------------|
A|-5--7------7---7--7--5--8------8---8--8--|-5--7------7---7---3--2--0--------|
E|-------0-------------------0-------------|-------0---------------------0----|





Track 2: Untitled

G|--------|--------|--------|--------|--------|--------|--------|--------|--------|
D|--------|--------|--------|--------|--------|--------|--------|--------|--------|
A|--------|--------|--------|--------|--------|--------|--------|--------|--------|
E|--------|--------|--------|--------|--------|--------|--------|--------|--------|


G|--------|--------|--------|--------|--------|--------|--------|--------|--------|
D|--------|--------|--------|--------|--------|--------|--------|--------|--------|
A|--------|--------|--------|--------|--------|--------|--------|--------|--------|
E|--------|--------|--------|--------|--------|--------|--------|--------|--------|


G|--------|--------|--------|--------|--------|--------|--------|--------|--------|
D|--------|--------|--------|--------|--------|--------|--------|--------|--------|
A|--------|--------|--------|--------|--------|--------|--------|--------|--------|
E|--------|--------|--------|--------|--------|--------|--------|--------|--------|


G|--------|--------|--------|--------|--------|--------|
D|--------|--------|--------|--------|--------|--------|
A|--------|--------|--------|--------|--------|--------|
E|--------|--------|--------|--------|--------|--------|