Menu:

 

Search:

 

megadeth - countdown to extinction:

 



Title: Countdown To Extinction
Artist: 
Album: Countdown To Extinction
Author: Dave Mustaine, Dave Ellefson, Nick Menza & Marty Friedman


Track 1: Rhythm Guitar

E|----------------|----------------|---------------------------------|------------------------------|
B|----------------|----------------|---------------------------------|------------------------------|
G|-2--------------|-10-------------|---------------------------------|---------10--9---9--------2---|
D|-2--------------|-10-------------|---------------------------------|---------10--9---9--------2---|
A|-0------2---3---|-8------2---3---|-------------------------2---3---|---------8---7---7----3---0---|
E|----------------|----------------|-3---3---3---3---3---3-----------|-3---3------------------------|


E|--------|--------|--------|--------|--------|--------|--------|--------|--------|
B|--------|--------|--------|--------|--------|--------|--------|--------|--------|
G|-2------|-2------|-2------|-2------|-2------|-2------|-2------|-2------|--------|
D|-2------|-2------|-2------|-2------|-2------|-2------|-2------|-2------|--------|
A|-0------|-0------|-0------|-0------|-0------|-0------|-0------|-0------|--------|
E|--------|--------|--------|--------|--------|--------|--------|--------|--------|


E|--------|--------|--------|--------|--------|--------|--------|-------------|--------|
B|--------|--------|--------|--------|--------|--------|--------|-------------|--------|
G|--------|--------|--------|--------|--------|--------|--------|-2-----------|-10-----|
D|--------|--------|--------|--------|--------|--------|--------|-2-----------|-10-----|
A|--------|--------|--------|--------|--------|--------|--------|-0------3----|-8------|
E|--------|--------|--------|--------|--------|--------|--------|-------------|--------|


E|--------|-------------|-------------|--------|--------|-------------|----------------|
B|--------|-------------|-------------|--------|--------|-------------|----------------|
G|-7------|-------9-----|-2-----------|-10-----|-7------|-------9-----|-2--------------|
D|-7------|-5-----9-----|-2-----------|-10-----|-7------|-5-----9-----|-2--------------|
A|-5------|-5-----7-----|-0------3----|-8------|-5------|-5-----7-----|-0------2---3---|
E|--------|-3-----------|-------------|--------|--------|-3-----------|----------------|


E|----------------|---------------------------------|------------------------------|
B|----------------|---------------------------------|------------------------------|
G|-10-------------|---------------------------------|---------10--9---9------------|
D|-10-------------|---------------------------------|---------10--9---9------------|
A|-8------2---3---|-------------------------2---3---|---------8---7---7----3-------|
E|----------------|-3---3---3---3---3---3-----------|-3---3--------------------3---|


E|-------------------------------------|---------------------------------------|-------------------------------------|
B|----------------------12-13------12--|---------------------------------------|----------------------12-13------12--|
G|-----14-14-14--14--14-4--5---12--4---|-----14-14-14------14-12-----12--------|-----14-14-14--14--14-4--5---12--4---|
D|-----7--7--7---7---7---------5-------|-----7--7--7-------7--5--15--5--15-14--|-----7--7--7---7---7---------5-------|
A|-------------------------------------|-------------------------8------8--7---|-------------------------------------|
E|-------------------------------------|---------------------------------------|-------------------------------------|


E|---------------------------------------|-------------------------------------|---------------------------------------|
B|---------------------------------------|----------------------12-13------12--|---------------------------------------|
G|-----14-14-14------14-12-----12--------|-----14-14-14--14--14-4--5---12--4---|-----14-14-14------14-12-----12--------|
D|-----7--7--7-------7--5--15--5--15-14--|-----7--7--7---7---7---------5-------|-----7--7--7-------7--5--15--5--15-14--|
A|-------------------------8------8--7---|-------------------------------------|-------------------------8------8--7---|
E|---------------------------------------|-------------------------------------|---------------------------------------|


E|-------------------------------------|---------------------------------------|-------------------------------------|
B|----------------------12-13------12--|---------------------------------------|----------------------12-13------12--|
G|-----14-14-14--14--14-4--5---12--4---|-----14-14-14------14-12-----12--------|-----14-14-14--14--14-4--5---12--4---|
D|-----7--7--7---7---7---------5-------|-----7--7--7-------7--5--15--5--15-14--|-----7--7--7---7---7---------5-------|
A|-------------------------------------|-------------------------8------8--7---|-------------------------------------|
E|-------------------------------------|---------------------------------------|-------------------------------------|


E|---------------------------------------|-------------------------------------|---------------------------------------|
B|---------------------------------------|----------------------12-13------12--|---------------------------------------|
G|-----14-14-14------14-12-----12--------|-----14-14-14--14--14-4--5---12--4---|-----14-14-14------14-12-----12--------|
D|-----7--7--7-------7--5--15--5--15-14--|-----7--7--7---7---7---------5-------|-----7--7--7-------7--5--15--5--15-14--|
A|-------------------------8------8--7---|-------------------------------------|-------------------------8------8--7---|
E|---------------------------------------|-------------------------------------|---------------------------------------|


E|-------------------------------------|---------------------------------------|-5-------------------------------------------|
B|----------------------12-13------12--|---------------------------------------|----8--6--5------6--5------------5-----------|
G|-----14-14-14--14--14-4--5---12--4---|-----14-14-14------14-12-----12--------|-2-----------7---------7--6---------7--6-----|
D|-----7--7--7---7---7---------5-------|-----7--7--7-------7--5--15--5--15-14--|----5--3--2------3--2--------8---2--------8--|
A|-------------------------------------|-------------------------8------8--7---|-------------5---------5--4--1------5--4--1--|
E|-------------------------------------|---------------------------------------|---------------------------------------------|


E|-------------------------------|-------------|--------|-------------|--------|--------|
B|-------------------------------|-------------|--------|-------------|--------|--------|
G|-----7--6----------------------|-------------|--------|-2-----------|-10-----|-7------|
D|-7---------8--7--5--------7----|-7-----------|--------|-2-----------|-10-----|-7------|
A|-----5--4--1---------7---------|-------------|--------|-0------3----|-8------|-5------|
E|-5------------5--3---0----5----|-5-----------|--------|-------------|--------|--------|


E|-------------|-------------|--------|--------|-------------|-------------|--------|
B|-------------|-------------|--------|--------|-------------|-------------|--------|
G|-------9-----|-2-----------|-10-----|-7------|-------9-----|-2-----------|-10-----|
D|-5-----9-----|-2-----------|-10-----|-7------|-5-----9-----|-2-----------|-10-----|
A|-5-----7-----|-0------3----|-8------|-5------|-5-----7-----|-0------3----|-8------|
E|-3-----------|-------------|--------|--------|-3-----------|-------------|--------|


E|--------|-------------|-------------|--------|--------|-------------|----------------|
B|--------|-------------|-------------|--------|--------|-------------|----------------|
G|-7------|-------9-----|-2-----------|-10-----|-7------|-------9-----|-2--------------|
D|-7------|-5-----9-----|-2-----------|-10-----|-7------|-5-----9-----|-2--------------|
A|-5------|-5-----7-----|-0------3----|-8------|-5------|-5-----7-----|-0------2---3---|
E|--------|-3-----------|-------------|--------|--------|-3-----------|----------------|


E|----------------|---------------------------------|------------------------------|
B|----------------|---------------------------------|------------------------------|
G|-10-------------|---------------------------------|---------10--9---9------------|
D|-10-------------|---------------------------------|---------10--9---9------------|
A|-8------2---3---|-------------------------2---3---|---------8---7---7----3-------|
E|----------------|-3---3---3---3---3---3-----------|-3---3--------------------3---|


E|-------------------------------------|---------------------------------------|-------------------------------------|
B|----------------------12-13------12--|---------------------------------------|----------------------12-13------12--|
G|-----14-14-14--14--14-4--5---12--4---|-----14-14-14------14-12-----12--------|-----14-14-14--14--14-4--5---12--4---|
D|-----7--7--7---7---7---------5-------|-----7--7--7-------7--5--15--5--15-14--|-----7--7--7---7---7---------5-------|
A|-------------------------------------|-------------------------8------8--7---|-------------------------------------|
E|-------------------------------------|---------------------------------------|-------------------------------------|


E|---------------------------------------|-------------------------------------|---------------------------------------|
B|---------------------------------------|----------------------12-13------12--|---------------------------------------|
G|-----14-14-14------14-12-----12--------|-----14-14-14--14--14-4--5---12--4---|-----14-14-14------14-12-----12--------|
D|-----7--7--7-------7--5--15--5--15-14--|-----7--7--7---7---7---------5-------|-----7--7--7-------7--5--15--5--15-14--|
A|-------------------------8------8--7---|-------------------------------------|-------------------------8------8--7---|
E|---------------------------------------|-------------------------------------|---------------------------------------|


E|-------------------------------------|---------------------------------------|-------------------------------------|
B|----------------------12-13------12--|---------------------------------------|----------------------12-13------12--|
G|-----14-14-14--14--14-4--5---12--4---|-----14-14-14------14-12-----12--------|-----14-14-14--14--14-4--5---12--4---|
D|-----7--7--7---7---7---------5-------|-----7--7--7-------7--5--15--5--15-14--|-----7--7--7---7---7---------5-------|
A|-------------------------------------|-------------------------8------8--7---|-------------------------------------|
E|-------------------------------------|---------------------------------------|-------------------------------------|


E|---------------------------------------|-------------------------------------|---------------------------------------|
B|---------------------------------------|----------------------12-13------12--|---------------------------------------|
G|-----14-14-14------14-12-----12--------|-----14-14-14--14--14-4--5---12--4---|-----14-14-14------14-12-----12--------|
D|-----7--7--7-------7--5--15--5--15-14--|-----7--7--7---7---7---------5-------|-----7--7--7-------7--5--15--5--15-14--|
A|-------------------------8------8--7---|-------------------------------------|-------------------------8------8--7---|
E|---------------------------------------|-------------------------------------|---------------------------------------|


E|-------------------------------------|---------------------------------------|-5-------------------------------------------|
B|----------------------12-13------12--|---------------------------------------|----8--6--5------6--5------------5-----------|
G|-----14-14-14--14--14-4--5---12--4---|-----14-14-14------14-12-----12--------|-2-----------7---------7--6---------7--6-----|
D|-----7--7--7---7---7---------5-------|-----7--7--7-------7--5--15--5--15-14--|----5--3--2------3--2--------8---2--------8--|
A|-------------------------------------|-------------------------8------8--7---|-------------5---------5--4--1------5--4--1--|
E|-------------------------------------|---------------------------------------|---------------------------------------------|


E|-------------------------------|--------|--------|--------|--------|--------|--------|
B|-------------------------------|--------|--------|--------|--------|--------|--------|
G|-----7--6----------------------|--------|--------|--------|--------|--------|--------|
D|-7---------8--7--5--------7----|-7------|-7------|--------|--------|--------|--------|
A|-----5--4--1---------7---------|--------|--------|--------|--------|--------|--------|
E|-5------------5--3---0----5----|-5------|-5------|--------|--------|--------|--------|


E|--------|--------|--------|--------|--------|--------|--------|--------|--------|
B|--------|--------|--------|--------|--------|--------|--------|--------|--------|
G|--------|--------|--------|--------|--------|--------|--------|--------|--------|
D|--------|--------|--------|--------|--------|--------|--------|--------|--------|
A|--------|--------|--------|--------|--------|--------|--------|--------|--------|
E|--------|--------|--------|--------|--------|--------|--------|--------|--------|


E|--------|--------|--------|--------|--------|--------|--------|--------|--------|
B|--------|--------|--------|--------|--------|--------|--------|--------|--------|
G|--------|--------|--------|--------|--------|--------|--------|--------|--------|
D|--------|--------|--------|--------|--------|--------|--------|--------|--------|
A|--------|--------|--------|--------|--------|--------|--------|--------|--------|
E|--------|--------|--------|--------|--------|--------|--------|--------|--------|


E|--------|--------|--------|--------|--------|--------|--------|--------|-------------------------------------|
B|--------|--------|--------|--------|--------|--------|--------|--------|----------------------12-13------12--|
G|--------|--------|--------|--------|--------|--------|--------|--------|-----14-14-14--14--14-4--5---12--4---|
D|--------|--------|--------|--------|--------|--------|--------|--------|-----7--7--7---7---7---------5-------|
A|--------|--------|--------|--------|--------|--------|--------|--------|-------------------------------------|
E|--------|--------|--------|--------|--------|--------|--------|--------|-------------------------------------|


E|---------------------------------------|-------------------------------------|---------------------------------------|
B|---------------------------------------|----------------------12-13------12--|---------------------------------------|
G|-----14-14-14------14-12-----12--------|-----14-14-14--14--14-4--5---12--4---|-----14-14-14------14-12-----12--------|
D|-----7--7--7-------7--5--15--5--15-14--|-----7--7--7---7---7---------5-------|-----7--7--7-------7--5--15--5--15-14--|
A|-------------------------8------8--7---|-------------------------------------|-------------------------8------8--7---|
E|---------------------------------------|-------------------------------------|---------------------------------------|


E|-------------------------------------|---------------------------------------|-------------------------------------|
B|----------------------12-13------12--|---------------------------------------|----------------------12-13------12--|
G|-----14-14-14--14--14-4--5---12--4---|-----14-14-14------14-12-----12--------|-----14-14-14--14--14-4--5---12--4---|
D|-----7--7--7---7---7---------5-------|-----7--7--7-------7--5--15--5--15-14--|-----7--7--7---7---7---------5-------|
A|-------------------------------------|-------------------------8------8--7---|-------------------------------------|
E|-------------------------------------|---------------------------------------|-------------------------------------|


E|---------------------------------------|-------------------------------------|---------------------------------------|
B|---------------------------------------|----------------------12-13------12--|---------------------------------------|
G|-----14-14-14------14-12-----12--------|-----14-14-14--14--14-4--5---12--4---|-----14-14-14------14-12-----12--------|
D|-----7--7--7-------7--5--15--5--15-14--|-----7--7--7---7---7---------5-------|-----7--7--7-------7--5--15--5--15-14--|
A|-------------------------8------8--7---|-------------------------------------|-------------------------8------8--7---|
E|---------------------------------------|-------------------------------------|---------------------------------------|


E|-------------------------------------|---------------------------------------|-------------------------------------|
B|----------------------12-13------12--|---------------------------------------|----------------------12-13------12--|
G|-----14-14-14--14--14-4--5---12--4---|-----14-14-14------14-12-----12--------|-----14-14-14--14--14-4--5---12--4---|
D|-----7--7--7---7---7---------5-------|-----7--7--7-------7--5--15--5--15-14--|-----7--7--7---7---7---------5-------|
A|-------------------------------------|-------------------------8------8--7---|-------------------------------------|
E|-------------------------------------|---------------------------------------|-------------------------------------|


E|---------------------------------------|-5-------------------------------------------|
B|---------------------------------------|----8--6--5------6--5------------5-----------|
G|-----14-14-14------14-12-----12--------|-2-----------7---------7--6---------7--6-----|
D|-----7--7--7-------7--5--15--5--15-14--|----5--3--2------3--2--------8---2--------8--|
A|-------------------------8------8--7---|-------------5---------5--4--1------5--4--1--|
E|---------------------------------------|---------------------------------------------|


E|-------------------------------|-----------------|--------|
B|-------------------------------|-----------------|--------|
G|-----7--6----------------------|-----------------|--------|
D|-7---------8--7--5--------7----|-7---------------|--------|
A|-----5--4--1---------7---------|-----------------|--------|
E|-5------------5--3---0----5----|-5---------------|--------|





Track 2: Clean Guitar

E|--------|--------|--------|--------|---------------------------------|---------------------------------|
B|--------|--------|--------|--------|---------------------------------|---------------------------------|
G|--------|--------|--------|--------|---------------------------------|---------------------------------|
D|--------|--------|--------|--------|---------------------------------|---------------------------------|
A|--------|--------|--------|--------|-----0---0---0---0---0---2---3---|-8---8---8---8---8---8---8---8---|
E|--------|--------|--------|--------|---------------------------------|---------------------------------|


E|---------------------------------|---------------------------------|-----------------------------------|
B|---------------------------------|---------------------------------|-----------------------------------|
G|---------------------------------|---------------------------------|-----------------------------------|
D|---------------------------------|---------------------------------|-------------------------------7---|
A|-5---5---5---5---5---5---5---5---|-----------------7---7---7---7---|-0---0---0---0---0---3---5--7------|
E|---------------------------------|-3---3---3---3-------------------|-----------------------------------|


E|-----------------------------------|-----------------------------------|---------------------------------|
B|-----------------------------------|-----------------------------------|---------------------------------|
G|-----------------------------------|-----------------------------------|---------------------------------|
D|-----------------------------------|-------------------------------2---|---------------------------------|
A|-8---8---8---8---8---8---7--8--7---|-5---5---5---5---5---5---3--5------|-----------------7---7---7---7---|
E|-----------------------------------|-----------------------------------|-3---3---3---3-------------------|


E|--------|-1------|-2------|-3-----0-----|--------|-1------|-2------|-3-----0-----|
B|--------|-1------|-3------|-3-----0-----|--------|-1------|-3------|-3-----0-----|
G|-2------|-2------|-2------|-0-----1-----|-2------|-2------|-2------|-0-----1-----|
D|-2------|-3------|-0------|-0-----2-----|-2------|-3------|-0------|-0-----2-----|
A|-0------|--------|--------|-------------|-0------|--------|--------|-------------|
E|--------|--------|--------|-------------|--------|--------|--------|-------------|


E|--------|--------|--------|--------|--------|--------|--------|--------|--------|
B|--------|--------|--------|--------|--------|--------|--------|--------|--------|
G|--------|--------|--------|--------|--------|--------|--------|--------|--------|
D|--------|--------|--------|--------|--------|--------|--------|--------|--------|
A|--------|--------|--------|--------|--------|--------|--------|--------|--------|
E|--------|--------|--------|--------|--------|--------|--------|--------|--------|


E|--------|--------|--------|--------|--------|--------|--------|--------|--------|
B|--------|--------|--------|--------|--------|--------|--------|--------|--------|
G|--------|--------|--------|--------|--------|--------|--------|--------|--------|
D|--------|--------|--------|--------|--------|--------|--------|--------|--------|
A|--------|--------|--------|--------|--------|--------|--------|--------|--------|
E|--------|--------|--------|--------|--------|--------|--------|--------|--------|


E|--------|--------|--------|--------|--------|--------|--------|--------|--------|
B|--------|--------|--------|--------|--------|--------|--------|--------|--------|
G|--------|--------|--------|--------|--------|--------|--------|--------|--------|
D|--------|--------|--------|--------|--------|--------|--------|--------|--------|
A|--------|--------|--------|--------|--------|--------|--------|--------|--------|
E|--------|--------|--------|--------|--------|--------|--------|--------|--------|


E|--------|--------|--------|--------|--------|--------|--------|--------|--------|
B|--------|--------|--------|--------|--------|--------|--------|--------|--------|
G|--------|--------|--------|--------|--------|--------|--------|--------|--------|
D|--------|--------|--------|--------|--------|--------|--------|--------|--------|
A|--------|--------|--------|--------|--------|--------|--------|--------|--------|
E|--------|--------|--------|--------|--------|--------|--------|--------|--------|


E|--------|--------|--------|--------|--------|--------|--------|--------|--------|
B|--------|--------|--------|--------|--------|--------|--------|--------|--------|
G|--------|--------|--------|--------|--------|--------|--------|--------|--------|
D|--------|--------|--------|--------|--------|--------|--------|--------|--------|
A|--------|--------|--------|--------|--------|--------|--------|--------|--------|
E|--------|--------|--------|--------|--------|--------|--------|--------|--------|


E|--------|--------|--------|--------|--------|--------|--------|--------|--------|
B|--------|--------|--------|--------|--------|--------|--------|--------|--------|
G|--------|--------|--------|--------|--------|--------|--------|--------|--------|
D|--------|--------|--------|--------|--------|--------|--------|--------|--------|
A|--------|--------|--------|--------|--------|--------|--------|--------|--------|
E|--------|--------|--------|--------|--------|--------|--------|--------|--------|


E|--------|--------|--------|--------|--------|--------|--------|--------|--------|
B|--------|--------|--------|--------|--------|--------|--------|--------|--------|
G|--------|--------|--------|--------|--------|--------|--------|--------|--------|
D|--------|--------|--------|--------|--------|--------|--------|--------|--------|
A|--------|--------|--------|--------|--------|--------|--------|--------|--------|
E|--------|--------|--------|--------|--------|--------|--------|--------|--------|


E|--------|--------|--------|--------|--------|--------|--------|--------|--------|
B|--------|--------|--------|--------|--------|--------|--------|--------|--------|
G|--------|--------|--------|--------|--------|--------|--------|--------|--------|
D|--------|--------|--------|--------|--------|--------|--------|--------|--------|
A|--------|--------|--------|--------|--------|--------|--------|--------|--------|
E|--------|--------|--------|--------|--------|--------|--------|--------|--------|


E|--------|--------|---------------------------------|---------------------------------|
B|--------|--------|---------------------------------|---------------------------------|
G|--------|--------|---------------------------------|---------------------------------|
D|--------|--------|-----2---3---2---7---------------|-----2---3---2---7---------------|
A|--------|--------|-0-------------------7-----------|---------------------7-------0---|
E|--------|--------|-------------------------8---7---|-3-----------------------8-------|


E|------0---3---5---3-------------|------------------------------|---------------------------------|
B|------3---------------5--3--1---|-3--------1---3---5---3---1---|---------------------------------|
G|------2-------------------------|------2-----------------------|---------------------------------|
D|--------------------------------|------------------------------|-----2---3---2---7---------------|
A|--------------------------------|------------------------------|---------------------7-------1---|
E|-2------------------------------|------------------------------|-------------------------8-------|


E|-----------------------------------|-----------------------------------|-----------------3-----|
B|-----------------------------------|-----------------------------------|-------------3---------|
G|-----------------------------------|-----------------------------------|---------5-------------|
D|-----2---3---2---7-----------------|-----2---3---2---7-----------------|-----4-----------------|
A|-2-------------------7---5--3--2---|-3-------------------7---6--5--3---|-5---------------------|
E|-----------------------------------|-----------------------------------|-----------------------|


E|--------|--------|--------|--------|--------|--------|--------|--------|--------|
B|--------|--------|--------|--------|--------|--------|--------|--------|--------|
G|--------|--------|--------|--------|--------|--------|--------|--------|--------|
D|--------|--------|--------|--------|--------|--------|--------|--------|--------|
A|--------|--------|--------|--------|--------|--------|--------|--------|--------|
E|--------|--------|--------|--------|--------|--------|--------|--------|--------|


E|--------|--------|--------|--------|--------|--------|--------|--------|--------|
B|--------|--------|--------|--------|--------|--------|--------|--------|--------|
G|--------|--------|--------|--------|--------|--------|--------|--------|--------|
D|--------|--------|--------|--------|--------|--------|--------|--------|--------|
A|--------|--------|--------|--------|--------|--------|--------|--------|--------|
E|--------|--------|--------|--------|--------|--------|--------|--------|--------|


E|--------|--------|--------|--------|--------|--------|--------|--------|--------|
B|--------|--------|--------|--------|--------|--------|--------|--------|--------|
G|--------|--------|--------|--------|--------|--------|--------|--------|--------|
D|--------|--------|--------|--------|--------|--------|--------|--------|--------|
A|--------|--------|--------|--------|--------|--------|--------|--------|--------|
E|--------|--------|--------|--------|--------|--------|--------|--------|--------|


E|--------|--------|--------|--------|--------|--------|--------|
B|--------|--------|--------|--------|--------|--------|--------|
G|--------|--------|--------|--------|--------|--------|--------|
D|--------|--------|--------|--------|--------|--------|--------|
A|--------|--------|--------|--------|--------|--------|--------|
E|--------|--------|--------|--------|--------|--------|--------|





Track 3: Solo Guitar

E|--------|--------|--------|--------|--------|--------|--------|--------|--------|
B|--------|--------|--------|--------|--------|--------|--------|--------|--------|
G|--------|--------|--------|--------|--------|--------|--------|--------|--------|
D|--------|--------|--------|--------|--------|--------|--------|--------|--------|
A|--------|--------|--------|--------|--------|--------|--------|--------|--------|
E|--------|--------|--------|--------|--------|--------|--------|--------|--------|


E|--------|--------|--------|--------|--------|--------|--------|--------|--------|
B|--------|--------|--------|--------|--------|--------|--------|--------|--------|
G|--------|--------|--------|--------|--------|--------|--------|--------|--------|
D|--------|--------|--------|--------|--------|--------|--------|--------|--------|
A|--------|--------|--------|--------|--------|--------|--------|--------|--------|
E|--------|--------|--------|--------|--------|--------|--------|--------|--------|


E|--------|--------|--------|--------|--------|--------|--------|--------|--------|
B|--------|--------|--------|--------|--------|--------|--------|--------|--------|
G|--------|--------|--------|--------|--------|--------|--------|--------|--------|
D|--------|--------|--------|--------|--------|--------|--------|--------|--------|
A|--------|--------|--------|--------|--------|--------|--------|--------|--------|
E|--------|--------|--------|--------|--------|--------|--------|--------|--------|


E|--------|--------|--------|--------|--------|--------|--------|--------|--------|
B|--------|--------|--------|--------|--------|--------|--------|--------|--------|
G|--------|--------|--------|--------|--------|--------|--------|--------|--------|
D|--------|--------|--------|--------|--------|--------|--------|--------|--------|
A|--------|--------|--------|--------|--------|--------|--------|--------|--------|
E|--------|--------|--------|--------|--------|--------|--------|--------|--------|


E|--------|--------|--------|--------|--------|--------|--------|--------|--------|
B|--------|--------|--------|--------|--------|--------|--------|--------|--------|
G|--------|--------|--------|--------|--------|--------|--------|--------|--------|
D|--------|--------|--------|--------|--------|--------|--------|--------|--------|
A|--------|--------|--------|--------|--------|--------|--------|--------|--------|
E|--------|--------|--------|--------|--------|--------|--------|--------|--------|


E|--------|--------|--------|-------------|-------------|--------|--------|--------|
B|--------|--------|--------|-------5-----|-8-----------|-5------|-6------|-7------|
G|--------|--------|--------|-------------|-7-----7-----|--------|--------|--------|
D|--------|--------|--------|-------7-----|-5-----4-----|-2------|-3------|-4------|
A|--------|--------|--------|-------------|-------------|--------|--------|--------|
E|--------|--------|--------|-------------|-------------|--------|--------|--------|


E|--------|--------|--------|--------|--------|--------|--------|--------|--------|
B|--------|--------|--------|--------|--------|--------|--------|--------|--------|
G|--------|--------|--------|--------|--------|--------|--------|--------|--------|
D|--------|--------|--------|--------|--------|--------|--------|--------|--------|
A|--------|--------|--------|--------|--------|--------|--------|--------|--------|
E|--------|--------|--------|--------|--------|--------|--------|--------|--------|


E|--------|--------|--------|--------|--------|--------|--------|--------|--------|
B|--------|--------|--------|--------|--------|--------|--------|--------|--------|
G|--------|--------|--------|--------|--------|--------|--------|--------|--------|
D|--------|--------|--------|--------|--------|--------|--------|--------|--------|
A|--------|--------|--------|--------|--------|--------|--------|--------|--------|
E|--------|--------|--------|--------|--------|--------|--------|--------|--------|


E|--------|--------|--------|--------|--------|--------|--------|--------|--------|
B|--------|--------|--------|--------|--------|--------|--------|--------|--------|
G|--------|--------|--------|--------|--------|--------|--------|--------|--------|
D|--------|--------|--------|--------|--------|--------|--------|--------|--------|
A|--------|--------|--------|--------|--------|--------|--------|--------|--------|
E|--------|--------|--------|--------|--------|--------|--------|--------|--------|


E|--------|--------|--------|--------|--------|--------|------------------------|------------------------|
B|--------|--------|--------|--------|--------|--------|-5---5-----7---7----7---|-5---5-----7---7----7---|
G|--------|--------|--------|--------|--------|--------|-5---5-----7---7----7---|-5---5-----7---7----7---|
D|--------|--------|--------|--------|--------|--------|------------------------|------------------------|
A|--------|--------|--------|--------|--------|--------|------------------------|------------------------|
E|--------|--------|--------|--------|--------|--------|------------------------|------------------------|


E|------------------------|------------------------|------------------------|------------------------|
B|-5---5-----7---7----7---|-5---5-----7---7----7---|-5---5-----7---7----7---|-5---5-----7---7----7---|
G|-5---5-----7---7----7---|-5---5-----7---7----7---|-5---5-----7---7----7---|-5---5-----7---7----7---|
D|------------------------|------------------------|------------------------|------------------------|
A|------------------------|------------------------|------------------------|------------------------|
E|------------------------|------------------------|------------------------|------------------------|


E|------------------------|---------------------|--------|--------|--------|--------|
B|-5---5-----7---7----5---|-7----7----7-----5---|--------|--------|--------|--------|
G|-5---5-----7---7----5---|-7----7----7-----5---|--------|--------|--------|--------|
D|------------------------|---------------------|--------|--------|--------|--------|
A|------------------------|---------------------|--------|--------|--------|--------|
E|------------------------|---------------------|--------|--------|--------|--------|


E|--------|--------|--------|--------|---------------------------|-----------------------------|
B|--------|--------|--------|--------|------5--------------------|------5----------------------|
G|--------|--------|--------|--------|----------7---7------------|----------7---7--------------|
D|--------|--------|--------|--------|-7-----------------5---7---|-7-----------------7--5------|
A|--------|--------|--------|--------|---------------------------|-------------------------8---|
E|--------|--------|--------|--------|---------------------------|-----------------------------|


E|---------------------------|---------------------------|---------------------------|
B|------5--------------------|------6---5---5----8---10--|-10---5--------------------|
G|----------7---7----5---4---|-4-------------------------|----------7---7------------|
D|---------------------------|---------------------------|-------------------5---7---|
A|-8-------------------------|---------------------------|---------------------------|
E|---------------------------|---------------------------|---------------------------|


E|-----------------------------|---------------------------|---------------------------|
B|------5----------------------|------5--------------------|------6---5---5----8---10--|
G|----------7---7--------------|----------7---7----5---4---|-4-------------------------|
D|-7-----------------7--5------|---------------------------|---------------------------|
A|-------------------------8---|-8-------------------------|---------------------------|
E|-----------------------------|---------------------------|---------------------------|


E|------12-------------------|------12---------------------|------12-------------------|
B|-10-------15--15-----------|----------15--15-------------|----------15--15---13--12--|
G|-------------------12--14--|-14----------------14-12-----|---------------------------|
D|---------------------------|-------------------------15--|-15------------------------|
A|---------------------------|-----------------------------|---------------------------|
E|---------------------------|-----------------------------|---------------------------|


E|------13--12--12---15--17--|-17---12-------------------|------12---------------------|
B|-12------------------------|----------15--15-----------|----------15--15-------------|
G|---------------------------|-------------------12--14--|-14----------------14-12-----|
D|---------------------------|---------------------------|-------------------------15--|
A|---------------------------|---------------------------|-----------------------------|
E|---------------------------|---------------------------|-----------------------------|


E|------12-------------------|--------|--------|--------|--------|--------|--------|
B|----------15--15---13--12--|--------|--------|--------|--------|--------|--------|
G|---------------------------|--------|--------|--------|--------|--------|--------|
D|-15------------------------|--------|--------|--------|--------|--------|--------|
A|---------------------------|--------|--------|--------|--------|--------|--------|
E|---------------------------|--------|--------|--------|--------|--------|--------|


E|--------|--------|--------|--------|--------|--------|--------|--------|--------|
B|--------|--------|--------|--------|--------|--------|--------|--------|--------|
G|--------|--------|--------|--------|--------|--------|--------|--------|--------|
D|--------|--------|--------|--------|--------|--------|--------|--------|--------|
A|--------|--------|--------|--------|--------|--------|--------|--------|--------|
E|--------|--------|--------|--------|--------|--------|--------|--------|--------|


E|--------|--------|--------|--------|
B|--------|--------|--------|--------|
G|--------|--------|--------|--------|
D|--------|--------|--------|--------|
A|--------|--------|--------|--------|
E|--------|--------|--------|--------|





Track 4: Solo Guitar

E|--------|--------|--------|--------|--------|--------|--------|--------|--------|
B|--------|--------|--------|--------|--------|--------|--------|--------|--------|
G|--------|--------|--------|--------|--------|--------|--------|--------|--------|
D|--------|--------|--------|--------|--------|--------|--------|--------|--------|
A|--------|--------|--------|--------|--------|--------|--------|--------|--------|
E|--------|--------|--------|--------|--------|--------|--------|--------|--------|


E|--------|--------|--------|--------|--------|--------|--------|--------|--------|
B|--------|--------|--------|--------|--------|--------|--------|--------|--------|
G|--------|--------|--------|--------|--------|--------|--------|--------|--------|
D|--------|--------|--------|--------|--------|--------|--------|--------|--------|
A|--------|--------|--------|--------|--------|--------|--------|--------|--------|
E|--------|--------|--------|--------|--------|--------|--------|--------|--------|


E|--------|--------|--------|--------|--------|--------|--------|--------|--------|
B|--------|--------|--------|--------|--------|--------|--------|--------|--------|
G|--------|--------|--------|--------|--------|--------|--------|--------|--------|
D|--------|--------|--------|--------|--------|--------|--------|--------|--------|
A|--------|--------|--------|--------|--------|--------|--------|--------|--------|
E|--------|--------|--------|--------|--------|--------|--------|--------|--------|


E|--------|--------|--------|--------|--------|--------|--------|--------|--------|
B|--------|--------|--------|--------|--------|--------|--------|--------|--------|
G|--------|--------|--------|--------|--------|--------|--------|--------|--------|
D|--------|--------|--------|--------|--------|--------|--------|--------|--------|
A|--------|--------|--------|--------|--------|--------|--------|--------|--------|
E|--------|--------|--------|--------|--------|--------|--------|--------|--------|


E|--------|--------|--------|--------|--------|--------|--------|--------|--------|
B|--------|--------|--------|--------|--------|--------|--------|--------|--------|
G|--------|--------|--------|--------|--------|--------|--------|--------|--------|
D|--------|--------|--------|--------|--------|--------|--------|--------|--------|
A|--------|--------|--------|--------|--------|--------|--------|--------|--------|
E|--------|--------|--------|--------|--------|--------|--------|--------|--------|


E|--------|--------|--------|--------|--------|--------|--------|--------|--------|
B|--------|--------|--------|--------|--------|--------|--------|--------|--------|
G|--------|--------|--------|--------|--------|--------|--------|--------|--------|
D|--------|--------|--------|--------|--------|--------|--------|--------|--------|
A|--------|--------|--------|--------|--------|--------|--------|--------|--------|
E|--------|--------|--------|--------|--------|--------|--------|--------|--------|


E|--------|--------|--------|--------|--------|--------|--------|--------|--------|
B|--------|--------|--------|--------|--------|--------|--------|--------|--------|
G|--------|--------|--------|--------|--------|--------|--------|--------|--------|
D|--------|--------|--------|--------|--------|--------|--------|--------|--------|
A|--------|--------|--------|--------|--------|--------|--------|--------|--------|
E|--------|--------|--------|--------|--------|--------|--------|--------|--------|


E|--------|--------|--------|--------|--------|--------|--------|--------|--------|
B|--------|--------|--------|--------|--------|--------|--------|--------|--------|
G|--------|--------|--------|--------|--------|--------|--------|--------|--------|
D|--------|--------|--------|--------|--------|--------|--------|--------|--------|
A|--------|--------|--------|--------|--------|--------|--------|--------|--------|
E|--------|--------|--------|--------|--------|--------|--------|--------|--------|


E|--------|--------|--------|--------|--------|--------|--------|--------|--------|
B|--------|--------|--------|--------|--------|--------|--------|--------|--------|
G|--------|--------|--------|--------|--------|--------|--------|--------|--------|
D|--------|--------|--------|--------|--------|--------|--------|--------|--------|
A|--------|--------|--------|--------|--------|--------|--------|--------|--------|
E|--------|--------|--------|--------|--------|--------|--------|--------|--------|


E|--------|--------|--------|--------|--------|--------|--------|--------|--------|
B|--------|--------|--------|--------|--------|--------|--------|--------|--------|
G|--------|--------|--------|--------|--------|--------|--------|--------|--------|
D|--------|--------|--------|--------|--------|--------|--------|--------|--------|
A|--------|--------|--------|--------|--------|--------|--------|--------|--------|
E|--------|--------|--------|--------|--------|--------|--------|--------|--------|


E|--------|--------|--------|--------|--------|--------|--------|--------|--------|
B|--------|--------|--------|--------|--------|--------|--------|--------|--------|
G|--------|--------|--------|--------|--------|--------|--------|--------|--------|
D|--------|--------|--------|--------|--------|--------|--------|--------|--------|
A|--------|--------|--------|--------|--------|--------|--------|--------|--------|
E|--------|--------|--------|--------|--------|--------|--------|--------|--------|


E|--------|--------|--------|------8---7---7------------|------8---7---7--------------|
B|--------|--------|--------|-------------------5---6---|-6-----------------6--5------|
G|--------|--------|--------|---------------------------|-------------------------7---|
D|--------|--------|--------|-7-------------------------|-----------------------------|
A|--------|--------|--------|---------------------------|-----------------------------|
E|--------|--------|--------|---------------------------|-----------------------------|


E|------8---7---7----5-------|------5------------7---5---|-5----8---7---7------------|
B|-----------------------8---|-8--------9---9------------|-------------------5---6---|
G|-7-------------------------|---------------------------|---------------------------|
D|---------------------------|---------------------------|---------------------------|
A|---------------------------|---------------------------|---------------------------|
E|---------------------------|---------------------------|---------------------------|


E|------8---7---7--------------|------8---7---7----5-------|------5------------7---5---|
B|-6-----------------6--5------|-----------------------8---|-8--------9---9------------|
G|-------------------------7---|-7-------------------------|---------------------------|
D|-----------------------------|---------------------------|---------------------------|
A|-----------------------------|---------------------------|---------------------------|
E|-----------------------------|---------------------------|---------------------------|


E|-5----8---7---7------------|------8---7---7--------------|------8---7---7----5-------|
B|-------------------5---6---|-6-----------------6--5------|-----------------------8---|
G|---------------------------|-------------------------7---|-7-------------------------|
D|---------------------------|-----------------------------|---------------------------|
A|---------------------------|-----------------------------|---------------------------|
E|---------------------------|-----------------------------|---------------------------|


E|------5------------7---5---|-5----8---7---7------------|------8---7---7--------------|
B|-8--------9---9------------|-------------------5---6---|-6-----------------6--5------|
G|---------------------------|---------------------------|-------------------------7---|
D|---------------------------|---------------------------|-----------------------------|
A|---------------------------|---------------------------|-----------------------------|
E|---------------------------|---------------------------|-----------------------------|


E|------8---7---7----5-------|------13--12--12---15--17--|--------|--------|--------|
B|-----------------------8---|-12------------------------|--------|--------|--------|
G|-7-------------------------|---------------------------|--------|--------|--------|
D|---------------------------|---------------------------|--------|--------|--------|
A|---------------------------|---------------------------|--------|--------|--------|
E|---------------------------|---------------------------|--------|--------|--------|


E|--------|--------|--------|--------|--------|--------|--------|--------|--------|
B|--------|--------|--------|--------|--------|--------|--------|--------|--------|
G|--------|--------|--------|--------|--------|--------|--------|--------|--------|
D|--------|--------|--------|--------|--------|--------|--------|--------|--------|
A|--------|--------|--------|--------|--------|--------|--------|--------|--------|
E|--------|--------|--------|--------|--------|--------|--------|--------|--------|


E|--------|--------|--------|--------|--------|--------|
B|--------|--------|--------|--------|--------|--------|
G|--------|--------|--------|--------|--------|--------|
D|--------|--------|--------|--------|--------|--------|
A|--------|--------|--------|--------|--------|--------|
E|--------|--------|--------|--------|--------|--------|





Track 5: Solo Guitar

E|--------|--------|--------|--------|--------|--------|--------|--------|--------|
B|--------|--------|--------|--------|--------|--------|--------|--------|--------|
G|--------|--------|--------|--------|--------|--------|--------|--------|--------|
D|--------|--------|--------|--------|--------|--------|--------|--------|--------|
A|--------|--------|--------|--------|--------|--------|--------|--------|--------|
E|--------|--------|--------|--------|--------|--------|--------|--------|--------|


E|--------|--------|--------|--------|--------|--------|--------|--------|--------|
B|--------|--------|--------|--------|--------|--------|--------|--------|--------|
G|--------|--------|--------|--------|--------|--------|--------|--------|--------|
D|--------|--------|--------|--------|--------|--------|--------|--------|--------|
A|--------|--------|--------|--------|--------|--------|--------|--------|--------|
E|--------|--------|--------|--------|--------|--------|--------|--------|--------|


E|--------|--------|--------|--------|--------|--------|--------|--------|--------|
B|--------|--------|--------|--------|--------|--------|--------|--------|--------|
G|--------|--------|--------|--------|--------|--------|--------|--------|--------|
D|--------|--------|--------|--------|--------|--------|--------|--------|--------|
A|--------|--------|--------|--------|--------|--------|--------|--------|--------|
E|--------|--------|--------|--------|--------|--------|--------|--------|--------|


E|--------|--------|--------|--------|--------|--------|--------|--------|--------|
B|--------|--------|--------|--------|--------|--------|--------|--------|--------|
G|--------|--------|--------|--------|--------|--------|--------|--------|--------|
D|--------|--------|--------|--------|--------|--------|--------|--------|--------|
A|--------|--------|--------|--------|--------|--------|--------|--------|--------|
E|--------|--------|--------|--------|--------|--------|--------|--------|--------|


E|--------|--------|--------|--------|--------|--------|--------|--------|--------|
B|--------|--------|--------|--------|--------|--------|--------|--------|--------|
G|--------|--------|--------|--------|--------|--------|--------|--------|--------|
D|--------|--------|--------|--------|--------|--------|--------|--------|--------|
A|--------|--------|--------|--------|--------|--------|--------|--------|--------|
E|--------|--------|--------|--------|--------|--------|--------|--------|--------|


E|--------|--------|--------|--------|--------|--------|--------|--------|--------|
B|--------|--------|--------|--------|--------|--------|--------|--------|--------|
G|--------|--------|--------|--------|--------|--------|--------|--------|--------|
D|--------|--------|--------|--------|--------|--------|--------|--------|--------|
A|--------|--------|--------|--------|--------|--------|--------|--------|--------|
E|--------|--------|--------|--------|--------|--------|--------|--------|--------|


E|--------|--------|--------|--------|--------|--------|--------|--------|--------|
B|--------|--------|--------|--------|--------|--------|--------|--------|--------|
G|--------|--------|--------|--------|--------|--------|--------|--------|--------|
D|--------|--------|--------|--------|--------|--------|--------|--------|--------|
A|--------|--------|--------|--------|--------|--------|--------|--------|--------|
E|--------|--------|--------|--------|--------|--------|--------|--------|--------|


E|--------|--------|--------|--------|--------|--------|--------|--------|--------|
B|--------|--------|--------|--------|--------|--------|--------|--------|--------|
G|--------|--------|--------|--------|--------|--------|--------|--------|--------|
D|--------|--------|--------|--------|--------|--------|--------|--------|--------|
A|--------|--------|--------|--------|--------|--------|--------|--------|--------|
E|--------|--------|--------|--------|--------|--------|--------|--------|--------|


E|--------|--------|--------|--------|--------|--------|--------|--------|--------|
B|--------|--------|--------|--------|--------|--------|--------|--------|--------|
G|--------|--------|--------|--------|--------|--------|--------|--------|--------|
D|--------|--------|--------|--------|--------|--------|--------|--------|--------|
A|--------|--------|--------|--------|--------|--------|--------|--------|--------|
E|--------|--------|--------|--------|--------|--------|--------|--------|--------|


E|--------|--------|--------|--------|--------|--------|--------|--------|--------|
B|--------|--------|--------|--------|--------|--------|--------|--------|--------|
G|--------|--------|--------|--------|--------|--------|--------|--------|--------|
D|--------|--------|--------|--------|--------|--------|--------|--------|--------|
A|--------|--------|--------|--------|--------|--------|--------|--------|--------|
E|--------|--------|--------|--------|--------|--------|--------|--------|--------|


E|--------|--------|--------|--------|--------|--------|--------|--------|--------|
B|--------|--------|--------|--------|--------|--------|--------|--------|--------|
G|--------|--------|--------|--------|--------|--------|--------|--------|--------|
D|--------|--------|--------|--------|--------|--------|--------|--------|--------|
A|--------|--------|--------|--------|--------|--------|--------|--------|--------|
E|--------|--------|--------|--------|--------|--------|--------|--------|--------|


E|--------|--------|--------|--------|--------|--------|--------|--------|--------|
B|--------|--------|--------|--------|--------|--------|--------|--------|--------|
G|--------|--------|--------|--------|--------|--------|--------|--------|--------|
D|--------|--------|--------|--------|--------|--------|--------|--------|--------|
A|--------|--------|--------|--------|--------|--------|--------|--------|--------|
E|--------|--------|--------|--------|--------|--------|--------|--------|--------|


E|--------|--------|--------|--------|--------|--------|--------|--------|--------|
B|--------|--------|--------|--------|--------|--------|--------|--------|--------|
G|--------|--------|--------|--------|--------|--------|--------|--------|--------|
D|--------|--------|--------|--------|--------|--------|--------|--------|--------|
A|--------|--------|--------|--------|--------|--------|--------|--------|--------|
E|--------|--------|--------|--------|--------|--------|--------|--------|--------|


E|------5------------7---5---|--------|--------|--------|--------|--------|--------|
B|-8--------9---9------------|--------|--------|--------|--------|--------|--------|
G|---------------------------|--------|--------|--------|--------|--------|--------|
D|---------------------------|--------|--------|--------|--------|--------|--------|
A|---------------------------|--------|--------|--------|--------|--------|--------|
E|---------------------------|--------|--------|--------|--------|--------|--------|


E|--------|--------|--------|--------|--------|--------|--------|--------|--------|
B|--------|--------|--------|--------|--------|--------|--------|--------|--------|
G|--------|--------|--------|--------|--------|--------|--------|--------|--------|
D|--------|--------|--------|--------|--------|--------|--------|--------|--------|
A|--------|--------|--------|--------|--------|--------|--------|--------|--------|
E|--------|--------|--------|--------|--------|--------|--------|--------|--------|


E|--------|--------|--------|
B|--------|--------|--------|
G|--------|--------|--------|
D|--------|--------|--------|
A|--------|--------|--------|
E|--------|--------|--------|





Track 6: Rhythm Guitar

E|--------|--------|--------|--------|--------|--------|--------|--------|--------|
B|--------|--------|--------|--------|--------|--------|--------|--------|--------|
G|--------|--------|--------|--------|--------|--------|--------|--------|--------|
D|--------|--------|--------|--------|--------|--------|--------|--------|--------|
A|--------|--------|--------|--------|--------|--------|--------|--------|--------|
E|--------|--------|--------|--------|--------|--------|--------|--------|--------|


E|--------|--------|--------|--------|--------|--------|--------|--------|--------|
B|--------|--------|--------|--------|--------|--------|--------|--------|--------|
G|--------|--------|--------|--------|--------|--------|--------|--------|--------|
D|--------|--------|--------|--------|--------|--------|--------|--------|--------|
A|--------|--------|--------|--------|--------|--------|--------|--------|--------|
E|--------|--------|--------|--------|--------|--------|--------|--------|--------|


E|--------|--------|--------|--------|--------|--------|--------|--------|--------|
B|--------|--------|--------|--------|--------|--------|--------|--------|--------|
G|--------|--------|--------|--------|--------|--------|--------|--------|--------|
D|--------|--------|--------|--------|--------|--------|--------|--------|--------|
A|--------|--------|--------|--------|--------|--------|--------|--------|--------|
E|--------|--------|--------|--------|--------|--------|--------|--------|--------|


E|--------|--------|--------|--------|--------|--------|--------|--------|--------|
B|--------|--------|--------|--------|--------|--------|--------|--------|--------|
G|--------|--------|--------|--------|--------|--------|--------|--------|--------|
D|--------|--------|--------|--------|--------|--------|--------|--------|--------|
A|--------|--------|--------|--------|--------|--------|--------|--------|--------|
E|--------|--------|--------|--------|--------|--------|--------|--------|--------|


E|--------|--------|--------|--------|--------|--------|--------|--------|--------|
B|--------|--------|--------|--------|--------|--------|--------|--------|--------|
G|--------|--------|--------|--------|--------|--------|--------|--------|--------|
D|--------|--------|--------|--------|--------|--------|--------|--------|--------|
A|--------|--------|--------|--------|--------|--------|--------|--------|--------|
E|--------|--------|--------|--------|--------|--------|--------|--------|--------|


E|--------|--------|--------|--------|--------|--------|--------|--------|--------|
B|--------|--------|--------|--------|--------|--------|--------|--------|--------|
G|--------|--------|--------|--------|--------|--------|--------|--------|--------|
D|--------|--------|--------|--------|--------|--------|--------|--------|--------|
A|--------|--------|--------|--------|--------|--------|--------|--------|--------|
E|--------|--------|--------|--------|--------|--------|--------|--------|--------|


E|--------|--------|--------|--------|--------|--------|--------|--------|--------|
B|--------|--------|--------|--------|--------|--------|--------|--------|--------|
G|--------|--------|--------|--------|--------|--------|--------|--------|--------|
D|--------|--------|--------|--------|--------|--------|--------|--------|--------|
A|--------|--------|--------|--------|--------|--------|--------|--------|--------|
E|--------|--------|--------|--------|--------|--------|--------|--------|--------|


E|--------|--------|--------|--------|--------|--------|--------|--------|--------|
B|--------|--------|--------|--------|--------|--------|--------|--------|--------|
G|--------|--------|--------|--------|--------|--------|--------|--------|--------|
D|--------|--------|--------|--------|--------|--------|--------|--------|--------|
A|--------|--------|--------|--------|--------|--------|--------|--------|--------|
E|--------|--------|--------|--------|--------|--------|--------|--------|--------|


E|--------|--------|--------|--------|--------|--------|--------|--------|--------|
B|--------|--------|--------|--------|--------|--------|--------|--------|--------|
G|--------|--------|--------|--------|--------|--------|--------|--------|--------|
D|--------|--------|--------|--------|--------|--------|--------|--------|--------|
A|--------|--------|--------|--------|--------|--------|--------|--------|--------|
E|--------|--------|--------|--------|--------|--------|--------|--------|--------|


E|--------|--------|--------|--------|--------|--------|--------|--------|--------|
B|--------|--------|--------|--------|--------|--------|--------|--------|--------|
G|--------|--------|--------|--------|--------|--------|--------|--------|--------|
D|--------|--------|--------|--------|--------|--------|--------|--------|--------|
A|--------|--------|--------|--------|--------|--------|--------|--------|--------|
E|--------|--------|--------|--------|--------|--------|--------|--------|--------|


E|--------|--------|--------|--------|--------|--------|--------|--------|--------|
B|--------|--------|--------|--------|--------|--------|--------|--------|--------|
G|--------|--------|--------|--------|--------|--------|--------|--------|--------|
D|--------|--------|--------|--------|--------|--------|--------|--------|--------|
A|--------|--------|--------|--------|--------|--------|--------|--------|--------|
E|--------|--------|--------|--------|--------|--------|--------|--------|--------|


E|--------|--------|--------|--------|--------|--------|--------|--------|--------|
B|--------|--------|--------|--------|--------|--------|--------|--------|--------|
G|--------|--------|--------|--------|--------|--------|--------|--------|--------|
D|--------|--------|--------|--------|--------|--------|--------|--------|--------|
A|--------|--------|--------|--------|--------|--------|--------|--------|--------|
E|--------|--------|--------|--------|--------|--------|--------|--------|--------|


E|--------|--------|--------|--------|--------|--------|--------|--------|--------|
B|--------|--------|--------|--------|--------|--------|--------|--------|--------|
G|--------|--------|--------|--------|--------|--------|--------|--------|--------|
D|--------|--------|--------|--------|--------|--------|--------|--------|--------|
A|--------|--------|--------|--------|--------|--------|--------|--------|--------|
E|--------|--------|--------|--------|--------|--------|--------|--------|--------|


E|--------|-17-----|-17-----|--------|--------|--------|--------|--------|--------|
B|--------|--------|--------|--------|--------|--------|--------|--------|--------|
G|--------|--------|--------|--------|--------|--------|--------|--------|--------|
D|--------|--------|--------|--------|--------|--------|--------|--------|--------|
A|--------|--------|--------|--------|--------|--------|--------|--------|--------|
E|--------|--------|--------|--------|--------|--------|--------|--------|--------|


E|--------|--------|--------|--------|--------|--------|--------|--------|--------|
B|--------|--------|--------|--------|--------|--------|--------|--------|--------|
G|--------|--------|--------|--------|--------|--------|--------|--------|--------|
D|--------|--------|--------|--------|--------|--------|--------|--------|--------|
A|--------|--------|--------|--------|--------|--------|--------|--------|--------|
E|--------|--------|--------|--------|--------|--------|--------|--------|--------|


E|--------|
B|--------|
G|--------|
D|--------|
A|--------|
E|--------|





Track 7: Rhythm Guitar

E|--------|--------|--------|--------|--------|--------|--------|--------|--------|
B|--------|--------|--------|--------|--------|--------|--------|--------|--------|
G|--------|--------|--------|--------|--------|--------|--------|--------|--------|
D|--------|--------|--------|--------|--------|--------|--------|--------|--------|
A|--------|--------|--------|--------|--------|--------|--------|--------|--------|
E|--------|--------|--------|--------|--------|--------|--------|--------|--------|


E|--------|--------|--------|--------|--------|--------|--------|--------|--------|
B|--------|--------|--------|--------|--------|--------|--------|--------|--------|
G|--------|--------|--------|--------|--------|--------|--------|--------|--------|
D|--------|--------|--------|--------|--------|--------|--------|--------|--------|
A|--------|--------|--------|--------|--------|--------|--------|--------|--------|
E|--------|--------|--------|--------|--------|--------|--------|--------|--------|


E|--------|--------|--------|--------|--------|--------|--------|--------|--------|
B|--------|--------|--------|--------|--------|--------|--------|--------|--------|
G|--------|--------|--------|--------|--------|--------|--------|--------|--------|
D|--------|--------|--------|--------|--------|--------|--------|--------|--------|
A|--------|--------|--------|--------|--------|--------|--------|--------|--------|
E|--------|--------|--------|--------|--------|--------|--------|--------|--------|


E|--------|--------|--------|--------|--------|--------|--------|--------|--------|
B|--------|--------|--------|--------|--------|--------|--------|--------|--------|
G|--------|--------|--------|--------|--------|--------|--------|--------|--------|
D|--------|--------|--------|--------|--------|--------|--------|--------|--------|
A|--------|--------|--------|--------|--------|--------|--------|--------|--------|
E|--------|--------|--------|--------|--------|--------|--------|--------|--------|


E|--------|--------|--------|--------|--------|--------|--------|--------|--------|
B|--------|--------|--------|--------|--------|--------|--------|--------|--------|
G|--------|--------|--------|--------|--------|--------|--------|--------|--------|
D|--------|--------|--------|--------|--------|--------|--------|--------|--------|
A|--------|--------|--------|--------|--------|--------|--------|--------|--------|
E|--------|--------|--------|--------|--------|--------|--------|--------|--------|


E|--------|--------|--------|--------|--------|--------|--------|--------|--------|
B|--------|--------|--------|--------|--------|--------|--------|--------|--------|
G|--------|--------|--------|--------|--------|--------|--------|--------|--------|
D|--------|--------|--------|--------|--------|--------|--------|--------|--------|
A|--------|--------|--------|--------|--------|--------|--------|--------|--------|
E|--------|--------|--------|--------|--------|--------|--------|--------|--------|


E|--------|--------|--------|--------|--------|--------|--------|--------|--------|
B|--------|--------|--------|--------|--------|--------|--------|--------|--------|
G|--------|--------|--------|--------|--------|--------|--------|--------|--------|
D|--------|--------|--------|--------|--------|--------|--------|--------|--------|
A|--------|--------|--------|--------|--------|--------|--------|--------|--------|
E|--------|--------|--------|--------|--------|--------|--------|--------|--------|


E|--------|--------|--------|--------|--------|--------|--------|--------|--------|
B|--------|--------|--------|--------|--------|--------|--------|--------|--------|
G|--------|--------|--------|--------|--------|--------|--------|--------|--------|
D|--------|--------|--------|--------|--------|--------|--------|--------|--------|
A|--------|--------|--------|--------|--------|--------|--------|--------|--------|
E|--------|--------|--------|--------|--------|--------|--------|--------|--------|


E|--------|--------|--------|--------|--------|--------|--------|--------|--------|
B|--------|--------|--------|--------|--------|--------|--------|--------|--------|
G|--------|--------|--------|--------|--------|--------|--------|--------|--------|
D|--------|--------|--------|--------|--------|--------|--------|--------|--------|
A|--------|--------|--------|--------|--------|--------|--------|--------|--------|
E|--------|--------|--------|--------|--------|--------|--------|--------|--------|


E|--------|--------|--------|--------|--------|--------|--------|--------|--------|
B|--------|--------|--------|--------|--------|--------|--------|--------|--------|
G|--------|--------|--------|--------|--------|--------|--------|--------|--------|
D|--------|--------|--------|--------|--------|--------|--------|--------|--------|
A|--------|--------|--------|--------|--------|--------|--------|--------|--------|
E|--------|--------|--------|--------|--------|--------|--------|--------|--------|


E|--------|--------|--------|--------|--------|--------|--------|--------|--------|
B|--------|--------|--------|--------|--------|--------|--------|--------|--------|
G|--------|--------|--------|--------|--------|--------|--------|--------|--------|
D|--------|--------|--------|--------|--------|--------|--------|--------|--------|
A|--------|--------|--------|--------|--------|--------|--------|--------|--------|
E|--------|--------|--------|--------|--------|--------|--------|--------|--------|


E|--------|--------|--------|--------|--------|--------|--------|--------|--------|
B|--------|--------|--------|--------|--------|--------|--------|--------|--------|
G|--------|--------|--------|--------|--------|--------|--------|--------|--------|
D|--------|--------|--------|--------|--------|--------|--------|--------|--------|
A|--------|--------|--------|--------|--------|--------|--------|--------|--------|
E|--------|--------|--------|--------|--------|--------|--------|--------|--------|


E|--------|--------|--------|--------|--------|--------|--------|--------|--------|
B|--------|--------|--------|--------|--------|--------|--------|--------|--------|
G|--------|--------|--------|--------|--------|--------|--------|--------|--------|
D|--------|--------|--------|--------|--------|--------|--------|--------|--------|
A|--------|--------|--------|--------|--------|--------|--------|--------|--------|
E|--------|--------|--------|--------|--------|--------|--------|--------|--------|


E|--------|-5------|-5------|--------|--------|--------|--------|--------|--------|
B|--------|--------|--------|--------|--------|--------|--------|--------|--------|
G|--------|--------|--------|--------|--------|--------|--------|--------|--------|
D|--------|--------|--------|--------|--------|--------|--------|--------|--------|
A|--------|--------|--------|--------|--------|--------|--------|--------|--------|
E|--------|--------|--------|--------|--------|--------|--------|--------|--------|


E|--------|--------|--------|--------|--------|--------|--------|--------|--------|
B|--------|--------|--------|--------|--------|--------|--------|--------|--------|
G|--------|--------|--------|--------|--------|--------|--------|--------|--------|
D|--------|--------|--------|--------|--------|--------|--------|--------|--------|
A|--------|--------|--------|--------|--------|--------|--------|--------|--------|
E|--------|--------|--------|--------|--------|--------|--------|--------|--------|


E|--------|
B|--------|
G|--------|
D|--------|
A|--------|
E|--------|





Track 8: Clean Guitar 2

E|--------|--------|--------|--------|--------|--------|--------|--------|--------|
B|--------|--------|--------|--------|--------|--------|--------|--------|--------|
G|--------|--------|--------|--------|--------|--------|--------|--------|--------|
D|--------|--------|--------|--------|--------|--------|--------|--------|--------|
A|--------|--------|--------|--------|--------|--------|--------|--------|--------|
E|--------|--------|--------|--------|--------|--------|--------|--------|--------|


E|--------|--------|--------|--------|--------|--------|--------|--------|--------|
B|--------|--------|--------|--------|--------|--------|--------|--------|--------|
G|--------|--------|--------|--------|--------|--------|--------|--------|--------|
D|--------|--------|--------|--------|--------|--------|--------|--------|--------|
A|--------|--------|--------|--------|--------|--------|--------|--------|--------|
E|--------|--------|--------|--------|--------|--------|--------|--------|--------|


E|--------|--------|--------|--------|--------|--------|--------|--------|--------|
B|--------|--------|--------|--------|--------|--------|--------|--------|--------|
G|--------|--------|--------|--------|--------|--------|--------|--------|--------|
D|--------|--------|--------|--------|--------|--------|--------|--------|--------|
A|--------|--------|--------|--------|--------|--------|--------|--------|--------|
E|--------|--------|--------|--------|--------|--------|--------|--------|--------|


E|--------|--------|--------|--------|--------|--------|--------|--------|--------|
B|--------|--------|--------|--------|--------|--------|--------|--------|--------|
G|--------|--------|--------|--------|--------|--------|--------|--------|--------|
D|--------|--------|--------|--------|--------|--------|--------|--------|--------|
A|--------|--------|--------|--------|--------|--------|--------|--------|--------|
E|--------|--------|--------|--------|--------|--------|--------|--------|--------|


E|--------|--------|--------|--------|--------|--------|--------|--------|--------|
B|--------|--------|--------|--------|--------|--------|--------|--------|--------|
G|--------|--------|--------|--------|--------|--------|--------|--------|--------|
D|--------|--------|--------|--------|--------|--------|--------|--------|--------|
A|--------|--------|--------|--------|--------|--------|--------|--------|--------|
E|--------|--------|--------|--------|--------|--------|--------|--------|--------|


E|--------|--------|--------|--------|--------|--------|--------|--------|--------|
B|--------|--------|--------|--------|--------|--------|--------|--------|--------|
G|--------|--------|--------|--------|--------|--------|--------|--------|--------|
D|--------|--------|--------|--------|--------|--------|--------|--------|--------|
A|--------|--------|--------|--------|--------|--------|--------|--------|--------|
E|--------|--------|--------|--------|--------|--------|--------|--------|--------|


E|--------|--------|--------|--------|--------|--------|--------|--------|--------|
B|--------|--------|--------|--------|--------|--------|--------|--------|--------|
G|--------|--------|--------|--------|--------|--------|--------|--------|--------|
D|--------|--------|--------|--------|--------|--------|--------|--------|--------|
A|--------|--------|--------|--------|--------|--------|--------|--------|--------|
E|--------|--------|--------|--------|--------|--------|--------|--------|--------|


E|--------|--------|--------|--------|--------|--------|--------|--------|--------|
B|--------|--------|--------|--------|--------|--------|--------|--------|--------|
G|--------|--------|--------|--------|--------|--------|--------|--------|--------|
D|--------|--------|--------|--------|--------|--------|--------|--------|--------|
A|--------|--------|--------|--------|--------|--------|--------|--------|--------|
E|--------|--------|--------|--------|--------|--------|--------|--------|--------|


E|--------|--------|--------|--------|--------|--------|--------|--------|--------|
B|--------|--------|--------|--------|--------|--------|--------|--------|--------|
G|--------|--------|--------|--------|--------|--------|--------|--------|--------|
D|--------|--------|--------|--------|--------|--------|--------|--------|--------|
A|--------|--------|--------|--------|--------|--------|--------|--------|--------|
E|--------|--------|--------|--------|--------|--------|--------|--------|--------|


E|--------|--------|--------|--------|--------|--------|--------|--------|--------|
B|--------|--------|--------|--------|--------|--------|--------|--------|--------|
G|--------|--------|--------|--------|--------|--------|--------|--------|--------|
D|--------|--------|--------|--------|--------|--------|--------|--------|--------|
A|--------|--------|--------|--------|--------|--------|--------|--------|--------|
E|--------|--------|--------|--------|--------|--------|--------|--------|--------|


E|--------|--------|--------|--------|--------|--------|--------|--------|--------|
B|--------|--------|--------|--------|--------|--------|--------|--------|--------|
G|--------|--------|--------|--------|--------|--------|--------|--------|--------|
D|--------|--------|--------|--------|--------|--------|--------|--------|--------|
A|--------|--------|--------|--------|--------|--------|--------|--------|--------|
E|--------|--------|--------|--------|--------|--------|--------|--------|--------|


E|--------|--------|--------|--------|--------|--------|--------|--------|--------|
B|--------|--------|--------|--------|--------|--------|--------|--------|--------|
G|--------|--------|--------|--------|--------|--------|--------|--------|--------|
D|--------|--------|--------|--------|--------|--------|--------|--------|--------|
A|--------|--------|--------|--------|--------|--------|--------|--------|--------|
E|--------|--------|--------|--------|--------|--------|--------|--------|--------|


E|--------|--------|--------|--------|--------|--------|--------|--------|--------|
B|--------|--------|--------|--------|--------|--------|--------|--------|--------|
G|--------|--------|--------|--------|--------|--------|--------|--------|--------|
D|--------|--------|--------|--------|--------|--------|--------|--------|--------|
A|--------|--------|--------|--------|--------|--------|--------|--------|--------|
E|--------|--------|--------|--------|--------|--------|--------|--------|--------|


E|--------|--------|--------|--------|--------|--------|--------|--------|--------|
B|--------|--------|--------|--------|--------|--------|--------|--------|--------|
G|--------|--------|--------|--------|--------|--------|--------|--------|--------|
D|--------|--------|--------|--------|--------|--------|--------|--------|--------|
A|--------|--------|--------|--------|--------|--------|--------|--------|--------|
E|--------|--------|--------|--------|--------|--------|--------|--------|--------|


E|--------|--------|--------|--------|--------|--------|--------|--------|-----------------------|
B|--------|--------|--------|--------|--------|--------|--------|--------|-------------------0---|
G|--------|--------|--------|--------|--------|--------|--------|--------|---------------5-------|
D|--------|--------|--------|--------|--------|--------|--------|--------|-----------7-----------|
A|--------|--------|--------|--------|--------|--------|--------|--------|-------0---------------|
E|--------|--------|--------|--------|--------|--------|--------|--------|-----------------------|


E|-0-----------|
B|-------------|
G|-------------|
D|-------------|
A|-------------|
E|-------------|





Track 9: Untitled

G|--------|--------|--------|--------|--------|--------|--------|--------|--------|
D|--------|--------|--------|--------|--------|--------|--------|--------|--------|
A|--------|--------|--------|--------|--------|--------|--------|--------|--------|
E|--------|--------|--------|--------|--------|--------|--------|--------|--------|


G|--------|--------|--------|--------|--------|--------|--------|--------|--------|
D|--------|--------|--------|--------|--------|--------|--------|--------|--------|
A|--------|--------|--------|--------|--------|--------|--------|--------|--------|
E|--------|--------|--------|--------|--------|--------|--------|--------|--------|


G|--------|--------|--------|--------|--------|--------|--------|--------|--------|
D|--------|--------|--------|--------|--------|--------|--------|--------|--------|
A|--------|--------|--------|--------|--------|--------|--------|--------|--------|
E|--------|--------|--------|--------|--------|--------|--------|--------|--------|


G|--------|--------|--------|--------|--------|--------|--------|--------|--------|
D|--------|--------|--------|--------|--------|--------|--------|--------|--------|
A|--------|--------|--------|--------|--------|--------|--------|--------|--------|
E|--------|--------|--------|--------|--------|--------|--------|--------|--------|


G|--------|--------|--------|--------|--------|--------|--------|--------|--------|
D|--------|--------|--------|--------|--------|--------|--------|--------|--------|
A|--------|--------|--------|--------|--------|--------|--------|--------|--------|
E|--------|--------|--------|--------|--------|--------|--------|--------|--------|


G|--------|--------|--------|--------|--------|--------|--------|--------|--------|
D|--------|--------|--------|--------|--------|--------|--------|--------|--------|
A|--------|--------|--------|--------|--------|--------|--------|--------|--------|
E|--------|--------|--------|--------|--------|--------|--------|--------|--------|


G|--------|--------|--------|--------|--------|--------|--------|--------|--------|
D|--------|--------|--------|--------|--------|--------|--------|--------|--------|
A|--------|--------|--------|--------|--------|--------|--------|--------|--------|
E|--------|--------|--------|--------|--------|--------|--------|--------|--------|


G|--------|--------|--------|--------|--------|--------|--------|--------|--------|
D|--------|--------|--------|--------|--------|--------|--------|--------|--------|
A|--------|--------|--------|--------|--------|--------|--------|--------|--------|
E|--------|--------|--------|--------|--------|--------|--------|--------|--------|


G|--------|--------|--------|--------|--------|--------|--------|--------|--------|
D|--------|--------|--------|--------|--------|--------|--------|--------|--------|
A|--------|--------|--------|--------|--------|--------|--------|--------|--------|
E|--------|--------|--------|--------|--------|--------|--------|--------|--------|


G|--------|--------|--------|--------|--------|--------|--------|--------|--------|
D|--------|--------|--------|--------|--------|--------|--------|--------|--------|
A|--------|--------|--------|--------|--------|--------|--------|--------|--------|
E|--------|--------|--------|--------|--------|--------|--------|--------|--------|


G|--------|--------|--------|--------|--------|--------|--------|--------|--------|
D|--------|--------|--------|--------|--------|--------|--------|--------|--------|
A|--------|--------|--------|--------|--------|--------|--------|--------|--------|
E|--------|--------|--------|--------|--------|--------|--------|--------|--------|


G|--------|--------|--------|--------|--------|--------|--------|--------|--------|
D|--------|--------|--------|--------|--------|--------|--------|--------|--------|
A|--------|--------|--------|--------|--------|--------|--------|--------|--------|
E|--------|--------|--------|--------|--------|--------|--------|--------|--------|


G|--------|--------|--------|--------|--------|--------|--------|--------|--------|
D|--------|--------|--------|--------|--------|--------|--------|--------|--------|
A|--------|--------|--------|--------|--------|--------|--------|--------|--------|
E|--------|--------|--------|--------|--------|--------|--------|--------|--------|


G|--------|--------|--------|--------|--------|--------|--------|--------|--------|
D|--------|--------|--------|--------|--------|--------|--------|--------|--------|
A|--------|--------|--------|--------|--------|--------|--------|--------|--------|
E|--------|--------|--------|--------|--------|--------|--------|--------|--------|


G|--------|--------|--------|--------|--------|--------|--------|--------|--------|
D|--------|--------|--------|--------|--------|--------|--------|--------|--------|
A|--------|--------|--------|--------|--------|--------|--------|--------|--------|
E|--------|--------|--------|--------|--------|--------|--------|--------|--------|


G|--------|
D|--------|
A|--------|
E|--------|