Menu:

 

Search:

 

megadeth - countdown to extinction:

 



Title: Countdown To Extinction
Artist: 
Album: Countdown To Extinction
Author: Mustaine, Menza, Ellefson, Friedman


Track 1: Guitar 1

E|----------------|----------------|---------------------------------|------------------------------|
B|----------------|----------------|---------------------------------|------------------------------|
G|-2--------------|-10-------------|---------------------------------|---------10--9---9--------2---|
D|-2--------------|-10-------------|---------------------------------|---------10--9---9--------2---|
A|-0------2---3---|-8------2---3---|-------------------------2---3---|---------8---7---7----3---0---|
E|----------------|----------------|-3---3---3---3---3---3-----------|-3---3------------------------|


E|--------|--------|--------|--------|--------|--------|--------|--------|--------|
B|--------|--------|--------|--------|--------|--------|--------|--------|--------|
G|-2------|-2------|-2------|-2------|-2------|-2------|-2------|-2------|--------|
D|-2------|-2------|-2------|-2------|-2------|-2------|-2------|-2------|--------|
A|-0------|-0------|-0------|-0------|-0------|-0------|-0------|-0------|--------|
E|--------|--------|--------|--------|--------|--------|--------|--------|--------|


E|--------|--------|--------|--------|--------|--------|--------|-------------|--------|
B|--------|--------|--------|--------|--------|--------|--------|-------------|--------|
G|--------|--------|--------|--------|--------|--------|--------|-2-----------|-10-----|
D|--------|--------|--------|--------|--------|--------|--------|-2-----------|-10-----|
A|--------|--------|--------|--------|--------|--------|--------|-0------3----|-8------|
E|--------|--------|--------|--------|--------|--------|--------|-------------|--------|


E|--------|-------------|-------------|--------|--------|-------------|----------------|
B|--------|-------------|-------------|--------|--------|-------------|----------------|
G|-7------|-------9-----|-2-----------|-10-----|-7------|-------9-----|-2--------------|
D|-7------|-5-----9-----|-2-----------|-10-----|-7------|-5-----9-----|-2--------------|
A|-5------|-5-----7-----|-0------3----|-8------|-5------|-5-----7-----|-0------2---3---|
E|--------|-3-----------|-------------|--------|--------|-3-----------|----------------|


E|----------------|---------------------------------|------------------------------|
B|----------------|---------------------------------|------------------------------|
G|-10-------------|---------------------------------|---------10--9---9------------|
D|-10-------------|---------------------------------|---------10--9---9------------|
A|-8------2---3---|-------------------------2---3---|---------8---7---7----3-------|
E|----------------|-3---3---3---3---3---3-----------|-3---3--------------------3---|


E|-------------------------------------|---------------------------------------|-------------------------------------|
B|-------------------------------------|---------------------------------------|-------------------------------------|
G|-------------------------------------|---------------------------------------|-------------------------------------|
D|-----7--7--7---7---7--9--10------9---|-----7--7--7-------7-------------------|-----7--7--7---7---7--9--10------9---|
A|-----------------------------10------|---------------10-----10-8---10-8--7---|-----------------------------10------|
E|-------------------------------------|---------------------------------------|-------------------------------------|


E|---------------------------------------|-------------------------------------|---------------------------------------|
B|---------------------------------------|-------------------------------------|---------------------------------------|
G|---------------------------------------|-------------------------------------|---------------------------------------|
D|-----7--7--7-------7-------------------|-----7--7--7---7---7--9--10------9---|-----7--7--7-------7-------------------|
A|---------------10-----10-8---10-8--7---|-----------------------------10------|---------------10-----10-8---10-8--7---|
E|---------------------------------------|-------------------------------------|---------------------------------------|


E|-------------------------------------|---------------------------------------|-------------------------------------|
B|-------------------------------------|---------------------------------------|-------------------------------------|
G|-------------------------------------|---------------------------------------|-------------------------------------|
D|-----7--7--7---7---7--9--10------9---|-----7--7--7-------7-------------------|-----7--7--7---7---7--9--10------9---|
A|-----------------------------10------|---------------10-----10-8---10-8--7---|-----------------------------10------|
E|-------------------------------------|---------------------------------------|-------------------------------------|


E|---------------------------------------|-------------------------------------|---------------------------------------|
B|---------------------------------------|-------------------------------------|---------------------------------------|
G|---------------------------------------|-------------------------------------|---------------------------------------|
D|-----7--7--7-------7-------------------|-----7--7--7---7---7--9--10------9---|-----7--7--7-------7-------------------|
A|---------------10-----10-8---10-8--7---|-----------------------------10------|---------------10-----10-8---10-8--7---|
E|---------------------------------------|-------------------------------------|---------------------------------------|


E|-------------------------------------|---------------------------------------|---------------------------------------------|
B|-------------------------------------|---------------------------------------|---------------------------------------------|
G|-------------------------------------|---------------------------------------|---------------------------------------------|
D|-----7--7--7---7---7--9--10------9---|-----7--7--7-------7-------------------|-7-------------------------------------------|
A|-----------------------------10------|---------------10-----10-8---10-8--7---|----10-8--7------8--7------------7--5--4-----|
E|-------------------------------------|---------------------------------------|-------------10--------10-9--6------------6--|


E|-------------------------------|-------------|-------------|-------------|--------|
B|-------------------------------|-------5-----|-8-----7-----|-------------|--------|
G|-------------------------------|-------------|-------------|-2-----------|-10-----|
D|-------------------------------|-------------|-------------|-2-----------|-10-----|
A|-----5--4----------------------|-------------|-------------|-0------3----|-8------|
E|-5---------6--5--3---0----5----|-5-----------|-------------|-------------|--------|


E|--------|-------------|-------------|--------|--------|-------------|-------------|
B|--------|-------------|-------------|--------|--------|-------------|-------------|
G|-7------|-------9-----|-2-----------|-10-----|-7------|-------9-----|-2-----------|
D|-7------|-5-----9-----|-2-----------|-10-----|-7------|-5-----9-----|-2-----------|
A|-5------|-5-----7-----|-0------3----|-8------|-5------|-5-----7-----|-0------3----|
E|--------|-3-----------|-------------|--------|--------|-3-----------|-------------|


E|--------|--------|-------------|-------------|--------|--------|-------------|----------------|
B|--------|--------|-------------|-------------|--------|--------|-------------|----------------|
G|-10-----|-7------|-------9-----|-2-----------|-10-----|-7------|-------9-----|-2--------------|
D|-10-----|-7------|-5-----9-----|-2-----------|-10-----|-7------|-5-----9-----|-2--------------|
A|-8------|-5------|-5-----7-----|-0------3----|-8------|-5------|-5-----7-----|-0------2---3---|
E|--------|--------|-3-----------|-------------|--------|--------|-3-----------|----------------|


E|----------------|---------------------------------|------------------------------|
B|----------------|---------------------------------|------------------------------|
G|-10-------------|---------------------------------|---------10--9---9------------|
D|-10-------------|---------------------------------|---------10--9---9------------|
A|-8------2---3---|-------------------------2---3---|---------8---7---7----3-------|
E|----------------|-3---3---3---3---3---3-----------|-3---3--------------------3---|


E|-------------------------------------|---------------------------------------|-------------------------------------|
B|-------------------------------------|---------------------------------------|-------------------------------------|
G|-------------------------------------|---------------------------------------|-------------------------------------|
D|-----7--7--7---7---7--9--10------9---|-----7--7--7-------7-------------------|-----7--7--7---7---7--9--10------9---|
A|-----------------------------10------|---------------10-----10-8---10-8--7---|-----------------------------10------|
E|-------------------------------------|---------------------------------------|-------------------------------------|


E|---------------------------------------|-------------------------------------|---------------------------------------|
B|---------------------------------------|-------------------------------------|---------------------------------------|
G|---------------------------------------|-------------------------------------|---------------------------------------|
D|-----7--7--7-------7-------------------|-----7--7--7---7---7--9--10------9---|-----7--7--7-------7-------------------|
A|---------------10-----10-8---10-8--7---|-----------------------------10------|---------------10-----10-8---10-8--7---|
E|---------------------------------------|-------------------------------------|---------------------------------------|


E|-------------------------------------|---------------------------------------|-------------------------------------|
B|-------------------------------------|---------------------------------------|-------------------------------------|
G|-------------------------------------|---------------------------------------|-------------------------------------|
D|-----7--7--7---7---7--9--10------9---|-----7--7--7-------7-------------------|-----7--7--7---7---7--9--10------9---|
A|-----------------------------10------|---------------10-----10-8---10-8--7---|-----------------------------10------|
E|-------------------------------------|---------------------------------------|-------------------------------------|


E|---------------------------------------|-------------------------------------|---------------------------------------|
B|---------------------------------------|-------------------------------------|---------------------------------------|
G|---------------------------------------|-------------------------------------|---------------------------------------|
D|-----7--7--7-------7-------------------|-----7--7--7---7---7--9--10------9---|-----7--7--7-------7-------------------|
A|---------------10-----10-8---10-8--7---|-----------------------------10------|---------------10-----10-8---10-8--7---|
E|---------------------------------------|-------------------------------------|---------------------------------------|


E|-------------------------------------|---------------------------------------|---------------------------------------------|
B|-------------------------------------|---------------------------------------|---------------------------------------------|
G|-------------------------------------|---------------------------------------|---------------------------------------------|
D|-----7--7--7---7---7--9--10------9---|-----7--7--7-------7-------------------|-7-------------------------------------------|
A|-----------------------------10------|---------------10-----10-8---10-8--7---|----10-8--7------8--7------------7--5--4-----|
E|-------------------------------------|---------------------------------------|-------------10--------10-9--6------------6--|


E|-------------------------------|--------|----------------|--------|--------|--------|
B|-------------------------------|--------|----------------|--------|--------|--------|
G|-------------------------------|-2------|-2--------------|-2------|-2------|-2------|
D|-------------------------------|-2------|-2--------------|-2------|-2------|-2------|
A|-----5--4----------------------|-0------|-0------3---5---|-0------|-0------|-0------|
E|-5---------6--5--3---0----5----|--------|----------------|--------|--------|--------|


E|----------------|--------|--------|--------|--------|--------|--------|--------|
B|----------------|--------|--------|--------|--------|--------|--------|--------|
G|-2--------------|-2------|-2------|--------|--------|--------|--------|--------|
D|-2--------------|-2------|-2------|--------|--------|--------|--------|--------|
A|-0------3---5---|-0------|-0------|--------|--------|--------|--------|--------|
E|----------------|--------|--------|--------|--------|--------|--------|--------|


E|--------|--------|--------|---------------------------|-----------------------------|
B|--------|--------|--------|---------------------------|-----------------------------|
G|--------|--------|--------|------9---7---7------------|------9---7---7--------------|
D|--------|--------|--------|-7---------------------7---|-7-----------------7---------|
A|--------|--------|--------|-------------------10------|----------------------10-8---|
E|--------|--------|--------|---------------------------|-----------------------------|


E|---------------------------|---------------------------|---------------------------|
B|---------------------------|-------------------8---10--|-10------------------------|
G|------9---7---7------------|------10--9---9------------|------9---7---7------------|
D|-------------------10--9---|-9-------------------------|-----------------------7---|
A|-8-------------------------|---------------------------|-------------------10------|
E|---------------------------|---------------------------|---------------------------|


E|-----------------------------|---------------------------|---------------------------|
B|-----------------------------|---------------------------|-------------------8---10--|
G|------9---7---7--------------|------9---7---7------------|------10--9---9------------|
D|-7-----------------7---------|-------------------10--9---|-9-------------------------|
A|----------------------10-8---|-8-------------------------|---------------------------|
E|-----------------------------|---------------------------|---------------------------|


E|------12--10--10-----------|------12--10--10-------------|------12--10--10-----------|
B|-10--------------------10--|-10----------------10--------|-------------------13--12--|
G|-------------------12------|----------------------12-10--|-10------------------------|
D|---------------------------|-----------------------------|---------------------------|
A|---------------------------|-----------------------------|---------------------------|
E|---------------------------|-----------------------------|---------------------------|


E|------13--12--12---15--17--|-17---12--10--10-----------|------12--10--10-------------|
B|-12------------------------|-----------------------10--|-10----------------10--------|
G|---------------------------|-------------------12------|----------------------12-10--|
D|---------------------------|---------------------------|-----------------------------|
A|---------------------------|---------------------------|-----------------------------|
E|---------------------------|---------------------------|-----------------------------|


E|------12--10--10-----------|------13--12--12---15--17--|-17----------------------------------|
B|-------------------13--12--|-12------------------------|-------------------------------------|
G|-10------------------------|---------------------------|-------------------------------------|
D|---------------------------|---------------------------|-----7--7--7---7---7--9--10------9---|
A|---------------------------|---------------------------|-----------------------------10------|
E|---------------------------|---------------------------|-------------------------------------|


E|---------------------------------------|-------------------------------------|---------------------------------------|
B|---------------------------------------|-------------------------------------|---------------------------------------|
G|---------------------------------------|-------------------------------------|---------------------------------------|
D|-----7--7--7-------7-------------------|-----7--7--7---7---7--9--10------9---|-----7--7--7-------7-------------------|
A|---------------10-----10-8---10-8--7---|-----------------------------10------|---------------10-----10-8---10-8--7---|
E|---------------------------------------|-------------------------------------|---------------------------------------|


E|-------------------------------------|---------------------------------------|-------------------------------------|
B|-------------------------------------|---------------------------------------|-------------------------------------|
G|-------------------------------------|---------------------------------------|-------------------------------------|
D|-----7--7--7---7---7--9--10------9---|-----7--7--7-------7-------------------|-----7--7--7---7---7--9--10------9---|
A|-----------------------------10------|---------------10-----10-8---10-8--7---|-----------------------------10------|
E|-------------------------------------|---------------------------------------|-------------------------------------|


E|---------------------------------------|-------------------------------------|---------------------------------------|
B|---------------------------------------|-------------------------------------|---------------------------------------|
G|---------------------------------------|-------------------------------------|---------------------------------------|
D|-----7--7--7-------7-------------------|-----7--7--7---7---7--9--10------9---|-----7--7--7-------7-------------------|
A|---------------10-----10-8---10-8--7---|-----------------------------10------|---------------10-----10-8---10-8--7---|
E|---------------------------------------|-------------------------------------|---------------------------------------|


E|-------------------------------------|---------------------------------------|-------------------------------------|
B|-------------------------------------|---------------------------------------|-------------------------------------|
G|-------------------------------------|---------------------------------------|-------------------------------------|
D|-----7--7--7---7---7--9--10------9---|-----7--7--7-------7-------------------|-----7--7--7---7---7--9--10------9---|
A|-----------------------------10------|---------------10-----10-8---10-8--7---|-----------------------------10------|
E|-------------------------------------|---------------------------------------|-------------------------------------|


E|---------------------------------------|---------------------------------------------|
B|---------------------------------------|---------------------------------------------|
G|---------------------------------------|---------------------------------------------|
D|-----7--7--7-------7-------------------|-7-------------------------------------------|
A|---------------10-----10-8---10-8--7---|----10-8--7------8--7------------7--5--4-----|
E|---------------------------------------|-------------10--------10-9--6------------6--|


E|-------------------------------|-----------------|--------|
B|-------------------------------|-----------------|--------|
G|-------------------------------|-----------------|--------|
D|-------------------------------|-----------------|--------|
A|-----5--4----------------------|-----------------|--------|
E|-5---------6--5--3---0----5----|-5---------------|--------|





Track 2: Clean Guitar

E|--------|--------|--------|--------|--------|--------|--------|--------|--------|
B|--------|--------|--------|--------|--------|--------|--------|--------|--------|
G|--------|--------|--------|--------|--------|--------|--------|--------|--------|
D|--------|--------|--------|--------|--------|--------|--------|--------|--------|
A|--------|--------|--------|--------|--------|--------|--------|--------|--------|
E|--------|--------|--------|--------|--------|--------|--------|--------|--------|


E|--------|--------|--------|--------|-1------|-2------|-3-----0-----|--------|-1------|
B|--------|--------|--------|--------|-1------|-3------|-3-----0-----|--------|-1------|
G|--------|--------|--------|-2------|-2------|-2------|-0-----1-----|-2------|-2------|
D|--------|--------|--------|-2------|-3------|-0------|-0-----2-----|-2------|-3------|
A|--------|--------|--------|-0------|--------|--------|-------------|-0------|--------|
E|--------|--------|--------|--------|--------|--------|-------------|--------|--------|


E|-2------|-3-----0-----|--------|--------|--------|--------|--------|--------|--------|
B|-3------|-3-----0-----|--------|--------|--------|--------|--------|--------|--------|
G|-2------|-0-----1-----|--------|--------|--------|--------|--------|--------|--------|
D|-0------|-0-----2-----|--------|--------|--------|--------|--------|--------|--------|
A|--------|-------------|--------|--------|--------|--------|--------|--------|--------|
E|--------|-------------|--------|--------|--------|--------|--------|--------|--------|


E|--------|--------|--------|--------|--------|--------|--------|--------|--------|
B|--------|--------|--------|--------|--------|--------|--------|--------|--------|
G|--------|--------|--------|--------|--------|--------|--------|--------|--------|
D|--------|--------|--------|--------|--------|--------|--------|--------|--------|
A|--------|--------|--------|--------|--------|--------|--------|--------|--------|
E|--------|--------|--------|--------|--------|--------|--------|--------|--------|


E|--------|--------|--------|--------|--------|--------|--------|--------|--------|
B|--------|--------|--------|--------|--------|--------|--------|--------|--------|
G|--------|--------|--------|--------|--------|--------|--------|--------|--------|
D|--------|--------|--------|--------|--------|--------|--------|--------|--------|
A|--------|--------|--------|--------|--------|--------|--------|--------|--------|
E|--------|--------|--------|--------|--------|--------|--------|--------|--------|


E|--------|--------|--------|--------|--------|--------|--------|--------|--------|
B|--------|--------|--------|--------|--------|--------|--------|--------|--------|
G|--------|--------|--------|--------|--------|--------|--------|--------|--------|
D|--------|--------|--------|--------|--------|--------|--------|--------|--------|
A|--------|--------|--------|--------|--------|--------|--------|--------|--------|
E|--------|--------|--------|--------|--------|--------|--------|--------|--------|


E|--------|--------|--------|--------|--------|--------|--------|--------|--------|
B|--------|--------|--------|--------|--------|--------|--------|--------|--------|
G|--------|--------|--------|--------|--------|--------|--------|--------|--------|
D|--------|--------|--------|--------|--------|--------|--------|--------|--------|
A|--------|--------|--------|--------|--------|--------|--------|--------|--------|
E|--------|--------|--------|--------|--------|--------|--------|--------|--------|


E|--------|--------|--------|--------|--------|--------|--------|--------|--------|
B|--------|--------|--------|--------|--------|--------|--------|--------|--------|
G|--------|--------|--------|--------|--------|--------|--------|--------|--------|
D|--------|--------|--------|--------|--------|--------|--------|--------|--------|
A|--------|--------|--------|--------|--------|--------|--------|--------|--------|
E|--------|--------|--------|--------|--------|--------|--------|--------|--------|


E|--------|--------|--------|--------|--------|--------|--------|--------|--------|
B|--------|--------|--------|--------|--------|--------|--------|--------|--------|
G|--------|--------|--------|--------|--------|--------|--------|--------|--------|
D|--------|--------|--------|--------|--------|--------|--------|--------|--------|
A|--------|--------|--------|--------|--------|--------|--------|--------|--------|
E|--------|--------|--------|--------|--------|--------|--------|--------|--------|


E|--------|--------|--------|--------|--------|--------|--------|--------|--------|
B|--------|--------|--------|--------|--------|--------|--------|--------|--------|
G|--------|--------|--------|--------|--------|--------|--------|--------|--------|
D|--------|--------|--------|--------|--------|--------|--------|--------|--------|
A|--------|--------|--------|--------|--------|--------|--------|--------|--------|
E|--------|--------|--------|--------|--------|--------|--------|--------|--------|


E|--------|--------|--------|--------|---------------------------------|---------------------------------|
B|--------|--------|--------|--------|---------------------------------|---------------------------------|
G|--------|--------|--------|--------|---------------------------------|---------------------------------|
D|--------|--------|--------|--------|-----2---3---2---7---------------|-----2---3---2---7---------------|
A|--------|--------|--------|--------|-0-------------------7-----------|---------------------7-------0---|
E|--------|--------|--------|--------|-------------------------8---7---|-3-----------------------8-------|


E|------0---3---5---3-------------|--------------------------------|---------------------------------|
B|------3---------------5--3--1---|-3--------1---3--5--3---3-------|---------------------------------|
G|------2-------------------------|------2---------------------5---|---------------------------------|
D|--------------------------------|--------------------------------|-----2---3---2---7---------------|
A|--------------------------------|--------------------------------|-0-------------------7-------1---|
E|-2------------------------------|--------------------------------|-------------------------8-------|


E|-----------------------------------|-----------------------------------|-----------------3-----|
B|-----------------------------------|-----------------------------------|-------------3---------|
G|-----------------------------------|-----------------------------------|---------5-------------|
D|-----2---3---2---7-----------------|-----2---3---2---7-----------------|-----4-----------------|
A|-2-------------------7---5--3--2---|-3-------------------7---6--5--3---|-5---------------------|
E|-----------------------------------|-----------------------------------|-----------------------|


E|--------|--------|--------|--------|--------|--------|--------|--------|--------|
B|--------|--------|--------|--------|--------|--------|--------|--------|--------|
G|--------|--------|--------|--------|--------|--------|--------|--------|--------|
D|--------|--------|--------|--------|--------|--------|--------|--------|--------|
A|--------|--------|--------|--------|--------|--------|--------|--------|--------|
E|--------|--------|--------|--------|--------|--------|--------|--------|--------|


E|--------|--------|--------|--------|--------|--------|--------|--------|--------|
B|--------|--------|--------|--------|--------|--------|--------|--------|--------|
G|--------|--------|--------|--------|--------|--------|--------|--------|--------|
D|--------|--------|--------|--------|--------|--------|--------|--------|--------|
A|--------|--------|--------|--------|--------|--------|--------|--------|--------|
E|--------|--------|--------|--------|--------|--------|--------|--------|--------|


E|--------|--------|--------|--------|--------|--------|--------|--------|--------|
B|--------|--------|--------|--------|--------|--------|--------|--------|--------|
G|--------|--------|--------|--------|--------|--------|--------|--------|--------|
D|--------|--------|--------|--------|--------|--------|--------|--------|--------|
A|--------|--------|--------|--------|--------|--------|--------|--------|--------|
E|--------|--------|--------|--------|--------|--------|--------|--------|--------|


E|--------|--------|--------|--------|--------|---------------------------|-0-----------|
B|--------|--------|--------|--------|--------|-----------------------0---|-------------|
G|--------|--------|--------|--------|--------|-------------------5-------|-------------|
D|--------|--------|--------|--------|--------|---------------7-----------|-------------|
A|--------|--------|--------|--------|--------|-----------0---------------|-------------|
E|--------|--------|--------|--------|--------|---------------------------|-------------|





Track 3: Guitar 2

E|--------|--------|--------|--------|--------|--------|--------|--------|--------|
B|--------|--------|--------|--------|--------|--------|--------|--------|--------|
G|--------|--------|--------|--------|--------|--------|--------|--------|--------|
D|--------|--------|--------|--------|--------|--------|--------|--------|--------|
A|--------|--------|--------|--------|--------|--------|--------|--------|--------|
E|--------|--------|--------|--------|--------|--------|--------|--------|--------|


E|--------|--------|--------|--------|--------|--------|--------|--------|--------|
B|--------|--------|--------|--------|--------|--------|--------|--------|--------|
G|--------|--------|--------|--------|--------|--------|--------|--------|--------|
D|--------|--------|--------|--------|--------|--------|--------|--------|--------|
A|--------|--------|--------|--------|--------|--------|--------|--------|--------|
E|--------|--------|--------|--------|--------|--------|--------|--------|--------|


E|--------|--------|--------|--------|--------|--------|--------|--------|--------|
B|--------|--------|--------|--------|--------|--------|--------|--------|--------|
G|--------|--------|--------|--------|--------|--------|--------|--------|--------|
D|--------|--------|--------|--------|--------|--------|--------|--------|--------|
A|--------|--------|--------|--------|--------|--------|--------|--------|--------|
E|--------|--------|--------|--------|--------|--------|--------|--------|--------|


E|--------|--------|--------|--------|--------|----------------------7--8-------7---|
B|--------|--------|--------|--------|--------|-----10-10-10--10--10--------8-------|
G|--------|--------|--------|--------|--------|-------------------------------------|
D|--------|--------|--------|--------|--------|-------------------------------------|
A|--------|--------|--------|--------|--------|-------------------------------------|
E|--------|--------|--------|--------|--------|-------------------------------------|


E|---------------------------------------|----------------------7--8-------7---|---------------------------------------|
B|-----10-10-10--8---10-8------8---------|-----10-10-10--10--10--------8-------|-----10-10-10--8---10-8------8---------|
G|-------------------------10-----10-9---|-------------------------------------|-------------------------10-----10-9---|
D|---------------------------------------|-------------------------------------|---------------------------------------|
A|---------------------------------------|-------------------------------------|---------------------------------------|
E|---------------------------------------|-------------------------------------|---------------------------------------|


E|----------------------7--8-------7---|---------------------------------------|----------------------7--8-------7---|
B|-----10-10-10--10--10--------8-------|-----10-10-10--8---10-8------8---------|-----10-10-10--10--10--------8-------|
G|-------------------------------------|-------------------------10-----10-9---|-------------------------------------|
D|-------------------------------------|---------------------------------------|-------------------------------------|
A|-------------------------------------|---------------------------------------|-------------------------------------|
E|-------------------------------------|---------------------------------------|-------------------------------------|


E|---------------------------------------|----------------------7--8-------7---|---------------------------------------|
B|-----10-10-10--8---10-8------8---------|-----10-10-10--10--10--------8-------|-----10-10-10--8---10-8------8---------|
G|-------------------------10-----10-9---|-------------------------------------|-------------------------10-----10-9---|
D|---------------------------------------|-------------------------------------|---------------------------------------|
A|---------------------------------------|-------------------------------------|---------------------------------------|
E|---------------------------------------|-------------------------------------|---------------------------------------|


E|----------------------7--8-------7---|---------------------------------------|----------------------7--8-------7---|
B|-----10-10-10--10--10--------8-------|-----10-10-10--8---10-8------8---------|-----10-10-10--10--10--------8-------|
G|-------------------------------------|-------------------------10-----10-9---|-------------------------------------|
D|-------------------------------------|---------------------------------------|-------------------------------------|
A|-------------------------------------|---------------------------------------|-------------------------------------|
E|-------------------------------------|---------------------------------------|-------------------------------------|


E|---------------------------------------|---------------------------------------------|
B|-----10-10-10--8---10-8------8---------|-10-8----------------------------------------|
G|-------------------------10-----10-9---|-------10-9--7---10-9--7--6------9--7--6-----|
D|---------------------------------------|-----------------------------8------------8--|
A|---------------------------------------|---------------------------------------------|
E|---------------------------------------|---------------------------------------------|


E|-------------------------------|-------------|-------------|--------|--------|--------|
B|-------------------------------|-------------|-------------|--------|--------|--------|
G|-----7--6----------------------|-------9-----|-7-----7-----|--------|--------|--------|
D|-7---------8--7--5--------7----|-7-----7-----|-5-----4-----|--------|--------|--------|
A|---------------------7---------|-------------|-------------|--------|--------|--------|
E|-------------------------------|-------------|-------------|--------|--------|--------|


E|--------|--------|--------|--------|--------|--------|--------|--------|--------|
B|--------|--------|--------|--------|--------|--------|--------|--------|--------|
G|--------|--------|--------|--------|--------|--------|--------|--------|--------|
D|--------|--------|--------|--------|--------|--------|--------|--------|--------|
A|--------|--------|--------|--------|--------|--------|--------|--------|--------|
E|--------|--------|--------|--------|--------|--------|--------|--------|--------|


E|--------|--------|--------|--------|--------|--------|--------|--------|----------------------7--8-------7---|
B|--------|--------|--------|--------|--------|--------|--------|--------|-----10-10-10--10--10--------8-------|
G|--------|--------|--------|--------|--------|--------|--------|--------|-------------------------------------|
D|--------|--------|--------|--------|--------|--------|--------|--------|-------------------------------------|
A|--------|--------|--------|--------|--------|--------|--------|--------|-------------------------------------|
E|--------|--------|--------|--------|--------|--------|--------|--------|-------------------------------------|


E|---------------------------------------|----------------------7--8-------7---|---------------------------------------|
B|-----10-10-10--8---10-8------8---------|-----10-10-10--10--10--------8-------|-----10-10-10--8---10-8------8---------|
G|-------------------------10-----10-9---|-------------------------------------|-------------------------10-----10-9---|
D|---------------------------------------|-------------------------------------|---------------------------------------|
A|---------------------------------------|-------------------------------------|---------------------------------------|
E|---------------------------------------|-------------------------------------|---------------------------------------|


E|----------------------7--8-------7---|---------------------------------------|----------------------7--8-------7---|
B|-----10-10-10--10--10--------8-------|-----10-10-10--8---10-8------8---------|-----10-10-10--10--10--------8-------|
G|-------------------------------------|-------------------------10-----10-9---|-------------------------------------|
D|-------------------------------------|---------------------------------------|-------------------------------------|
A|-------------------------------------|---------------------------------------|-------------------------------------|
E|-------------------------------------|---------------------------------------|-------------------------------------|


E|---------------------------------------|----------------------7--8-------7---|---------------------------------------|
B|-----10-10-10--8---10-8------8---------|-----10-10-10--10--10--------8-------|-----10-10-10--8---10-8------8---------|
G|-------------------------10-----10-9---|-------------------------------------|-------------------------10-----10-9---|
D|---------------------------------------|-------------------------------------|---------------------------------------|
A|---------------------------------------|-------------------------------------|---------------------------------------|
E|---------------------------------------|-------------------------------------|---------------------------------------|


E|----------------------7--8-------7---|---------------------------------------|----------------------7--8-------7---|
B|-----10-10-10--10--10--------8-------|-----10-10-10--8---10-8------8---------|-----10-10-10--10--10--------8-------|
G|-------------------------------------|-------------------------10-----10-9---|-------------------------------------|
D|-------------------------------------|---------------------------------------|-------------------------------------|
A|-------------------------------------|---------------------------------------|-------------------------------------|
E|-------------------------------------|---------------------------------------|-------------------------------------|


E|---------------------------------------|---------------------------------------------|
B|-----10-10-10--8---10-8------8---------|-10-8----------------------------------------|
G|-------------------------10-----10-9---|-------10-9--7---10-9--7--6------9--7--6-----|
D|---------------------------------------|-----------------------------8------------8--|
A|---------------------------------------|---------------------------------------------|
E|---------------------------------------|---------------------------------------------|


E|-------------------------------|--------|--------|--------|--------|--------|--------|
B|-------------------------------|--------|--------|--------|--------|--------|--------|
G|-----7--6----------------------|--------|--------|--------|--------|--------|--------|
D|-7---------8--7--5--------7----|--------|--------|--------|--------|--------|--------|
A|---------------------7---------|--------|--------|--------|--------|--------|--------|
E|-------------------------------|--------|--------|--------|--------|--------|--------|


E|--------|--------|--------|--------|--------|--------|--------|--------|--------|
B|--------|--------|--------|--------|--------|--------|--------|--------|--------|
G|--------|--------|--------|--------|--------|--------|--------|--------|--------|
D|--------|--------|--------|--------|--------|--------|--------|--------|--------|
A|--------|--------|--------|--------|--------|--------|--------|--------|--------|
E|--------|--------|--------|--------|--------|--------|--------|--------|--------|


E|--------|------8---7---7------------|------8---7---7--------------|------8---7---7------------|
B|--------|-10------------------------|-----------------------------|-------------------10--8---|
G|--------|-------------------9---10--|-10----------------10-9--7---|-7-------------------------|
D|--------|---------------------------|-----------------------------|---------------------------|
A|--------|---------------------------|-----------------------------|---------------------------|
E|--------|---------------------------|-----------------------------|---------------------------|


E|-------------------7-------|------8---7---7------------|------8---7---7--------------|
B|-8----10--9---9--------10--|-10------------------------|-----------------------------|
G|---------------------------|-------------------9---10--|-10----------------10-9--7---|
D|---------------------------|---------------------------|-----------------------------|
A|---------------------------|---------------------------|-----------------------------|
E|---------------------------|---------------------------|-----------------------------|


E|------8---7---7------------|-------------------7-------|------8---7---7------------|
B|-------------------10--8---|-8----10--9---9--------10--|-10------------------------|
G|-7-------------------------|---------------------------|-------------------9---10--|
D|---------------------------|---------------------------|---------------------------|
A|---------------------------|---------------------------|---------------------------|
E|---------------------------|---------------------------|---------------------------|


E|------8---7---7--------------|------8---7---7------------|-------------------7-------|
B|-----------------------------|-------------------10--8---|-8----10--9---9--------10--|
G|-10----------------10-9--7---|-7-------------------------|---------------------------|
D|-----------------------------|---------------------------|---------------------------|
A|-----------------------------|---------------------------|---------------------------|
E|-----------------------------|---------------------------|---------------------------|


E|------8---7---7------------|------8---7---7--------------|------8---7---7------------|
B|-10------------------------|-----------------------------|-------------------10--8---|
G|-------------------9---10--|-10----------------10-9--7---|-7-------------------------|
D|---------------------------|-----------------------------|---------------------------|
A|---------------------------|-----------------------------|---------------------------|
E|---------------------------|-----------------------------|---------------------------|


E|-------------------7-------|----------------------7--8-------7---|---------------------------------------|
B|-8----10--9---9--------10--|-10--10-10-10--10--10--------8-------|-----10-10-10--8---10-8------8---------|
G|---------------------------|-------------------------------------|-------------------------10-----10-9---|
D|---------------------------|-------------------------------------|---------------------------------------|
A|---------------------------|-------------------------------------|---------------------------------------|
E|---------------------------|-------------------------------------|---------------------------------------|


E|----------------------7--8-------7---|---------------------------------------|----------------------7--8-------7---|
B|-----10-10-10--10--10--------8-------|-----10-10-10--8---10-8------8---------|-----10-10-10--10--10--------8-------|
G|-------------------------------------|-------------------------10-----10-9---|-------------------------------------|
D|-------------------------------------|---------------------------------------|-------------------------------------|
A|-------------------------------------|---------------------------------------|-------------------------------------|
E|-------------------------------------|---------------------------------------|-------------------------------------|


E|---------------------------------------|----------------------7--8-------7---|---------------------------------------|
B|-----10-10-10--8---10-8------8---------|-----10-10-10--10--10--------8-------|-----10-10-10--8---10-8------8---------|
G|-------------------------10-----10-9---|-------------------------------------|-------------------------10-----10-9---|
D|---------------------------------------|-------------------------------------|---------------------------------------|
A|---------------------------------------|-------------------------------------|---------------------------------------|
E|---------------------------------------|-------------------------------------|---------------------------------------|


E|----------------------7--8-------7---|---------------------------------------|----------------------7--8-------7---|
B|-----10-10-10--10--10--------8-------|-----10-10-10--8---10-8------8---------|-----10-10-10--10--10--------8-------|
G|-------------------------------------|-------------------------10-----10-9---|-------------------------------------|
D|-------------------------------------|---------------------------------------|-------------------------------------|
A|-------------------------------------|---------------------------------------|-------------------------------------|
E|-------------------------------------|---------------------------------------|-------------------------------------|


E|---------------------------------------|----------------------7--8-------7---|---------------------------------------|
B|-----10-10-10--8---10-8------8---------|-----10-10-10--10--10--------8-------|-----10-10-10--8---10-8------8---------|
G|-------------------------10-----10-9---|-------------------------------------|-------------------------10-----10-9---|
D|---------------------------------------|-------------------------------------|---------------------------------------|
A|---------------------------------------|-------------------------------------|---------------------------------------|
E|---------------------------------------|-------------------------------------|---------------------------------------|


E|---------------------------------------------|-------------------------------|-----------------|
B|-10-8----------------------------------------|-------------------------------|-----------------|
G|-------10-9--7---10-9--7--6------9--7--6-----|-----7--6----------------------|-----------------|
D|-----------------------------8------------8--|-7---------8--7--5--------7----|-7---------------|
A|---------------------------------------------|---------------------7---------|-----------------|
E|---------------------------------------------|-------------------------------|-----------------|


E|--------|
B|--------|
G|--------|
D|--------|
A|--------|
E|--------|





Track 4: Guitar 3

E|--------|--------|--------|--------|--------|--------|--------|--------|--------|
B|--------|--------|--------|--------|--------|--------|--------|--------|--------|
G|--------|--------|--------|--------|--------|--------|--------|--------|--------|
D|--------|--------|--------|--------|--------|--------|--------|--------|--------|
A|--------|--------|--------|--------|--------|--------|--------|--------|--------|
E|--------|--------|--------|--------|--------|--------|--------|--------|--------|


E|--------|--------|--------|--------|--------|--------|--------|--------|--------|
B|--------|--------|--------|--------|--------|--------|--------|--------|--------|
G|--------|--------|--------|--------|--------|--------|--------|--------|--------|
D|--------|--------|--------|--------|--------|--------|--------|--------|--------|
A|--------|--------|--------|--------|--------|--------|--------|--------|--------|
E|--------|--------|--------|--------|--------|--------|--------|--------|--------|


E|--------|--------|--------|--------|--------|--------|--------|--------|--------|
B|--------|--------|--------|--------|--------|--------|--------|--------|--------|
G|--------|--------|--------|--------|--------|--------|--------|--------|--------|
D|--------|--------|--------|--------|--------|--------|--------|--------|--------|
A|--------|--------|--------|--------|--------|--------|--------|--------|--------|
E|--------|--------|--------|--------|--------|--------|--------|--------|--------|


E|--------|--------|--------|--------|--------|--------|--------|--------|-----------------|
B|--------|--------|--------|--------|--------|--------|--------|--------|-----------------|
G|--------|--------|--------|--------|--------|-2------|--------|--------|-7-----5----4----|
D|--------|--------|--------|--------|--------|-2------|-4------|-5------|-7-----5----4----|
A|--------|--------|--------|--------|--------|-0------|-2------|-3------|-5-----3----2----|
E|--------|--------|--------|--------|--------|--------|-2------|-3------|-----------------|


E|--------|--------|--------|-----------------|--------|--------|--------|-----------------|
B|--------|--------|--------|-----------------|--------|--------|--------|-----------------|
G|-2------|--------|--------|-7-----5----4----|-2------|--------|--------|-7-----5----4----|
D|-2------|-4------|-5------|-7-----5----4----|-2------|-4------|-5------|-7-----5----4----|
A|-0------|-2------|-3------|-5-----3----2----|-0------|-2------|-3------|-5-----3----2----|
E|--------|-2------|-3------|-----------------|--------|-2------|-3------|-----------------|


E|--------|--------|---------------------------|------------------------|--------|
B|--------|--------|---------------------------|------------------------|--------|
G|-2------|--------|---------------------------|------------------------|-2------|
D|-2------|-4------|---------------------------|-------------------4----|-2------|
A|-0------|-2------|-7--------3--------2-------|-----5--------2----2----|-0------|
E|--------|-2------|-5--------1--------0-------|-----3--------0---------|--------|


E|--------|--------|--------|--------|--------|--------|--------|--------|--------|
B|--------|--------|--------|--------|--------|--------|--------|--------|--------|
G|-2------|--------|--------|--------|--------|--------|--------|--------|--------|
D|-2------|--------|--------|--------|--------|--------|--------|--------|--------|
A|-0------|--------|--------|--------|--------|--------|--------|--------|--------|
E|--------|--------|--------|--------|--------|--------|--------|--------|--------|


E|--------|--------|--------|--------|--------|--------|--------|--------|--------|
B|--------|--------|--------|--------|--------|--------|--------|--------|--------|
G|--------|--------|--------|--------|--------|--------|--------|--------|--------|
D|--------|--------|--------|--------|--------|--------|--------|--------|--------|
A|--------|--------|--------|--------|--------|--------|--------|--------|--------|
E|--------|--------|--------|--------|--------|--------|--------|--------|--------|


E|--------|--------|--------|--------|--------|--------|-----------------|--------|
B|--------|--------|--------|--------|--------|--------|-----------------|--------|
G|--------|--------|--------|-2------|--------|--------|-7-----5----4----|-2------|
D|--------|--------|--------|-2------|-4------|-5------|-7-----5----4----|-2------|
A|--------|--------|--------|-0------|-2------|-3------|-5-----3----2----|-0------|
E|--------|--------|--------|--------|-2------|-3------|-----------------|--------|


E|--------|--------|-----------------|--------|--------|--------|-----------------|
B|--------|--------|-----------------|--------|--------|--------|-----------------|
G|--------|--------|-7-----5----4----|-2------|--------|--------|-7-----5----4----|
D|-4------|-5------|-7-----5----4----|-2------|-4------|-5------|-7-----5----4----|
A|-2------|-3------|-5-----3----2----|-0------|-2------|-3------|-5-----3----2----|
E|-2------|-3------|-----------------|--------|-2------|-3------|-----------------|


E|--------|--------|---------------------------|------------------------|------------------------|
B|--------|--------|---------------------------|------------------------|-5---5-----7---7----7---|
G|-2------|--------|---------------------------|------------------------|-5---5-----7---7----7---|
D|-2------|-4------|---------------------------|-------------------4----|------------------------|
A|-0------|-2------|-7--------3--------2-------|-----5--------2----2----|------------------------|
E|--------|-2------|-5--------1--------0-------|-----3--------0---------|------------------------|


E|------------------------|------------------------|------------------------|------------------------|
B|-5---5-----7---7----7---|-5---5-----7---7----7---|-5---5-----7---7----7---|-5---5-----7---7----7---|
G|-5---5-----7---7----7---|-5---5-----7---7----7---|-5---5-----7---7----7---|-5---5-----7---7----7---|
D|------------------------|------------------------|------------------------|------------------------|
A|------------------------|------------------------|------------------------|------------------------|
E|------------------------|------------------------|------------------------|------------------------|


E|------------------------|------------------------|---------------------|--------|
B|-5---5-----7---7----7---|-5---5-----7---7----5---|-7----7----7-----5---|--------|
G|-5---5-----7---7----7---|-5---5-----7---7----5---|-7----7----7-----5---|--------|
D|------------------------|------------------------|---------------------|--------|
A|------------------------|------------------------|---------------------|--------|
E|------------------------|------------------------|---------------------|--------|


E|--------|--------|--------|--------|--------|--------|--------|-------------|--------|
B|--------|--------|--------|--------|--------|--------|--------|-------------|--------|
G|--------|--------|--------|--------|--------|--------|--------|-2-----------|-10-----|
D|--------|--------|--------|--------|--------|--------|--------|-2-----------|-10-----|
A|--------|--------|--------|--------|--------|--------|--------|-0------3----|-8------|
E|--------|--------|--------|--------|--------|--------|--------|-------------|--------|


E|--------|-------------|-------------|--------|--------|-------------|-------------|
B|--------|-------------|-------------|--------|--------|-------------|-------------|
G|-7------|-------9-----|-2-----------|-10-----|-7------|-------9-----|-2-----------|
D|-7------|-5-----9-----|-2-----------|-10-----|-7------|-5-----9-----|-2-----------|
A|-5------|-5-----7-----|-0------3----|-8------|-5------|-5-----7-----|-0------3----|
E|--------|-3-----------|-------------|--------|--------|-3-----------|-------------|


E|--------|--------|-------------|-------------|--------|--------|-------------|--------|
B|--------|--------|-------------|-------------|--------|--------|-------------|--------|
G|-10-----|-7------|-------9-----|-2-----------|-10-----|-7------|-------9-----|-2------|
D|-10-----|-7------|-5-----9-----|-2-----------|-10-----|-7------|-5-----9-----|-2------|
A|-8------|-5------|-5-----7-----|-0------3----|-8------|-5------|-5-----7-----|-0------|
E|--------|--------|-3-----------|-------------|--------|--------|-3-----------|--------|


E|--------|--------|-----------------|--------|--------|--------|-----------------|
B|--------|--------|-----------------|--------|--------|--------|-----------------|
G|--------|--------|-7-----5----4----|-2------|--------|--------|-7-----5----4----|
D|-4------|-5------|-7-----5----4----|-2------|-4------|-5------|-7-----5----4----|
A|-2------|-3------|-5-----3----2----|-0------|-2------|-3------|-5-----3----2----|
E|-2------|-3------|-----------------|--------|-2------|-3------|-----------------|


E|--------|--------|--------|-----------------|--------|--------|---------------------------|
B|--------|--------|--------|-----------------|--------|--------|---------------------------|
G|-2------|--------|--------|-7-----5----4----|-2------|--------|---------------------------|
D|-2------|-4------|-5------|-7-----5----4----|-2------|-4------|---------------------------|
A|-0------|-2------|-3------|-5-----3----2----|-0------|-2------|-7--------3--------2-------|
E|--------|-2------|-3------|-----------------|--------|-2------|-5--------1--------0-------|


E|------------------------|-------------|--------|
B|------------------------|-------------|--------|
G|------------------------|-2-----------|--------|
D|-------------------4----|-2-----------|--------|
A|-----5--------2----2----|-0-----------|--------|
E|-----3--------0---------|-------------|--------|





Track 5: Bass

G|----------------|----------------|---------------------------------|------------------------------|
D|----------------|-3--------------|---------------------------------|---------3---2---2------------|
A|-0------2---3---|--------2---3---|-------------------------2---3---|----------------------3---0---|
E|----------------|----------------|-3---3---3---3---3---3-----------|-3---3------------------------|


G|---------------------------------|---------------------------------|---------------------------------|
D|---------------------------------|---------------------------------|---------------------------------|
A|-----0---0---0---0---0---2---3---|-8---8---8---8---8---8---8---8---|-5---5---5---5---5---5---5---5---|
E|---------------------------------|---------------------------------|---------------------------------|


G|---------------------------------|-----------------------------------|-----------------------------------|
D|---------------------------------|-------------------------------7---|-----------------------------------|
A|-----------------7---7---7---7---|-0---0---0---0---0---3---5--7------|-8---8---8---8---8---8---7--8--7---|
E|-3---3---3---3-------------------|-----------------------------------|-----------------------------------|


G|-----------------------------------|---------------------------------|---------------------------------|
D|-------------------------------2---|---------------------------------|---------------------------------|
A|-5---5---5---5---5---5---3--5------|-----------------7---7---7---7---|-0---0---0---0---0---0---0---0---|
E|-----------------------------------|-3---3---3---3-------------------|---------------------------------|


G|---------------------------------|---------------------------------|---------------------------------|
D|---------------------------------|---------------------------------|---------------------------------|
A|-8---8---8---8---8---8---8---8---|-5---5---5---5---5---5---5---5---|-----------------7---7---7---7---|
E|---------------------------------|---------------------------------|-3---3---3---3-------------------|


G|---------------------------------|---------------------------------|---------------------------------|
D|---------------------------------|---------------------------------|---------------------------------|
A|-0---0---0---0---0---0---0---0---|-8---8---8---8---8---8---8---8---|-5---5---5---5---5---5---5---5---|
E|---------------------------------|---------------------------------|---------------------------------|


G|---------------------------------|---------------------------------|---------------------------------|
D|---------------------------------|---------------------------------|---------------------------------|
A|-----------------7---7---7---7---|-0---0---0---0---0---0---0---0---|-8---8---8---8---8---8---8---8---|
E|-3---3---3---3-------------------|---------------------------------|---------------------------------|


G|---------------------------------|---------------------------------|---------------------------------|
D|---------------------------------|---------------------------------|---------------------------------|
A|-5---5---5---5---5---5---5---5---|-----------------7---7---7---7---|-0---0---0---0---0---0---0---0---|
E|---------------------------------|-3---3---3---3-------------------|---------------------------------|


G|---------------------------------|---------------------------------|---------------------------------|
D|---------------------------------|---------------------------------|---------------------------------|
A|-8---8---8---8---8---8---8---8---|-5---5---5---5---5---5---5---5---|-----------------7---7---7---7---|
E|---------------------------------|---------------------------------|-3---3---3---3-------------------|


G|----------------|----------------|---------------------------------|------------------------------|
D|----------------|-3--------------|---------------------------------|---------3---2---2------------|
A|-0------2---3---|--------2---3---|-------------------------2---3---|----------------------3---0---|
E|----------------|----------------|-3---3---3---3---3---3-----------|-3---3------------------------|


G|---------------------------------|---------------------------------|---------------------------------|
D|---------------------------------|---------------------------------|---------------------------------|
A|-0---0---0---0---0---0---0---0---|-2---2---2---2---2---2---2---2---|-3---3---3---3---3---3---3---3---|
E|---------------------------------|---------------------------------|---------------------------------|


G|---------------------------------|---------------------------------|---------------------------------|
D|---------------------------------|---------------------------------|---------------------------------|
A|-5---5---5---5---3---3---2---2---|-0---0---0---0---0---0---0---0---|-2---2---2---2---2---2---2---2---|
E|---------------------------------|---------------------------------|---------------------------------|


G|---------------------------------|---------------------------------|---------------------------------|
D|---------------------------------|---------------------------------|---------------------------------|
A|-3---3---3---3---3---3---3---3---|-5---5---5---5---3---3---2---2---|-0---0---0---0---0---0---0---0---|
E|---------------------------------|---------------------------------|---------------------------------|


G|---------------------------------|---------------------------------|---------------------------------|
D|---------------------------------|---------------------------------|---------------------------------|
A|-2---2---2---2---2---2---2---2---|-3---3---3---3---3---3---3---3---|-5---5---5---5---3---3---2---2---|
E|---------------------------------|---------------------------------|---------------------------------|


G|---------------------------------|---------------------------------|---------------------------|
D|---------------------------------|---------------------------------|---------------------------|
A|-0---0---0---0---0---0---0---0---|-2---2---2---2---2---2---2---2---|---------------------------|
E|---------------------------------|---------------------------------|-5--------1--------0-------|


G|------------------------|--------|--------|---------------------------------|---------------------------------|
D|------------------------|--------|--------|---------------------------------|---------------------------------|
A|-------------------2----|-0------|-0------|-0---0---0---0---0---0---0---0---|-8---8---8---8---8---8---8---8---|
E|-----3--------0---------|--------|--------|---------------------------------|---------------------------------|


G|---------------------------------|---------------------------------|---------------------------------|
D|---------------------------------|---------------------------------|---------------------------------|
A|-5---5---5---5---5---5---5---5---|-----------------7---7---7---7---|-0---0---0---0---0---0---0---0---|
E|---------------------------------|-3---3---3---3-------------------|---------------------------------|


G|---------------------------------|---------------------------------|---------------------------------|
D|---------------------------------|---------------------------------|---------------------------------|
A|-8---8---8---8---8---8---8---8---|-5---5---5---5---5---5---5---5---|-----------------7---7---7---7---|
E|---------------------------------|---------------------------------|-3---3---3---3-------------------|


G|---------------------------------|---------------------------------|---------------------------------|
D|---------------------------------|---------------------------------|---------------------------------|
A|-0---0---0---0---0---0---0---0---|-8---8---8---8---8---8---8---8---|-5---5---5---5---5---5---5---5---|
E|---------------------------------|---------------------------------|---------------------------------|


G|---------------------------------|---------------------------------|---------------------------------|
D|---------------------------------|---------------------------------|---------------------------------|
A|-----------------7---7---7---7---|-0---0---0---0---0---0---0---0---|-8---8---8---8---8---8---8---8---|
E|-3---3---3---3-------------------|---------------------------------|---------------------------------|


G|---------------------------------|---------------------------------|----------------|
D|---------------------------------|---------------------------------|----------------|
A|-5---5---5---5---5---5---5---5---|-----------------7---7---7---7---|-0------2---3---|
E|---------------------------------|-3---3---3---3-------------------|----------------|


G|----------------|---------------------------------|------------------------------|
D|-3--------------|---------------------------------|---------3---2---2------------|
A|--------2---3---|-------------------------2---3---|----------------------3---0---|
E|----------------|-3---3---3---3---3---3-----------|-3---3------------------------|


G|---------------------------------|---------------------------------|---------------------------------|
D|---------------------------------|---------------------------------|---------------------------------|
A|-0---0---0---0---0---0---0---0---|-2---2---2---2---2---2---2---2---|-3---3---3---3---3---3---3---3---|
E|---------------------------------|---------------------------------|---------------------------------|


G|---------------------------------|---------------------------------|---------------------------------|
D|---------------------------------|---------------------------------|---------------------------------|
A|-5---5---5---5---3---3---2---2---|-0---0---0---0---0---0---0---0---|-2---2---2---2---2---2---2---2---|
E|---------------------------------|---------------------------------|---------------------------------|


G|---------------------------------|---------------------------------|---------------------------------|
D|---------------------------------|---------------------------------|---------------------------------|
A|-3---3---3---3---3---3---3---3---|-5---5---5---5---3---3---2---2---|-0---0---0---0---0---0---0---0---|
E|---------------------------------|---------------------------------|---------------------------------|


G|---------------------------------|---------------------------------|---------------------------------|
D|---------------------------------|---------------------------------|---------------------------------|
A|-2---2---2---2---2---2---2---2---|-3---3---3---3---3---3---3---3---|-5---5---5---5---3---3---2---2---|
E|---------------------------------|---------------------------------|---------------------------------|


G|---------------------------------|---------------------------------|---------------------------|
D|---------------------------------|---------------------------------|---------------------------|
A|-0---0---0---0---0---0---0---0---|-2---2---2---2---2---2---2---2---|---------------------------|
E|---------------------------------|---------------------------------|-5--------1--------0-------|


G|------------------------|--------|----------------|--------|--------|--------|----------------|
D|------------------------|--------|----------------|--------|--------|--------|----------------|
A|-------------------2----|-0------|-0------3---5---|-0------|-0------|-0------|-0------3---5---|
E|-----3--------0---------|--------|----------------|--------|--------|--------|----------------|


G|--------|--------|--------|--------|--------|-------------|--------|--------|------------|
D|--------|--------|--------|--------|--------|-------------|--------|--------|------------|
A|-0------|-0------|-0------|--------|--------|-------------|-0------|-2------|-3----------|
E|--------|--------|--------|-3------|-2------|-1------3----|--------|--------|------------|


G|--------|---------------------------------|---------------------------------|---------------------------------|
D|--------|---------------------------------|---------------------------------|---------------------------------|
A|--------|-0---0---0---0---0---0---0---0---|-8---8---8---8---8---8---8---8---|-5---5---5---5---5---5---5---5---|
E|-0------|---------------------------------|---------------------------------|---------------------------------|


G|---------------------------------|---------------------------------|---------------------------------|
D|---------------------------------|---------------------------------|---------------------------------|
A|-----------------7---7---7---7---|-0---0---0---0---0---0---0---0---|-8---8---8---8---8---8---8---8---|
E|-3---3---3---3-------------------|---------------------------------|---------------------------------|


G|---------------------------------|---------------------------------|---------------------------------|
D|---------------------------------|---------------------------------|---------------------------------|
A|-5---5---5---5---5---5---5---5---|-----------------7---7---7---7---|-0---0---0---0---0---0---0---0---|
E|---------------------------------|-3---3---3---3-------------------|---------------------------------|


G|---------------------------------|---------------------------------|---------------------------------|
D|---------------------------------|---------------------------------|---------------------------------|
A|-8---8---8---8---8---8---8---8---|-5---5---5---5---5---5---5---5---|-----------------7---7---7---7---|
E|---------------------------------|---------------------------------|-3---3---3---3-------------------|


G|---------------------------------|---------------------------------|---------------------------------|
D|---------------------------------|---------------------------------|---------------------------------|
A|-0---0---0---0---0---0---0---0---|-8---8---8---8---8---8---8---8---|-5---5---5---5---5---5---5---5---|
E|---------------------------------|---------------------------------|---------------------------------|


G|---------------------------------|---------------------------------|---------------------------------|
D|---------------------------------|---------------------------------|---------------------------------|
A|-----------------7---7---7---7---|-0---0---0---0---0---0---0---0---|-2---2---2---2---2---2---2---2---|
E|-3---3---3---3-------------------|---------------------------------|---------------------------------|


G|---------------------------------|---------------------------------|---------------------------------|
D|---------------------------------|---------------------------------|---------------------------------|
A|-3---3---3---3---3---3---3---3---|-5---5---5---5---3---3---2---2---|-0---0---0---0---0---0---0---0---|
E|---------------------------------|---------------------------------|---------------------------------|


G|---------------------------------|---------------------------------|---------------------------------|
D|---------------------------------|---------------------------------|---------------------------------|
A|-2---2---2---2---2---2---2---2---|-3---3---3---3---3---3---3---3---|-5---5---5---5---3---3---2---2---|
E|---------------------------------|---------------------------------|---------------------------------|


G|---------------------------------|---------------------------------|---------------------------------|
D|---------------------------------|---------------------------------|---------------------------------|
A|-0---0---0---0---0---0---0---0---|-2---2---2---2---2---2---2---2---|-3---3---3---3---3---3---3---3---|
E|---------------------------------|---------------------------------|---------------------------------|


G|---------------------------------|---------------------------------|---------------------------------|
D|---------------------------------|---------------------------------|---------------------------------|
A|-5---5---5---5---3---3---2---2---|-0---0---0---0---0---0---0---0---|-2---2---2---2---2---2---2---2---|
E|---------------------------------|---------------------------------|---------------------------------|


G|---------------------------|------------------------|-----------------|--------|
D|---------------------------|------------------------|-----------------|--------|
A|---------------------------|-------------------2----|-0---------------|--------|
E|-5--------1--------0-------|-----3--------0---------|-----------------|--------|