Menu:

 

Search:

 

megadeth - coming home:

 



Title: Coming Home
Artist: 
Album: 
Author: Dave Mustaine


Track 1: Dave Mustaine Acoustic

E|---------------------------------|---------------------------------|---------------------------------|
B|-------------0---------------0---|-------------0---------------0---|-------------0---------------0---|
G|---------0---------------0-------|---------0---------------0-------|---------0---------------0-------|
D|-----5---------------5-----------|-----5---------------5-----------|-----5---------------5-----------|
A|-10--------------10--------------|-9---------------9---------------|-7---------------7---------------|
E|---------------------------------|---------------------------------|---------------------------------|


E|---------------------------------|---------------------------------|---------------------------------|
B|-------------0---------------0---|-------------0---------------0---|-------------0---------------0---|
G|---------0---------------0-------|---------0---------------0-------|---------0---------------0-------|
D|-----5---------------5-----------|-----5---------------5-----------|-----5---------------5-----------|
A|-9---------------9---------------|-10--------------10--------------|-9---------------9---------------|
E|---------------------------------|---------------------------------|---------------------------------|


E|---------------------------------|---------------------------------|---------------------------------|
B|-------------0---------------0---|-------------0---------------0---|-------------0---------------0---|
G|---------0---------------0-------|---------0---------------0-------|---------0---------------0-------|
D|-----5---------------5-----------|-----5---------------5-----------|-----5---------------5-----------|
A|-7---------------7---------------|-6---------------6---------------|-10--------------10--------------|
E|---------------------------------|---------------------------------|---------------------------------|


E|---------------------------------|---------------------------------|---------------------------------|
B|-------------0---------------0---|-------------0---------------0---|-------------0---------------0---|
G|---------0---------------0-------|---------0---------------0-------|---------0---------------0-------|
D|-----5---------------5-----------|-----5---------------5-----------|-----5---------------5-----------|
A|-9---------------9---------------|-7---------------7---------------|-9---------------9---------------|
E|---------------------------------|---------------------------------|---------------------------------|


E|---------------------------------|---------------------------------|---------------------------------|
B|-------------0---------------0---|-------------0---------------0---|-------------0---------------0---|
G|---------0---------------0-------|---------0---------------0-------|---------0---------------0-------|
D|-----5---------------5-----------|-----5---------------5-----------|-----5---------------5-----------|
A|-10--------------10--------------|-9---------------9---------------|-7---------------7---------------|
E|---------------------------------|---------------------------------|---------------------------------|


E|---------------------------------|---------------------------------|---------------------------------|
B|-------------0---------------0---|-------------0---------------0---|-------------0---------------0---|
G|---------0---------------0-------|---------0---------------0-------|---------0---------------0-------|
D|-----5---------------5-----------|-----5---------------5-----------|-----5---------------5-----------|
A|-6---------------6---------------|-10--------------10--------------|-9---------------9---------------|
E|---------------------------------|---------------------------------|---------------------------------|


E|---------------------------------|---------------------------------|---------------------------------|
B|-------------0---------------0---|-------------0---------------0---|-------------0---------------0---|
G|---------0---------------0-------|---------0---------------0-------|---------0---------------0-------|
D|-----5---------------5-----------|-----5---------------5-----------|-----5---------------5-----------|
A|-7---------------7---------------|-9---------------9---------------|-10--------------10--------------|
E|---------------------------------|---------------------------------|---------------------------------|


E|---------------------------------|---------------------------------|---------------------------------|
B|-------------0---------------0---|-------------0---------------0---|-------------0---------------0---|
G|---------0---------------0-------|---------0---------------0-------|---------0---------------0-------|
D|-----5---------------5-----------|-----5---------------5-----------|-----5---------------5-----------|
A|-9---------------9---------------|-7---------------7---------------|-6---------------6---------------|
E|---------------------------------|---------------------------------|---------------------------------|


E|---------------------------------|---------------------------------|---------------------------------|
B|-------------0---------------0---|-------------0---------------0---|-------------0---------------0---|
G|---------0---------------0-------|---------0---------------0-------|---------0---------------0-------|
D|-----5---------------5-----------|-----5---------------5-----------|-----5---------------5-----------|
A|-10--------------10--------------|-9---------------9---------------|-7---------------7---------------|
E|---------------------------------|---------------------------------|---------------------------------|


E|---------------------------------|---------------------------------|---------------------------------|
B|-------------0---------------0---|-------------0---------------0---|-------------0---------------0---|
G|---------0---------------0-------|---------0---------------0-------|---------0---------------0-------|
D|-----5---------------5-----------|-----5---------------5-----------|-----5---------------5-----------|
A|-9---------------9---------------|-10--------------10--------------|-9---------------9---------------|
E|---------------------------------|---------------------------------|---------------------------------|


E|---------------------------------|---------------------------------|---------------------------|
B|-------------0---------------0---|-------------0---------------0---|-------------0-------------|
G|---------0---------------0-------|---------0---------------0-------|---------2--------2--------|
D|-----5---------------5-----------|-----5---------------5-----------|-----1-----------------1---|
A|-7---------------7---------------|-6---------------6---------------|-3-------------------------|
E|---------------------------------|---------------------------------|---------------------------|


E|---------------------------|-------------3----------------|-------------2----------------|
B|-------------0-------------|------------------0-------0---|------------------0-------0---|
G|---------2--------2--------|----------------------0-------|----------------------0-------|
D|-----1-----------------1---|---------0--------------------|---------0--------------------|
A|-3-------------------------|-----2------------------------|-----0------------------------|
E|---------------------------|-3----------------------------|-2----------------------------|


E|-------------1----------------|-------------0----------------|---------------------------|
B|------------------0-------0---|------------------0-------0---|-------------0-------------|
G|----------------------0-------|----------------------1-------|---------2--------2--------|
D|---------0--------------------|---------2--------------------|-----1-----------------1---|
A|-----0------------------------|-----2------------------------|-3-------------------------|
E|-1----------------------------|-0----------------------------|---------------------------|


E|---------------------------|---------------------------------|---------------------------------|
B|-------------0-------------|-------------0---------------0---|-------------0---------------0---|
G|---------2--------2--------|---------0---------------0-------|---------0---------------0-------|
D|-----1-----------------1---|-----5---------------5-----------|-----5---------------5-----------|
A|-3-------------------------|-10--------------10--------------|-9---------------9---------------|
E|---------------------------|---------------------------------|---------------------------------|


E|---------------------------------|---------------------------------|---------------------------------|
B|-------------0---------------0---|-------------0---------------0---|-------------0---------------0---|
G|---------0---------------0-------|---------0---------------0-------|---------0---------------0-------|
D|-----5---------------5-----------|-----5---------------5-----------|-----5---------------5-----------|
A|-7---------------7---------------|-9---------------9---------------|-10--------------10--------------|
E|---------------------------------|---------------------------------|---------------------------------|


E|---------------------------------|---------------------------------|---------------------------------|
B|-------------0---------------0---|-------------0---------------0---|-------------0---------------0---|
G|---------0---------------0-------|---------0---------------0-------|---------0---------------0-------|
D|-----5---------------5-----------|-----5---------------5-----------|-----5---------------5-----------|
A|-9---------------9---------------|-7---------------7---------------|-6---------------6---------------|
E|---------------------------------|---------------------------------|---------------------------------|


E|---------------------------------|---------------------------------|---------------------------------|
B|-------------0---------------0---|-------------0---------------0---|-------------0---------------0---|
G|---------0---------------0-------|---------0---------------0-------|---------0---------------0-------|
D|-----5---------------5-----------|-----5---------------5-----------|-----5---------------5-----------|
A|-10--------------10--------------|-9---------------9---------------|-7---------------7---------------|
E|---------------------------------|---------------------------------|---------------------------------|


E|---------------------------------|---------------------------------|---------------------------------|
B|-------------0---------------0---|-------------0---------------0---|-------------0---------------0---|
G|---------0---------------0-------|---------0---------------0-------|---------0---------------0-------|
D|-----5---------------5-----------|-----5---------------5-----------|-----5---------------5-----------|
A|-9---------------9---------------|-10--------------10--------------|-9---------------9---------------|
E|---------------------------------|---------------------------------|---------------------------------|


E|---------------------------------|---------------------------------|---------------------------------|
B|-------------0---------------0---|-------------0---------------0---|-------------0---------------0---|
G|---------0---------------0-------|---------0---------------0-------|---------0---------------0-------|
D|-----5---------------5-----------|-----5---------------5-----------|-----5---------------5-----------|
A|-7---------------7---------------|-6---------------6---------------|-10--------------10--------------|
E|---------------------------------|---------------------------------|---------------------------------|


E|---------------------------------|---------------------------------|---------------------------------|
B|-------------0---------------0---|-------------0---------------0---|-------------0---------------0---|
G|---------0---------------0-------|---------0---------------0-------|---------0---------------0-------|
D|-----5---------------5-----------|-----5---------------5-----------|-----5---------------5-----------|
A|-9---------------9---------------|-7---------------7---------------|-9---------------9---------------|
E|---------------------------------|---------------------------------|---------------------------------|


E|---------------------------------|---------------------------------|---------------------------------|
B|-------------0---------------0---|-------------0---------------0---|-------------0---------------0---|
G|---------0---------------0-------|---------0---------------0-------|---------0---------------0-------|
D|-----5---------------5-----------|-----5---------------5-----------|-----5---------------5-----------|
A|-10--------------10--------------|-9---------------9---------------|-7---------------7---------------|
E|---------------------------------|---------------------------------|---------------------------------|


E|---------------------------------|---------------------------|---------------------------|
B|-------------0---------------0---|-------------0-------------|-------------0-------------|
G|---------0---------------0-------|---------2--------2--------|---------2--------2--------|
D|-----5---------------5-----------|-----1-----------------1---|-----1-----------------1---|
A|-6---------------6---------------|-3-------------------------|-3-------------------------|
E|---------------------------------|---------------------------|---------------------------|


E|-------------3----------------|-------------2----------------|-------------1----------------|
B|------------------0-------0---|------------------0-------0---|------------------0-------0---|
G|----------------------0-------|----------------------0-------|----------------------0-------|
D|---------0--------------------|---------0--------------------|---------0--------------------|
A|-----2------------------------|-----0------------------------|-----0------------------------|
E|-3----------------------------|-2----------------------------|-1----------------------------|


E|-------------0----------------|---------------------------|---------------------------|
B|------------------0-------0---|-------------0-------------|-------------0-------------|
G|----------------------1-------|---------2--------2--------|---------2--------2--------|
D|---------2--------------------|-----1-----------------1---|-----1-----------------1---|
A|-----2------------------------|-3-------------------------|-3-------------------------|
E|-0----------------------------|---------------------------|---------------------------|


E|--------|--------|
B|--------|--------|
G|--------|--------|
D|--------|--------|
A|--------|--------|
E|-3------|-3------|





Track 2: Al Pitrelli

E|--------|--------|--------|--------|--------|--------|--------|--------|--------|
B|--------|--------|--------|--------|--------|--------|--------|--------|--------|
G|--------|--------|--------|--------|--------|--------|--------|--------|--------|
D|--------|--------|--------|--------|--------|--------|--------|--------|-5------|
A|--------|--------|--------|--------|--------|--------|--------|--------|--------|
E|--------|--------|--------|--------|--------|--------|--------|--------|--------|


E|------------|--------|------------|------------|-8---7---------------------------|
B|------------|--------|------------|-8----------|---------10--8---7-------7---10--|
G|------------|--------|--------7---|--------7---|---------------------9-----------|
D|-5------7---|-5------|-5----------|------------|---------------------------------|
A|------------|--------|------------|------------|---------------------------------|
E|------------|--------|------------|------------|---------------------------------|


E|------------|------------|--------|--------|--------|--------|--------|--------|
B|-8----------|------------|--------|--------|--------|--------|--------|--------|
G|--------7---|-8----------|--------|--------|--------|--------|--------|--------|
D|------------|--------7---|--------|--------|--------|--------|--------|--------|
A|------------|------------|--------|--------|--------|--------|--------|--------|
E|------------|------------|--------|--------|--------|--------|--------|--------|


E|--------|--------|--------|--------|--------|--------|--------|--------|--------|
B|--------|--------|--------|--------|--------|--------|--------|--------|--------|
G|--------|--------|--------|--------|--------|--------|--------|--------|--------|
D|--------|--------|--------|--------|--------|--------|--------|--------|--------|
A|--------|--------|--------|--------|--------|--------|--------|--------|--------|
E|--------|--------|--------|--------|--------|--------|--------|--------|--------|


E|--------|--------|--------|--------|--------|--------|--------|--------|--------|
B|--------|--------|--------|--------|--------|--------|--------|--------|--------|
G|--------|--------|--------|--------|--------|--------|--------|--------|--------|
D|--------|--------|--------|--------|--------|--------|--------|--------|--------|
A|--------|--------|--------|--------|--------|--------|--------|--------|--------|
E|--------|--------|--------|--------|--------|--------|--------|--------|--------|


E|--------|--------|--------|--------|--------|--------|--------|--------|--------|
B|--------|--------|--------|--------|--------|--------|--------|--------|--------|
G|--------|--------|--------|--------|--------|--------|--------|--------|--------|
D|--------|--------|--------|--------|--------|--------|--------|--------|--------|
A|--------|--------|--------|--------|--------|--------|--------|--------|--------|
E|--------|--------|--------|--------|--------|--------|--------|--------|--------|


E|-----------------------|--------|------------------------------------|--------------------|
B|-------------------15--|--------|-------------17--15--12-------------|--------------------|
G|-----------14--14------|-14-----|-14--12--12--------------15--14-12--|-------14-12-----12-|
D|-----------------------|--------|------------------------------------|-14-12--------------|
A|-----------------------|--------|------------------------------------|--------------------|
E|-----------------------|--------|------------------------------------|--------------------|


E|------------|---------------------------|---------------------------|----------------|
B|------------|-15---15--12-----------13--|-13---13--15--12---12--12--|----------------|
G|-12-----12--|---------------14--12------|---------------------------|-12-----14--16--|
D|------------|---------------------------|---------------------------|----------------|
A|------------|---------------------------|---------------------------|----------------|
E|------------|---------------------------|---------------------------|----------------|


E|----------------|----------------|----------------|--------|--------|--------|--------|
B|----------------|----------------|----------------|--------|--------|--------|--------|
G|-11-----14--16--|-9------14--16--|-11-----14--16--|-12-----|-12-----|-12-----|-12-----|
D|----------------|----------------|----------------|--------|--------|--------|--------|
A|----------------|----------------|----------------|--------|--------|--------|--------|
E|----------------|----------------|----------------|--------|--------|--------|--------|


E|--------|--------|--------|--------|--------|--------|--------|--------|--------|
B|--------|--------|--------|--------|--------|--------|--------|--------|--------|
G|--------|--------|--------|--------|--------|--------|--------|--------|--------|
D|--------|--------|--------|--------|--------|--------|--------|--------|--------|
A|--------|--------|--------|--------|--------|--------|--------|--------|--------|
E|--------|--------|--------|--------|--------|--------|--------|--------|--------|


E|--------|
B|--------|
G|--------|
D|--------|
A|--------|
E|--------|





Track 3: Acoustic Solo Guitar

E|--------|--------|--------|--------|--------|--------|--------|--------|--------|
B|--------|--------|--------|--------|--------|--------|--------|--------|--------|
G|--------|--------|--------|--------|--------|--------|--------|--------|--------|
D|--------|--------|--------|--------|--------|--------|--------|--------|--------|
A|--------|--------|--------|--------|--------|--------|--------|--------|--------|
E|--------|--------|--------|--------|--------|--------|--------|--------|--------|


E|--------|--------|--------|--------|--------|--------|--------|--------|--------|
B|--------|--------|--------|--------|--------|--------|--------|--------|--------|
G|--------|--------|--------|--------|--------|--------|--------|--------|--------|
D|--------|--------|--------|--------|--------|--------|--------|--------|--------|
A|--------|--------|--------|--------|--------|--------|--------|--------|--------|
E|--------|--------|--------|--------|--------|--------|--------|--------|--------|


E|--------|--------|--------|--------|--------|--------|--------|--------|--------|
B|--------|--------|--------|--------|--------|--------|--------|--------|--------|
G|--------|--------|--------|--------|--------|--------|--------|--------|--------|
D|--------|--------|--------|--------|--------|--------|--------|--------|--------|
A|--------|--------|--------|--------|--------|--------|--------|--------|--------|
E|--------|--------|--------|--------|--------|--------|--------|--------|--------|


E|--------|--------|--------|--------|--------|--------|--------|--------|--------|
B|--------|--------|--------|--------|--------|--------|--------|--------|--------|
G|--------|--------|--------|--------|--------|--------|--------|--------|--------|
D|--------|--------|--------|--------|--------|--------|--------|--------|--------|
A|--------|--------|--------|--------|--------|--------|--------|--------|--------|
E|--------|--------|--------|--------|--------|--------|--------|--------|--------|


E|--------|--------|--------|--------|----------------|--------|-----------------------------|
B|--------|--------|--------|--------|----------------|--------|-----------------------------|
G|--------|--------|--------|--------|----------------|--------|-----------------------------|
D|--------|--------|--------|--------|--------7---9---|--------|-12-14---12--12-7----5----5--|
A|--------|--------|--------|--------|-10-------------|-9------|-----------------------------|
E|--------|--------|--------|--------|----------------|--------|-----------------------------|


E|-------------------------------|----------------|------------|--------|-----------------7-----------|
B|-------------------------------|----------------|------------|--------|-----------8--10-----8-------|
G|-------------------------------|----------------|------------|--------|-------7-----------------7---|
D|-10----10-7--9---7--9---7--9---|--------7---9---|------------|--------|-----------------------------|
A|-------------------------------|-10-------------|-9------5---|-7------|-7---------------------------|
E|-------------------------------|----------------|------------|--------|-----------------------------|


E|--------|--------|--------|--------|--------|--------|--------|--------|--------|
B|--------|--------|--------|--------|--------|--------|--------|--------|--------|
G|--------|--------|--------|--------|--------|--------|--------|--------|--------|
D|--------|--------|--------|--------|--------|--------|--------|--------|--------|
A|--------|--------|--------|--------|--------|--------|--------|--------|--------|
E|--------|--------|--------|--------|--------|--------|--------|--------|--------|


E|--------|--------|--------|--------|--------|--------|--------|--------|--------|
B|--------|--------|--------|--------|--------|--------|--------|--------|--------|
G|--------|--------|--------|--------|--------|--------|--------|--------|--------|
D|--------|--------|--------|--------|--------|--------|--------|--------|--------|
A|--------|--------|--------|--------|--------|--------|--------|--------|--------|
E|--------|--------|--------|--------|--------|--------|--------|--------|--------|


E|--------|--------|--------|--------|--------|--------|--------|--------|
B|--------|--------|--------|--------|--------|--------|--------|--------|
G|--------|--------|--------|--------|--------|--------|--------|--------|
D|--------|--------|--------|--------|--------|--------|--------|--------|
A|--------|--------|--------|--------|--------|--------|--------|--------|
E|--------|--------|--------|--------|--------|--------|--------|--------|





Track 4: Dave Mustaine Acoustic

E|--------|--------|--------|--------|--------|--------|--------|--------|--------|
B|--------|--------|--------|--------|--------|--------|--------|--------|--------|
G|--------|--------|--------|--------|--------|--------|--------|--------|--------|
D|--------|--------|--------|--------|--------|--------|--------|--------|--------|
A|--------|--------|--------|--------|--------|--------|--------|--------|--------|
E|--------|--------|--------|--------|--------|--------|--------|--------|--------|


E|--------|--------|--------|--------|--------|--------|--------|--------|--------|
B|--------|--------|--------|--------|--------|--------|--------|--------|--------|
G|--------|--------|--------|--------|--------|--------|--------|--------|--------|
D|--------|--------|--------|--------|--------|--------|--------|--------|--------|
A|--------|--------|--------|--------|--------|--------|--------|--------|--------|
E|--------|--------|--------|--------|--------|--------|--------|--------|--------|


E|--------|--------|--------|--------|--------|--------|--------|--------|--------|
B|--------|--------|--------|--------|--------|--------|--------|--------|--------|
G|--------|--------|--------|--------|--------|--------|--------|--------|--------|
D|--------|--------|--------|--------|--------|--------|--------|--------|--------|
A|--------|--------|--------|--------|--------|--------|--------|--------|--------|
E|--------|--------|--------|--------|--------|--------|--------|--------|--------|


E|--------|--------|--------|--------|--------|--------|--------|--------|--------|
B|--------|--------|--------|--------|--------|--------|--------|--------|--------|
G|--------|--------|--------|--------|--------|--------|--------|--------|--------|
D|--------|--------|--------|--------|--------|--------|--------|--------|--------|
A|--------|--------|--------|--------|--------|--------|--------|--------|--------|
E|--------|--------|--------|--------|--------|--------|--------|--------|--------|


E|--------|--------|--------|--------|--------|--------|--------|--------|--------|
B|--------|--------|--------|--------|--------|--------|--------|--------|--------|
G|--------|--------|--------|--------|--------|--------|--------|--------|--------|
D|--------|--------|--------|--------|--------|--------|--------|--------|--------|
A|--------|--------|--------|--------|--------|--------|--------|--------|--------|
E|--------|--------|--------|--------|--------|--------|--------|--------|--------|


E|--------|--------|--------|--------|--------|--------|--------|--------|--------|
B|--------|--------|--------|-8------|--------|--------|--------|--------|--------|
G|--------|--------|--------|--------|--------|--------|--------|--------|--------|
D|--------|--------|--------|--------|--------|--------|--------|--------|--------|
A|--------|--------|--------|--------|--------|--------|--------|--------|--------|
E|--------|--------|--------|--------|--------|--------|--------|--------|--------|


E|--------|--------|--------|--------|--------|--------|--------|--------|--------|
B|--------|--------|--------|--------|--------|--------|--------|--------|--------|
G|--------|--------|--------|--------|--------|--------|--------|--------|--------|
D|--------|--------|--------|--------|--------|--------|--------|--------|--------|
A|--------|--------|--------|--------|--------|--------|--------|--------|--------|
E|--------|--------|--------|--------|--------|--------|--------|--------|--------|


E|--------|--------|--------|--------|--------|--------|--------|--------|--------|
B|--------|--------|--------|--------|--------|--------|--------|--------|--------|
G|--------|--------|--------|--------|--------|--------|--------|--------|--------|
D|--------|--------|--------|--------|--------|--------|--------|--------|--------|
A|--------|--------|--------|--------|--------|--------|--------|--------|--------|
E|--------|--------|--------|--------|--------|--------|--------|--------|--------|


E|--------|--------|
B|--------|--------|
G|--------|--------|
D|--------|--------|
A|--------|--------|
E|--------|--------|





Track 5: Untitled

G|--------|--------|--------|--------|--------|--------|--------|--------|--------|
D|--------|--------|--------|--------|--------|--------|--------|--------|--------|
A|--------|--------|--------|--------|--------|--------|--------|--------|--------|
E|--------|--------|--------|--------|--------|--------|--------|--------|--------|


G|--------|--------|--------|--------|--------|--------|--------|--------|--------|
D|--------|--------|--------|--------|--------|--------|--------|--------|--------|
A|--------|--------|--------|--------|--------|--------|--------|--------|--------|
E|--------|--------|--------|--------|--------|--------|--------|--------|--------|


G|--------|--------|--------|--------|--------|--------|--------|--------|--------|
D|--------|--------|--------|--------|--------|--------|--------|--------|--------|
A|--------|--------|--------|--------|--------|--------|--------|--------|--------|
E|--------|--------|--------|--------|--------|--------|--------|--------|--------|


G|--------|--------|--------|--------|--------|--------|--------|--------|--------|
D|--------|--------|--------|--------|--------|--------|--------|--------|--------|
A|--------|--------|--------|--------|--------|--------|--------|--------|--------|
E|--------|--------|--------|--------|--------|--------|--------|--------|--------|


G|--------|--------|--------|--------|--------|--------|--------|--------|--------|
D|--------|--------|--------|--------|--------|--------|--------|--------|--------|
A|--------|--------|--------|--------|--------|--------|--------|--------|--------|
E|--------|--------|--------|--------|--------|--------|--------|--------|--------|


G|--------|--------|--------|--------|--------|--------|--------|--------|--------|
D|--------|--------|--------|--------|--------|--------|--------|--------|--------|
A|--------|--------|--------|--------|--------|--------|--------|--------|--------|
E|--------|--------|--------|--------|--------|--------|--------|--------|--------|


G|--------|--------|--------|--------|--------|--------|--------|--------|--------|
D|--------|--------|--------|--------|--------|--------|--------|--------|--------|
A|--------|--------|--------|--------|--------|--------|--------|--------|--------|
E|--------|--------|--------|--------|--------|--------|--------|--------|--------|


G|--------|--------|--------|--------|--------|--------|--------|--------|--------|
D|--------|--------|--------|--------|--------|--------|--------|--------|--------|
A|--------|--------|--------|--------|--------|--------|--------|--------|--------|
E|--------|--------|--------|--------|--------|--------|--------|--------|--------|


G|--------|--------|
D|--------|--------|
A|--------|--------|
E|--------|--------|