Menu:

 

Search:

 

megadeth - breakpoint:

 



Title: Breakpoint
Artist: 
Album: Hidden Treasures
Author: Dave Mustaine, David Ellefson, Nick Menza


Track 1: Rhythm Guitar

E|-----------------------------------------|-----------------------------------------|
B|-----------------------------------------|-----------------------------------------|
G|-----------------------------------------|-----------------------------------------|
D|-----------------------------------------|-----------------------------------------|
A|-----------------------------------------|-----------------------------------------|
E|-2---2--2--3--2--2---2---2---5--3--2--0--|-2---2--2--3--2--2---2---2---5--3--2--0--|


E|-----------------------------------------|-----------------------------------------|
B|-----------------------------------------|-----------------------------------------|
G|-----------------------------------------|-----------------------------------------|
D|-----------------------------------------|-----------------------------------------|
A|-----------------------------------------|-----------------------------------------|
E|-2---2--2--3--2--2---2---2---5--3--2--0--|-2---2--2--3--2--2---2---2---5--3--2--0--|


E|-----------------------------------------|-----------------------------------------|
B|-----------------------------------------|-----------------------------------------|
G|-----------------------------------------|-----------------------------------------|
D|-----------------------------------------|-----------------------------------------|
A|-----------------------------------------|-----------------------------------------|
E|-2---2--2--3--2--2---2---2---5--3--2--0--|-2---2--2--3--2--2---2---2---5--3--2--0--|


E|-----------------------------------------|-----------------------|-----------------------------------------|
B|-----------------------------------------|-----------------------|-----------------------------------------|
G|-----------------------------------------|-----------------------|-----------------------------------------|
D|-----------------------------------------|-11---9--9---11--------|-----------------------------------------|
A|-----------------------------------------|-9----7--7---9---------|-----------------------------------------|
E|-2---2--2--3--2--2---2---2---5--3--2--0--|-----------------------|-2---2--2--3--2--2---2---2---5--3--2--0--|


E|-----------------------------------------|-----------------------------------------|
B|-----------------------------------------|-----------------------------------------|
G|-----------------------------------------|-----------------------------------------|
D|-----------------------------------------|-----------------------------------------|
A|-----------------------------------------|-----------------------------------------|
E|-2---2--2--3--2--2---2---2---5--3--2--0--|-2---2--2--3--2--2---2---2---5--3--2--0--|


E|-----------------------------------------|-----------------------------------------|
B|-----------------------------------------|-----------------------------------------|
G|-----------------------------------------|-----------------------------------------|
D|-----------------------------------------|-----------------------------------------|
A|-----------------------------------------|-----------------------------------------|
E|-2---2--2--3--2--2---2---2---5--3--2--0--|-2---2--2--3--2--2---2---2---5--3--2--0--|


E|-----------------------------------------|-----------------------------------------|
B|-----------------------------------------|-----------------------------------------|
G|-----------------------------------------|-----------------------------------------|
D|-----------------------------------------|-----------------------------------------|
A|-----------------------------------------|-----------------------------------------|
E|-2---2--2--3--2--2---2---2---5--3--2--0--|-2---2--2--3--2--2---2---2---5--3--2--0--|


E|-----------------------------------------|-----------------------------------------|
B|-----------------------------------------|-----------------------------------------|
G|-----------------------------------------|-----------------------------------------|
D|-----------------------------------------|-----------------------------------------|
A|-----------------------------------------|-----------------------------------------|
E|-2---2--2--3--2--2---2---2---5--3--2--0--|-2---2--2--3--2--2---2---2---5--3--2--0--|


E|-----------------------------------------|-----------------------------------------|
B|-----------------------------------------|-----------------------------------------|
G|-----------------------------------------|-----------------------------------------|
D|-----------------------------------------|-----------------------------------------|
A|-----------------------------------------|-----------------------------------------|
E|-2---2--2--3--2--2---2---2---5--3--2--0--|-2---2--2--3--2--2---2---2---5--3--2--0--|


E|-----------------------|-----------------------------------------|-----------------------------------------|
B|-----------------------|-----------------------------------------|-----------------------------------------|
G|-----------------------|-----------------------------------------|-----------------------------------------|
D|-11---9--9---11--------|-----------------------------------------|-----------------------------------------|
A|-9----7--7---9---------|-----------------------------------------|-----------------------------------------|
E|-----------------------|-2---2--2--3--2--2---2---2---5--3--2--0--|-2---2--2--3--2--2---2---2---5--3--2--0--|


E|-----------------------------------------|-----------------------------------------|
B|-----------------------------------------|-----------------------------------------|
G|-----------------------------------------|-----------------------------------------|
D|-----------------------------------------|-----------------------------------------|
A|-----------------------------------------|-----------------------------------------|
E|-2---2--2--3--2--2---2---2---5--3--2--0--|-2---2--2--3--2--2---2---2---5--3--2--0--|


E|--------|-------------|-----------------------------------------|-----------------------------------------|
B|--------|-------------|-----------------------------------------|-----------------------------------------|
G|--------|-------------|-----------------------------------------|-----------------------------------------|
D|--------|-------------|-----------------------------------------|-----------------------------------------|
A|-5------|-2-----5-----|-----------------------------------------|-----------------------------------------|
E|-3------|-0-----3-----|-2---2--2--3--2--2---2---2---5--3--2--0--|-2---2--2--3--2--2---2---2---5--3--2--0--|


E|--------|-------------------------------|---------------------------------|---------------------------------|
B|--------|-------------------------------|---------------------------------|---------------------------------|
G|--------|-------------------------------|---------------------------------|-----2---------------------------|
D|--------|-------------------------------|---------4-----------5---5---4---|-------------5---5---2-----------|
A|-5------|-2----2----2----5----5----5----|-----1-----------1---------------|---------1---------------1---4---|
E|-3------|-0----0----0----3----3----3----|-2-----------2-------------------|-0-------------------------------|


E|---------------------------------|-----------------------|---------------------------------|
B|---------------------------------|-----------------------|---------------------------------|
G|---------------------------------|-----------------------|---------------------------------|
D|---------4-----------5-------4---|-----------------------|-5-----------8---8-----------7---|
A|-----1-----------1---------------|-----2-------4---------|-3----5--5---6---6--8----7---5---|
E|-2-----------2-----------0-------|-0---0-------2---------|------3--3----------6----5-------|


E|-------------------------------------------------|---------------------------------|
B|-------------------------------------------------|---------------------------------|
G|-------------------------5--4--2--0--------------|---------------------------------|
D|-4--3--2--0--------------------------5--4--2--0--|-5-----------8---8-----------7---|
A|-------------4--3--2--0--------------------------|-3----5--5---6---6--8----7---5---|
E|-------------------------------------------------|------3--3----------6----5-------|


E|-------------------------------------------------|---------------------------------|
B|-------------------------------------------------|---------------------------------|
G|-5--4--2--0--5--4--2--0--------------------------|---------------------------------|
D|-------------------------5--4--2--0--------------|-5-----------8---8-----------7---|
A|-------------------------------------5--4--2--0--|-3----5--5---6---6--8----7---5---|
E|-------------------------------------------------|------3--3----------6----5-------|


E|-------------------------------------------------|------------------------------|
B|-------------------------------------------------|------------------------------|
G|-------------------------5--4--2--0--------------|------------------------------|
D|-4--3--2--0--------------------------5--4--2--0--|-5-----------8---8------------|
A|-------------4--3--2--0--------------------------|-3----5--5---6---6--8---------|
E|-------------------------------------------------|------3--3----------6---------|


E|---------------------------------|-----------------------------------------|-----------------------------------------|
B|---------------------------------|-----------------------------------------|-----------------------------------------|
G|---------------------------------|-----------------------------------------|-----------------------------------------|
D|-5-----------8---8-----------7---|-----------------------------------------|-----------------------------------------|
A|-3----5--5---6---6--8----7---5---|-----------------------------------------|-----------------------------------------|
E|------3--3----------6----5-------|-2---2--2--3--2--2---2---2---5--3--2--0--|-2---2--2--3--2--2---2---2---5--3--2--0--|


E|-----------------------------------------|-----------------------------------------|
B|-----------------------------------------|-----------------------------------------|
G|-----------------------------------------|-----------------------------------------|
D|-----------------------------------------|-----------------------------------------|
A|-----------------------------------------|-----------------------------------------|
E|-2---2--2--3--2--2---2---2---5--3--2--0--|-2---2--2--3--2--2---2---2---5--3--2--0--|


E|-----------------------------------------|-----------------------------------------|
B|-----------------------------------------|-----------------------------------------|
G|-----------------------------------------|-----------------------------------------|
D|-----------------------------------------|-----------------------------------------|
A|-----------------------------------------|-----------------------------------------|
E|-2---2--2--3--2--2---2---2---5--3--2--0--|-2---2--2--3--2--2---2---2---5--3--2--0--|


E|-----------------------------------------|-----------------------------------------|
B|-----------------------------------------|-----------------------------------------|
G|-----------------------------------------|-----------------------------------------|
D|-----------------------------------------|-----------------------------------------|
A|-----------------------------------------|-----------------------------------------|
E|-2---2--2--3--2--2---2---2---5--3--2--0--|-2---2--2--3--2--2---2---2---5--3--2--0--|


E|-----------------------------------------|-----------------------------------------|
B|-----------------------------------------|-----------------------------------------|
G|-----------------------------------------|-----------------------------------------|
D|-----------------------------------------|-----------------------------------------|
A|-----------------------------------------|-----------------------------------------|
E|-2---2--2--3--2--2---2---2---5--3--2--0--|-2---2--2--3--2--2---2---2---5--3--2--0--|


E|-----------------------------------------|-----------------------|-----------------------------------------|
B|-----------------------------------------|-----------------------|-----------------------------------------|
G|-----------------------------------------|-----------------------|-----------------------------------------|
D|-----------------------------------------|-11---9--9---11--------|-----------------------------------------|
A|-----------------------------------------|-9----7--7---9---------|-----------------------------------------|
E|-2---2--2--3--2--2---2---2---5--3--2--0--|-----------------------|-2---2--2--3--2--2---2---2---5--3--2--0--|


E|-----------------------------------------|-----------------------------------------|
B|-----------------------------------------|-----------------------------------------|
G|-----------------------------------------|-----------------------------------------|
D|-----------------------------------------|-----------------------------------------|
A|-----------------------------------------|-----------------------------------------|
E|-2---2--2--3--2--2---2---2---5--3--2--0--|-2---2--2--3--2--2---2---2---5--3--2--0--|


E|-----------------------------------------|--------|-------------|-----------------------------------------|
B|-----------------------------------------|--------|-------------|-----------------------------------------|
G|-----------------------------------------|--------|-------------|-----------------------------------------|
D|-----------------------------------------|--------|-------------|-----------------------------------------|
A|-----------------------------------------|-5------|-2-----5-----|-----------------------------------------|
E|-2---2--2--3--2--2---2---2---5--3--2--0--|-3------|-0-----3-----|-2---2--2--3--2--2---2---2---5--3--2--0--|


E|-----------------------------------------|--------|-------------------------------|
B|-----------------------------------------|--------|-------------------------------|
G|-----------------------------------------|--------|-------------------------------|
D|-----------------------------------------|--------|-------------------------------|
A|-----------------------------------------|-5------|-2----2----2----5----5----5----|
E|-2---2--2--3--2--2---2---2---5--3--2--0--|-3------|-0----0----0----3----3----3----|


E|---------------------------------|---------------------------------|---------------------------------|
B|---------------------------------|---------------------------------|---------------------------------|
G|---------------------------------|-----2---------------------------|---------------------------------|
D|---------4-----------5---5---4---|-------------5---5---2-----------|---------4-----------5-------4---|
A|-----1-----------1---------------|---------1---------------1---4---|-----1-----------1---------------|
E|-2-----------2-------------------|-0-------------------------------|-2-----------2-----------0-------|


E|-----------------------|---------------------------------|-------------------------------------------------|
B|-----------------------|---------------------------------|-------------------------------------------------|
G|-----------------------|---------------------------------|-------------------------5--4--2--0--------------|
D|-----------------------|-5-----------8---8-----------7---|-4--3--2--0--------------------------5--4--2--0--|
A|-----2-------4---------|-3----5--5---6---6--8----7---5---|-------------4--3--2--0--------------------------|
E|-0---0-------2---------|------3--3----------6----5-------|-------------------------------------------------|


E|---------------------------------|-------------------------------------------------|
B|---------------------------------|-------------------------------------------------|
G|---------------------------------|-5--4--2--0--5--4--2--0--------------------------|
D|-5-----------8---8-----------7---|-------------------------5--4--2--0--------------|
A|-3----5--5---6---6--8----7---5---|-------------------------------------5--4--2--0--|
E|------3--3----------6----5-------|-------------------------------------------------|


E|---------------------------------|-------------------------------------------------|
B|---------------------------------|-------------------------------------------------|
G|---------------------------------|-------------------------5--4--2--0--------------|
D|-5-----------8---8-----------7---|-4--3--2--0--------------------------5--4--2--0--|
A|-3----5--5---6---6--8----7---5---|-------------4--3--2--0--------------------------|
E|------3--3----------6----5-------|-------------------------------------------------|


E|------------------------------|---------------------------------|-----------------------------------------|
B|------------------------------|---------------------------------|-----------------------------------------|
G|------------------------------|---------------------------------|-----------------------------------------|
D|-5-----------8---8------------|-5-----------8---8-----------7---|-----------------------------------------|
A|-3----5--5---6---6--8---------|-3----5--5---6---6--8----7---5---|-----------------------------------------|
E|------3--3----------6---------|------3--3----------6----5-------|-2---2--2--3--2--2---2---2---5--3--2--0--|


E|-----------------------------------------|-----------------------------------------|
B|-----------------------------------------|-----------------------------------------|
G|-----------------------------------------|-----------------------------------------|
D|-----------------------------------------|-----------------------------------------|
A|-----------------------------------------|-----------------------------------------|
E|-2---2--2--3--2--2---2---2---5--3--2--0--|-2---2--2--3--2--2---2---2---5--3--2--0--|


E|-----------------------------------------|-----------------------------------------|
B|-----------------------------------------|-----------------------------------------|
G|-----------------------------------------|-----------------------------------------|
D|-----------------------------------------|-----------------------------------------|
A|-----------------------------------------|-----------------------------------------|
E|-2---2--2--3--2--2---2---2---5--3--2--0--|-2---2--2--3--2--2---2---2---5--3--2--0--|


E|-----------------------------------------|-----------------------------------------|
B|-----------------------------------------|-----------------------------------------|
G|-----------------------------------------|-----------------------------------------|
D|-----------------------------------------|-----------------------------------------|
A|-----------------------------------------|-----------------------------------------|
E|-2---2--2--3--2--2---2---2---5--3--2--0--|-2---2--2--3--2--2---2---2---5--3--2--0--|


E|-----------------------------------------|-----------------------------------------|
B|-----------------------------------------|-----------------------------------------|
G|-----------------------------------------|-----------------------------------------|
D|-----------------------------------------|-----------------------------------------|
A|-----------------------------------------|-----------------------------------------|
E|-2---2--2--3--2--2---2---2---5--3--2--0--|-2---2--2--3--2--2---2---2---5--3--2--0--|


E|-----------------------------------------|-----------------------------------------|
B|-----------------------------------------|-----------------------------------------|
G|-----------------------------------------|-----------------------------------------|
D|-----------------------------------------|-----------------------------------------|
A|-----------------------------------------|-----------------------------------------|
E|-2---2--2--3--2--2---2---2---5--3--2--0--|-2---2--2--3--2--2---2---2---5--3--2--0--|


E|-----------------------|-----------------------------------------|-----------------------------------------|
B|-----------------------|-----------------------------------------|-----------------------------------------|
G|-----------------------|-----------------------------------------|-----------------------------------------|
D|-11---9--9---11--------|-----------------------------------------|-----------------------------------------|
A|-9----7--7---9---------|-----------------------------------------|-----------------------------------------|
E|-----------------------|-2---2--2--3--2--2---2---2---5--3--2--0--|-2---2--2--3--2--2---2---2---5--3--2--0--|


E|-----------------------------------------|-----------------------------------------|
B|-----------------------------------------|-----------------------------------------|
G|-----------------------------------------|-----------------------------------------|
D|-----------------------------------------|-----------------------------------------|
A|-----------------------------------------|-----------------------------------------|
E|-2---2--2--3--2--2---2---2---5--3--2--0--|-2---2--2--3--2--2---2---2---5--3--2--0--|


E|--------|-------------|-----------------------------------------|-----------------------------------------|
B|--------|-------------|-----------------------------------------|-----------------------------------------|
G|--------|-------------|-----------------------------------------|-----------------------------------------|
D|--------|-------------|-----------------------------------------|-----------------------------------------|
A|-5------|-2-----5-----|-----------------------------------------|-----------------------------------------|
E|-3------|-0-----3-----|-2---2--2--3--2--2---2---2---5--3--2--0--|-2---2--2--3--2--2---2---2---5--3--2--0--|


E|--------|-------------------------------|---------------------------------|---------------------------------|
B|--------|-------------------------------|---------------------------------|---------------------------------|
G|--------|-------------------------------|---------------------------------|-----2---------------------------|
D|--------|-------------------------------|---------4-----------5---5---4---|-------------5---5---2-----------|
A|-5------|-2----2----2----5----5----5----|-----1-----------1---------------|---------1---------------1---4---|
E|-3------|-0----0----0----3----3----3----|-2-----------2-------------------|-0-------------------------------|


E|---------------------------------|-----------------------|---------------------------------|
B|---------------------------------|-----------------------|---------------------------------|
G|---------------------------------|-----------------------|---------------------------------|
D|---------4-----------5-------4---|-----------------------|-5-----------8---8-----------7---|
A|-----1-----------1---------------|-----2-------4---------|-3----5--5---6---6--8----7---5---|
E|-2-----------2-----------0-------|-0---0-------2---------|------3--3----------6----5-------|


E|-------------------------------------------------|---------------------------------|
B|-------------------------------------------------|---------------------------------|
G|-------------------------5--4--2--0--------------|---------------------------------|
D|-4--3--2--0--------------------------5--4--2--0--|-5-----------8---8-----------7---|
A|-------------4--3--2--0--------------------------|-3----5--5---6---6--8----7---5---|
E|-------------------------------------------------|------3--3----------6----5-------|


E|-------------------------------------------------|---------------------------------|
B|-------------------------------------------------|---------------------------------|
G|-5--4--2--0--5--4--2--0--------------------------|---------------------------------|
D|-------------------------5--4--2--0--------------|-5-----------8---8-----------7---|
A|-------------------------------------5--4--2--0--|-3----5--5---6---6--8----7---5---|
E|-------------------------------------------------|------3--3----------6----5-------|


E|-------------------------------------------------|------------------------------|
B|-------------------------------------------------|------------------------------|
G|-------------------------5--4--2--0--------------|------------------------------|
D|-4--3--2--0--------------------------5--4--2--0--|-5-----------8---8------------|
A|-------------4--3--2--0--------------------------|-3----5--5---6---6--8---------|
E|-------------------------------------------------|------3--3----------6---------|


E|------------------------------|------------------------------|------------------------------|
B|------------------------------|------------------------------|------------------------------|
G|------------------------------|------------------------------|------------------------------|
D|-5-----------8---8------------|-5-----------8---8------------|-5-----------8---8------------|
A|-3----5--5---6---6--8---------|-3----5--5---6---6--8---------|-3----5--5---6---6--8----8----|
E|------3--3----------6---------|------3--3----------6---------|------3--3----------6----6----|


E|---------------------------------|---------------------------------|---------------------------------|
B|-------------2---2---------------|-------------2---2---------------|-------------2---2---------------|
G|---------------------4---4-------|---------------------4---4-------|---------------------4---4-------|
D|---------4-----------------------|---------4-----------------------|---------4-----------------------|
A|-----2---------------------------|-----2---------------------------|-----2---------------------------|
E|-2---------------------------2---|-3---------------------------3---|-4---------------------------4---|


E|---------------------------------|---------------------------------|---------------------------------|
B|-------------2---2---------------|-------------2---2---------------|-------------2---2---------------|
G|---------------------4---4-------|---------------------4---4-------|---------------------4---4-------|
D|---------4-----------------------|---------4-----------------------|---------4-----------------------|
A|-----2---------------------------|-----2---------------------------|-----2---------------------------|
E|-3---------------------------3---|-2---------------------------2---|-3---------------------------3---|


E|---------------------------------|---------------------------------|---------------------------------|
B|-------------2---2---------------|-------------2---2---4---4-------|-------------2---2---------------|
G|---------------------4---4-------|---------4-----------------------|---------------------4---4-------|
D|---------4-----------------------|-----4---------------------------|---------4-----------------------|
A|-----2---------------------------|-0---------------------------0---|-----2---------------------------|
E|-4---------------------------4---|---------------------------------|-2---------------------------2---|


E|---------------------------------|---------------------------------|-------------------------------------|
B|-------------2---2---------------|-------------2---2---------------|-------------------------------------|
G|---------------------4---4-------|---------------------4---4-------|-------------------------------------|
D|---------4-----------------------|---------4-----------------------|-------------------------------------|
A|-----2---------------------------|-----2---------------------------|-----2----2----2-------4----4----4---|
E|-3---------------------------3---|-4---------------------------4---|-3-----------------3-----------------|


E|---------------------------------|---------------------------------|---------------------------------|
B|---------------------------------|---------------------------------|---------------------------------|
G|---------------------------------|---------------------------------|---------------------------------|
D|---------------------------------|---------------------------------|---------------------------------|
A|-4---4---4---4---4---4---4---4---|-5---5---5---5---5---5---5---5---|-6---6---6---6---6---6---6---6---|
E|-2---2---2---2---2---2---2---2---|-3---3---3---3---3---3---3---3---|-4---4---4---4---4---4---4---4---|


E|---------------------------------|-----------------------------------------|-----------------------------------------|
B|---------------------------------|-----------------------------------------|-----------------------------------------|
G|---------------------------------|-----------------------------------------|-----------------------------------------|
D|---------------------------------|-----------------------------------------|-----------------------------------------|
A|-7---7---7---7---7---7---7---7---|-----------------------------------------|-----------------------------------------|
E|-5---5---5---5---5---5---5---5---|-2---2--2--3--2--2---2---2---5--3--2--0--|-2---2--2--3--2--2---2---2---5--3--2--0--|


E|-----------------------------------------|-----------------------------------------|
B|-----------------------------------------|-----------------------------------------|
G|-----------------------------------------|-----------------------------------------|
D|-----------------------------------------|-----------------------------------------|
A|-----------------------------------------|-----------------------------------------|
E|-2---2--2--3--2--2---2---2---5--3--2--0--|-2---2--2--3--2--2---2---2---5--3--2--0--|


E|-----------------------------------------|-----------------------------------------|
B|-----------------------------------------|-----------------------------------------|
G|-----------------------------------------|-----------------------------------------|
D|-----------------------------------------|-----------------------------------------|
A|-----------------------------------------|-----------------------------------------|
E|-2---2--2--3--2--2---2---2---5--3--2--0--|-2---2--2--3--2--2---2---2---5--3--2--0--|


E|-----------------------------------------|-----------------------------------------|
B|-----------------------------------------|-----------------------------------------|
G|-----------------------------------------|-----------------------------------------|
D|-----------------------------------------|-----------------------------------------|
A|-----------------------------------------|-----------------------------------------|
E|-2---2--2--3--2--2---2---2---5--3--2--0--|-2---2--2--3--2--2---2---2---5--3--2--0--|


E|-----------------------------------------|-----------------------------------------|
B|-----------------------------------------|-----------------------------------------|
G|-----------------------------------------|-----------------------------------------|
D|-----------------------------------------|-----------------------------------------|
A|-----------------------------------------|-----------------------------------------|
E|-2---2--2--3--2--2---2---2---5--3--2--0--|-2---2--2--3--2--2---2---2---5--3--2--0--|


E|-----------------------------------------|-----------------------|
B|-----------------------------------------|-----------------------|
G|-----------------------------------------|-----------------------|
D|-----------------------------------------|-4----2--2---4---------|
A|-----------------------------------------|-4----2--2---4---------|
E|-2---2--2--3--2--2---2---2---5--3--2--0--|-2----0--0---2---------|





Track 2: Rhythm Guitar

E|--------|--------|--------|--------|--------|--------|--------|--------|--------|
B|--------|--------|--------|--------|--------|--------|--------|--------|--------|
G|--------|--------|--------|--------|--------|--------|--------|--------|--------|
D|--------|--------|--------|--------|--------|--------|--------|--------|-11-----|
A|--------|--------|--------|--------|--------|--------|--------|--------|-9------|
E|--------|--------|--------|--------|--------|--------|--------|--------|--------|


E|--------|--------|--------|--------|--------|--------|-----------------|--------|
B|--------|--------|--------|--------|--------|--------|-----------------|--------|
G|--------|--------|--------|--------|--------|--------|-----------------|--------|
D|-7------|-11-----|-7------|-11-----|-9------|-7------|-6-----6----2----|--------|
A|-5------|-9------|-5------|-9------|-7------|-5------|-4-----4----0----|-4------|
E|--------|--------|--------|--------|--------|--------|-----------------|-2------|


E|--------|--------|-----------------------|--------|--------|--------|--------|--------|
B|--------|--------|-----------------------|--------|--------|--------|--------|--------|
G|--------|--------|-----------------------|--------|--------|--------|--------|--------|
D|--------|--------|-11---9--9---11--------|--------|--------|--------|--------|--------|
A|-4------|-4------|-9----7--7---9---------|--------|--------|--------|--------|--------|
E|-2------|-2------|-----------------------|--------|--------|--------|--------|--------|


E|--------|--------|--------|--------|--------|--------|--------|--------|--------|
B|--------|--------|--------|--------|--------|--------|--------|--------|--------|
G|--------|--------|--------|--------|--------|--------|--------|--------|--------|
D|--------|--------|--------|--------|--------|--------|--------|--------|--------|
A|--------|--------|--------|--------|--------|--------|--------|--------|--------|
E|--------|--------|--------|--------|--------|--------|--------|--------|--------|


E|--------|--------|--------|--------|--------|--------|--------|--------|--------|
B|--------|--------|--------|--------|--------|--------|--------|--------|--------|
G|--------|--------|--------|--------|--------|--------|--------|--------|--------|
D|--------|--------|--------|--------|--------|--------|--------|--------|-11-----|
A|--------|--------|--------|--------|--------|--------|--------|--------|-9------|
E|--------|--------|--------|--------|--------|--------|--------|--------|--------|


E|--------|--------|--------|--------|--------|--------|-----------------|--------|
B|--------|--------|--------|--------|--------|--------|-----------------|--------|
G|--------|--------|--------|--------|--------|--------|-----------------|--------|
D|-7------|-11-----|-7------|-11-----|-9------|-7------|-6-----6----2----|--------|
A|-5------|-9------|-5------|-9------|-7------|-5------|-4-----4----0----|-4------|
E|--------|--------|--------|--------|--------|--------|-----------------|-2------|


E|--------|--------|-----------------------|--------|--------|--------|--------|--------|
B|--------|--------|-----------------------|--------|--------|--------|--------|--------|
G|--------|--------|-----------------------|--------|--------|--------|--------|--------|
D|--------|--------|-11---9--9---11--------|--------|--------|--------|--------|--------|
A|-4------|-4------|-9----7--7---9---------|--------|--------|--------|--------|--------|
E|-2------|-2------|-----------------------|--------|--------|--------|--------|--------|


E|--------|--------|--------|--------|--------|--------|--------|--------|--------|
B|--------|--------|--------|--------|--------|--------|--------|--------|--------|
G|--------|--------|--------|--------|--------|--------|--------|--------|--------|
D|--------|--------|--------|--------|--------|--------|--------|--------|--------|
A|--------|--------|--------|--------|--------|--------|--------|--------|--------|
E|--------|--------|--------|--------|--------|--------|--------|--------|--------|


E|--------|--------|--------|--------|--------|--------|--------|--------|--------|
B|--------|--------|--------|--------|--------|--------|--------|--------|--------|
G|--------|--------|--------|--------|--------|--------|--------|--------|--------|
D|--------|--------|--------|--------|--------|--------|--------|--------|-11-----|
A|--------|--------|--------|--------|--------|--------|--------|--------|-9------|
E|--------|--------|--------|--------|--------|--------|--------|--------|--------|


E|--------|--------|--------|--------|--------|--------|-----------------|--------|
B|--------|--------|--------|--------|--------|--------|-----------------|--------|
G|--------|--------|--------|--------|--------|--------|-----------------|--------|
D|-7------|-11-----|-7------|-11-----|-9------|-7------|-6-----6----2----|--------|
A|-5------|-9------|-5------|-9------|-7------|-5------|-4-----4----0----|-4------|
E|--------|--------|--------|--------|--------|--------|-----------------|-2------|


E|--------|--------|-----------------------|--------|--------|--------|--------|--------|
B|--------|--------|-----------------------|--------|--------|--------|--------|--------|
G|--------|--------|-----------------------|--------|--------|--------|--------|--------|
D|--------|--------|-11---9--9---11--------|--------|--------|--------|--------|--------|
A|-4------|-4------|-9----7--7---9---------|--------|--------|--------|--------|--------|
E|-2------|-2------|-----------------------|--------|--------|--------|--------|--------|


E|--------|--------|--------|--------|--------|--------|--------|--------|--------|
B|--------|--------|--------|--------|--------|--------|--------|--------|--------|
G|--------|--------|--------|--------|--------|--------|--------|--------|--------|
D|--------|--------|--------|--------|--------|--------|--------|--------|--------|
A|--------|--------|--------|--------|--------|--------|--------|--------|--------|
E|--------|--------|--------|--------|--------|--------|--------|--------|--------|


E|--------|--------|--------|--------|--------|--------|--------|--------|--------|
B|--------|--------|--------|--------|--------|--------|--------|--------|--------|
G|--------|--------|--------|--------|--------|--------|--------|--------|--------|
D|--------|--------|--------|--------|--------|--------|--------|--------|--------|
A|--------|--------|--------|--------|--------|--------|--------|--------|--------|
E|--------|--------|--------|--------|--------|--------|--------|--------|--------|


E|--------|--------|--------|--------|--------|--------|--------|--------|--------|
B|--------|--------|--------|--------|--------|--------|--------|--------|--------|
G|--------|--------|--------|--------|--------|--------|--------|--------|--------|
D|--------|--------|--------|--------|--------|--------|--------|--------|--------|
A|--------|--------|--------|--------|--------|--------|--------|--------|--------|
E|--------|--------|--------|--------|--------|--------|--------|--------|--------|


E|--------|--------|--------|--------|--------|--------|--------|--------|--------|
B|--------|--------|--------|--------|--------|--------|--------|--------|--------|
G|--------|--------|--------|--------|--------|--------|--------|--------|--------|
D|--------|--------|--------|--------|--------|--------|--------|--------|-11-----|
A|--------|--------|--------|--------|--------|--------|--------|--------|-9------|
E|--------|--------|--------|--------|--------|--------|--------|--------|--------|


E|--------|--------|--------|--------|--------|--------|-----------------|--------|
B|--------|--------|--------|--------|--------|--------|-----------------|--------|
G|--------|--------|--------|--------|--------|--------|-----------------|--------|
D|-7------|-11-----|-7------|-11-----|-9------|-7------|-6-----6----2----|--------|
A|-5------|-9------|-5------|-9------|-7------|-5------|-4-----4----0----|-4------|
E|--------|--------|--------|--------|--------|--------|-----------------|-2------|


E|--------|--------|-----------------------|
B|--------|--------|-----------------------|
G|--------|--------|-----------------------|
D|--------|--------|-4----2--2---4---------|
A|-4------|-4------|-4----2--2---4---------|
E|-2------|-2------|-2----0--0---2---------|





Track 3: Lead Guitar

E|--------|--------|--------|--------|--------|--------|--------|--------|--------|
B|--------|--------|--------|--------|--------|--------|--------|--------|--------|
G|--------|--------|--------|--------|--------|--------|--------|--------|--------|
D|--------|--------|--------|--------|--------|--------|--------|--------|--------|
A|--------|--------|--------|--------|--------|--------|--------|--------|--------|
E|--------|--------|--------|--------|--------|--------|--------|--------|--------|


E|--------|--------|--------|--------|--------|--------|--------|--------|--------|
B|--------|--------|--------|--------|--------|--------|--------|--------|--------|
G|--------|--------|--------|--------|--------|--------|--------|--------|--------|
D|--------|--------|--------|--------|--------|--------|--------|--------|--------|
A|--------|--------|--------|--------|--------|--------|--------|--------|--------|
E|--------|--------|--------|--------|--------|--------|--------|--------|--------|


E|--------|--------|--------|--------|--------|--------|--------|--------|-18-18-18-18-18-18-18--18--------|
B|--------|--------|--------|--------|--------|--------|--------|--------|-17-17-17-17-17-17-17--17--------|
G|--------|--------|--------|--------|--------|--------|--------|--------|-18-18-18-18-18-18-18--18--------|
D|--------|--------|--------|--------|--------|--------|--------|--------|---------------------------------|
A|--------|--------|--------|--------|--------|--------|--------|--------|---------------------------------|
E|--------|--------|--------|--------|--------|--------|--------|--------|---------------------------------|


E|-----------------------------------|--------|--------|--------|--------|--------|
B|-17--------------------------------|--------|--------|--------|--------|--------|
G|------16-16--14-14-----------------|--------|--------|--------|--------|--------|
D|-------------------16--------------|-12-----|--------|--------|--------|--------|
A|------------------------14-14--12--|--------|--------|--------|--------|--------|
E|-----------------------------------|--------|--------|--------|--------|--------|


E|--------|--------|--------|--------|--------|--------|--------|--------|--------|
B|--------|--------|--------|--------|--------|--------|--------|--------|--------|
G|--------|--------|--------|--------|--------|--------|--------|--------|--------|
D|--------|--------|--------|--------|--------|--------|--------|--------|--------|
A|--------|--------|--------|--------|--------|--------|--------|--------|--------|
E|--------|--------|--------|--------|--------|--------|--------|--------|--------|


E|--------------2-----------------------|-----------------------------|--------------------------|
B|-----------------2--5--2--------------|-----------------------------|------------6---6-----6---|
G|-4----4---4---------------5--4--2-----|-2-----2--4--4---4--4--6--9--|-6----6--4----------------|
D|-----------------------------------4--|-----------------------------|--------------------------|
A|--------------------------------------|-----------------------------|--------------------------|
E|--------------------------------------|-----------------------------|--------------------------|


E|-------------------------------------------------|--------------------------|---------------------------14-16--|
B|-7--6--------------------------------------------|-----------14---15---17---|-15--15---15-14-17--17--17--------|
G|-------9--8--7--6-----7--6-----------------------|--------------------------|----------------------------------|
D|-------------------9--------9--8--7--6--5--4--0--|--------------------------|----------------------------------|
A|-------------------------------------------------|-4------------------------|----------------------------------|
E|-------------------------------------------------|--------------------------|----------------------------------|


E|-16---16--16--16--------------14--|-----------------14--------------------------|
B|----------------------------------|---------------------------------------------|
G|------------------14--16--17------|-17--16--14----------17--16--14------16--16--|
D|----------------------------------|-------------16------------------16----------|
A|----------------------------------|---------------------------------------------|
E|----------------------------------|---------------------------------------------|


E|--------|--------|--------|--------|--------|--------|--------|--------|--------|
B|--------|--------|--------|--------|--------|--------|--------|--------|--------|
G|-14-----|-14-----|-14-----|--------|--------|--------|--------|--------|--------|
D|--------|--------|--------|--------|--------|--------|--------|--------|--------|
A|--------|--------|--------|--------|--------|--------|--------|--------|--------|
E|--------|--------|--------|--------|--------|--------|--------|--------|--------|


E|--------|-18-18-18-18-18-18-18--18-------------|---------14----------------|--------|
B|--------|-17-17-17-17-17-17-17--17-------17-14-|-17--17-----17-14----------|--------|
G|--------|-18-18-18-18-18-18-18--18-------------|------------------16-14----|-14-----|
D|--------|--------------------------------------|---------------------------|--------|
A|--------|--------------------------------------|---------------------------|--------|
E|--------|--------------------------------------|---------------------------|--------|


E|--------|--------|--------|--------|--------|--------|--------|--------|--------|
B|--------|--------|--------|--------|--------|--------|--------|--------|--------|
G|--------|--------|--------|--------|--------|--------|--------|--------|--------|
D|--------|--------|--------|--------|--------|--------|--------|--------|--------|
A|--------|--------|--------|--------|--------|--------|--------|--------|--------|
E|--------|--------|--------|--------|--------|--------|--------|--------|--------|


E|--------|--------|--------|--------|----------------------|-----------------------------|
B|--------|--------|--------|--------|----------------------|-----------------------------|
G|--------|--------|--------|--------|-16----16---16--14-16-|-----------13-14----13-14-16-|
D|--------|--------|--------|--------|----------------------|-16----16--------16----------|
A|--------|--------|--------|--------|----------------------|-----------------------------|
E|--------|--------|--------|--------|----------------------|-----------------------------|


E|-------------------------------|--------------------|-------------------------------------------------|
B|-------------------------------|-17---17--17--17----|----------------------------------15-17-15----15-|
G|-16---16---16---16---16--16-14-|--------------------|-------14-16-18-16-14-16-14-16-18----------18----|
D|-------------------------------|--------------------|-16-18-------------------------------------------|
A|-------------------------------|--------------------|-------------------------------------------------|
E|-------------------------------|--------------------|-------------------------------------------------|


E|-------------16-17-19-21-21---21-21-21--|-19-20-19----19----------------------------------|
B|----15-17-19----------------------------|----------22----22-19----22-19-18-21-18----21-18-|
G|-18-------------------------------------|----------------------21----------------20-------|
D|----------------------------------------|-------------------------------------------------|
A|----------------------------------------|-------------------------------------------------|
E|----------------------------------------|-------------------------------------------------|


E|-------------------------------------------------|--------|--------|--------|--------|
B|-17-20-17----20-17-14-17-14----------------------|--------|--------|--------|--------|
G|----------19----------------17-16-14-16-14-------|--------|--------|--------|--------|
D|-------------------------------------------16-14-|-16-----|-16-----|-16-----|--------|
A|-------------------------------------------------|--------|--------|--------|--------|
E|-------------------------------------------------|--------|--------|--------|--------|


E|--------|--------|--------|--------|--------|--------|-18-18-18-18-18-18-18--18--------|
B|--------|--------|--------|--------|--------|--------|-17-17-17-17-17-17-17--17--------|
G|--------|--------|--------|--------|--------|--------|-18-18-18-18-18-18-18--18--------|
D|--------|--------|--------|--------|--------|--------|---------------------------------|
A|--------|--------|--------|--------|--------|--------|---------------------------------|
E|--------|--------|--------|--------|--------|--------|---------------------------------|


E|-----------------------------------|--------|--------|--------|--------|--------|
B|-17--------------------------------|--------|--------|--------|--------|--------|
G|------16-16--14-14-----------------|--------|--------|--------|--------|--------|
D|-------------------16--------------|-12-----|--------|--------|--------|--------|
A|------------------------14-14--12--|--------|--------|--------|--------|--------|
E|-----------------------------------|--------|--------|--------|--------|--------|


E|--------|--------|--------|--------|--------|--------|--------|--------|--------|
B|--------|--------|--------|--------|--------|--------|--------|--------|--------|
G|--------|--------|--------|--------|--------|--------|--------|--------|--------|
D|--------|--------|--------|--------|--------|--------|--------|--------|--------|
A|--------|--------|--------|--------|--------|--------|--------|--------|--------|
E|--------|--------|--------|--------|--------|--------|--------|--------|--------|


E|--------|--------|--------|--------|--------|--------|--------|--------|--------|
B|--------|--------|--------|--------|--------|--------|--------|--------|--------|
G|--------|--------|--------|--------|--------|--------|--------|--------|--------|
D|--------|--------|--------|--------|--------|--------|--------|--------|--------|
A|--------|--------|--------|--------|--------|--------|--------|--------|--------|
E|--------|--------|--------|--------|--------|--------|--------|--------|--------|


E|--------|--------|--------|--------|--------|--------|--------|--------|--------|
B|--------|--------|--------|--------|--------|--------|--------|--------|--------|
G|--------|--------|--------|--------|--------|--------|--------|--------|--------|
D|--------|--------|--------|--------|--------|--------|--------|--------|--------|
A|--------|--------|--------|--------|--------|--------|--------|--------|--------|
E|--------|--------|--------|--------|--------|--------|--------|--------|--------|


E|--------|--------|--------|--------|--------|--------|--------|--------|--------|
B|--------|--------|--------|--------|--------|--------|--------|--------|--------|
G|--------|--------|--------|--------|--------|--------|--------|--------|--------|
D|--------|--------|--------|--------|--------|--------|--------|--------|--------|
A|--------|--------|--------|--------|--------|--------|--------|--------|--------|
E|--------|--------|--------|--------|--------|--------|--------|--------|--------|


E|--------|--------|--------|
B|--------|--------|--------|
G|--------|--------|--------|
D|--------|--------|--------|
A|--------|--------|--------|
E|--------|--------|--------|





Track 4: Untitled

G|--------|--------|--------|--------|--------|--------|--------|--------|--------|
D|--------|--------|--------|--------|--------|--------|--------|--------|--------|
A|--------|--------|--------|--------|--------|--------|--------|--------|--------|
E|--------|--------|--------|--------|--------|--------|--------|--------|--------|


G|--------|--------|--------|--------|--------|--------|--------|--------|--------|
D|--------|--------|--------|--------|--------|--------|--------|--------|--------|
A|--------|--------|--------|--------|--------|--------|--------|--------|--------|
E|--------|--------|--------|--------|--------|--------|--------|--------|--------|


G|--------|--------|--------|--------|--------|--------|--------|--------|--------|
D|--------|--------|--------|--------|--------|--------|--------|--------|--------|
A|--------|--------|--------|--------|--------|--------|--------|--------|--------|
E|--------|--------|--------|--------|--------|--------|--------|--------|--------|


G|--------|--------|--------|--------|--------|--------|--------|--------|--------|
D|--------|--------|--------|--------|--------|--------|--------|--------|--------|
A|--------|--------|--------|--------|--------|--------|--------|--------|--------|
E|--------|--------|--------|--------|--------|--------|--------|--------|--------|


G|--------|--------|--------|--------|--------|--------|--------|--------|--------|
D|--------|--------|--------|--------|--------|--------|--------|--------|--------|
A|--------|--------|--------|--------|--------|--------|--------|--------|--------|
E|--------|--------|--------|--------|--------|--------|--------|--------|--------|


G|--------|--------|--------|--------|--------|--------|--------|--------|--------|
D|--------|--------|--------|--------|--------|--------|--------|--------|--------|
A|--------|--------|--------|--------|--------|--------|--------|--------|--------|
E|--------|--------|--------|--------|--------|--------|--------|--------|--------|


G|--------|--------|--------|--------|--------|--------|--------|--------|--------|
D|--------|--------|--------|--------|--------|--------|--------|--------|--------|
A|--------|--------|--------|--------|--------|--------|--------|--------|--------|
E|--------|--------|--------|--------|--------|--------|--------|--------|--------|


G|--------|--------|--------|--------|--------|--------|--------|--------|--------|
D|--------|--------|--------|--------|--------|--------|--------|--------|--------|
A|--------|--------|--------|--------|--------|--------|--------|--------|--------|
E|--------|--------|--------|--------|--------|--------|--------|--------|--------|


G|--------|--------|--------|--------|--------|--------|--------|--------|--------|
D|--------|--------|--------|--------|--------|--------|--------|--------|--------|
A|--------|--------|--------|--------|--------|--------|--------|--------|--------|
E|--------|--------|--------|--------|--------|--------|--------|--------|--------|


G|--------|--------|--------|--------|--------|--------|--------|--------|--------|
D|--------|--------|--------|--------|--------|--------|--------|--------|--------|
A|--------|--------|--------|--------|--------|--------|--------|--------|--------|
E|--------|--------|--------|--------|--------|--------|--------|--------|--------|


G|--------|--------|--------|--------|--------|--------|--------|--------|--------|
D|--------|--------|--------|--------|--------|--------|--------|--------|--------|
A|--------|--------|--------|--------|--------|--------|--------|--------|--------|
E|--------|--------|--------|--------|--------|--------|--------|--------|--------|


G|--------|--------|--------|--------|--------|--------|--------|--------|--------|
D|--------|--------|--------|--------|--------|--------|--------|--------|--------|
A|--------|--------|--------|--------|--------|--------|--------|--------|--------|
E|--------|--------|--------|--------|--------|--------|--------|--------|--------|


G|--------|--------|--------|--------|--------|--------|--------|--------|--------|
D|--------|--------|--------|--------|--------|--------|--------|--------|--------|
A|--------|--------|--------|--------|--------|--------|--------|--------|--------|
E|--------|--------|--------|--------|--------|--------|--------|--------|--------|


G|--------|--------|--------|--------|--------|--------|--------|--------|--------|
D|--------|--------|--------|--------|--------|--------|--------|--------|--------|
A|--------|--------|--------|--------|--------|--------|--------|--------|--------|
E|--------|--------|--------|--------|--------|--------|--------|--------|--------|


G|--------|--------|--------|--------|--------|--------|--------|--------|--------|
D|--------|--------|--------|--------|--------|--------|--------|--------|--------|
A|--------|--------|--------|--------|--------|--------|--------|--------|--------|
E|--------|--------|--------|--------|--------|--------|--------|--------|--------|


G|--------|--------|--------|--------|--------|
D|--------|--------|--------|--------|--------|
A|--------|--------|--------|--------|--------|
E|--------|--------|--------|--------|--------|