Menu:

 

Search:

 

megadeth - breadline:

 



Title: Breadline
Artist: 
Album: Risk
Author: Dave Mustaine,Marty Friedman,Bud Prager


Track 1: Slight Distortion

E|---------------------------------|---------------------------------|---------------------------------|
B|---------------------------------|---------------------------------|---------------------------------|
G|---------------------------------|---------------------------------|---------------------------------|
D|---------7-----------6-----------|-----6---------------4-----------|---------5-----------4-----------|
A|-----7-----------7-----------6---|-6-----------6---6-------6-------|-----5-----------5-----------4---|
E|-0-----------0-----------0-------|---------0-------------------0---|-0-----------0-----------0-------|


E|---------------------------------|---------------------------------|---------------------------------|
B|---------------------------------|---------------------------------|---------------------------------|
G|---------0-------2---0-----------|---------------------------------|---------------------------------|
D|-----2-------2-----------2-------|---------7-----------6-----------|-----6---------------4-----------|
A|-4---------------------------4---|-----7-----------7-----------6---|-6-----------6---6-------6-------|
E|---------------------------------|-0-----------0-----------0-------|---------0-------------------0---|


E|---------------------------------|---------------------------------|---------------------------------|
B|---------------------------------|---------------------------------|---------------------------------|
G|---------------------------------|---------0-------2---0-----------|---------------------------------|
D|---------5-----------4-----------|-----2-------2-----------2-------|---------7-----------6-----------|
A|-----5-----------5-----------4---|-4---------------------------4---|-----7-----------7-----------6---|
E|-0-----------0-----------0-------|---------------------------------|-0-----------0-----------0-------|


E|---------------------------------|---------------------------------|---------------------------------|
B|---------------------------------|---------------------------------|---------------------------------|
G|---------------------------------|---------------------------------|---------0-------2---0-----------|
D|-----6---------------4-----------|---------5-----------4-----------|-----2-------2-----------2-------|
A|-6-----------6---6-------6-------|-----5-----------5-----------4---|-4---------------------------4---|
E|---------0-------------------0---|-0-----------0-----------0-------|---------------------------------|


E|---------------------------------|---------------------------------|---------------------------------|
B|---------------------------------|---------------------------------|---------------------------------|
G|---------------------------------|---------------------------------|---------------------------------|
D|---------7-----------6-----------|-----6---------------4-----------|---------5-----------4-----------|
A|-----7-----------7-----------6---|-6-----------6---6-------6-------|-----5-----------5-----------4---|
E|-0-----------0-----------0-------|---------0-------------------0---|-0-----------0-----------0-------|


E|---------------------------------|---------------------------------|------------------------------|
B|---------------------------------|---------------------------------|------------------------------|
G|---------0-------2---0-----------|---------------------------------|---------2---------------0----|
D|-----2-------2-----------2-------|---------2---------------0-------|-----2---------------2--------|
A|-4---------------------------4---|-----2---------------2-------0---|-0-----------3---3------------|
E|---------------------------------|-0-----------0---3---------------|------------------------------|


E|---------------------------------|------------------------------|---------------------------------|
B|---------------------------------|------------------------------|---------------------------------|
G|---------------------------------|---------2---------------0----|---------------------------------|
D|---------2---------------0-------|-----2---------------2--------|---------2---------------0-------|
A|-----2---------------2-------0---|-0-----------3---3------------|-----2---------------2-------0---|
E|-0-----------0---3---------------|------------------------------|-0-----------0---3---------------|


E|------------------------------|---------------------------------|--------|----------------|
B|------------------------------|---------------------------------|--------|----------------|
G|---------2---------------0----|-----------------------------2---|-2------|-2------2-------|
D|-----2---------------2--------|---------2---------------0---2---|-2------|-2------2---9---|
A|-0-----------3---3------------|-----2-------2-------2-------0---|-0------|-0------0---7---|
E|------------------------------|-0-----------0---3---------------|--------|----------------|


E|---------------------------|---------------------------|---------------------------|
B|---------------------------|---------------------------|---------------------------|
G|---------------------------|---------------------------|---------------------------|
D|-9----9----9---9-------9---|-9----9----9---9-----------|---------------------------|
A|-7----7----7---7-------6---|-6----6----6---6-------7---|-7----7----7---7-------7---|
E|---------------------------|-----------------------5---|-5----5----5---4-------5---|


E|---------------------------------|---------------------------|---------------------------------|
B|---------------------------------|---------------------------|---------------------------------|
G|---------------------------------|---------------------------|---------------------------------|
D|---------------------------------|---------------------------|---------------------------------|
A|-----7-------7-------7---4---4---|-4----4--------4-------7---|-7---7-------9---9---9-------2---|
E|-----7-------5-------4---2---0---|-2----2--------2-------5---|-5---5-------7---7---7-------0---|


E|---------------------------|------------------------|---------------------------------|
B|---------------------------|------------------------|---------------------------------|
G|---------------------------|------------------------|---------------------------------|
D|---------------------------|------------------------|---------7-----------6-----------|
A|-2----2----2---2---2---5---|-5---5----7---7----7----|-----7-----------7-----------6---|
E|-0----0----0---0---0---3---|-3---3----5---5----5----|-0-----------0-----------0-------|


E|---------------------------------|---------------------------------|---------------------------------|
B|---------------------------------|---------------------------------|---------------------------------|
G|---------------------------------|---------------------------------|---------0-------2---0-----------|
D|-----6---------------4-----------|---------5-----------4-----------|-----2-------2-----------2-------|
A|-6-----------6---6-------6-------|-----5-----------5-----------4---|-4---------------------------4---|
E|---------0-------------------0---|-0-----------0-----------0-------|---------------------------------|


E|---------------------------------|---------------------------------|---------------------------------|
B|---------------------------------|---------------------------------|---------------------------------|
G|---------------------------------|---------------------------------|---------------------------------|
D|---------7-----------6-----------|-----6---------------4-----------|---------5-----------4-----------|
A|-----7-----------7-----------6---|-6-----------6---6-------6-------|-----5-----------5-----------4---|
E|-0-----------0-----------0-------|---------0-------------------0---|-0-----------0-----------0-------|


E|---------------------------------|---------------------------------|---------------------------------|
B|---------------------------------|---------------------------------|---------------------------------|
G|---------0-------2---0-----------|---------------------------------|---------------------------------|
D|-----2-------2-----------2-------|---------7-----------6-----------|-----6---------------4-----------|
A|-4---------------------------4---|-----7-----------7-----------6---|-6-----------6---6-------6-------|
E|---------------------------------|-0-----------0-----------0-------|---------0-------------------0---|


E|---------------------------------|---------------------------------|---------------------------------|
B|---------------------------------|---------------------------------|---------------------------------|
G|---------------------------------|---------0-------2---0-----------|---------------------------------|
D|---------5-----------4-----------|-----2-------2-----------2-------|---------7-----------6-----------|
A|-----5-----------5-----------4---|-4---------------------------4---|-----7-----------7-----------6---|
E|-0-----------0-----------0-------|---------------------------------|-0-----------0-----------0-------|


E|---------------------------------|---------------------------------|---------------------------------|
B|---------------------------------|---------------------------------|---------------------------------|
G|---------------------------------|---------------------------------|---------0-------2---0-----------|
D|-----6---------------4-----------|---------5-----------4-----------|-----2-------2-----------2-------|
A|-6-----------6---6-------6-------|-----5-----------5-----------4---|-4---------------------------4---|
E|---------0-------------------0---|-0-----------0-----------0-------|---------------------------------|


E|---------------------------------|---------------------------------|---------------------------------|
B|---------------------------------|---------------------------------|---------------------------------|
G|---------------------------------|---------------------------------|---------------------------------|
D|---------7-----------6-----------|-----6---------------4-----------|---------5-----------4-----------|
A|-----7-----------7-----------6---|-6-----------6---6-------6-------|-----5-----------5-----------4---|
E|-0-----------0-----------0-------|---------0-------------------0---|-0-----------0-----------0-------|


E|---------------------------------|---------------------------------|------------------------------|
B|---------------------------------|---------------------------------|------------------------------|
G|---------0-------2---0-----------|---------------------------------|---------2---------------0----|
D|-----2-------2-----------2-------|---------2---------------0-------|-----2---------------2--------|
A|-4---------------------------4---|-----2---------------2-------0---|-0-----------3---3------------|
E|---------------------------------|-0-----------0---3---------------|------------------------------|


E|---------------------------------|------------------------------|---------------------------------|
B|---------------------------------|------------------------------|---------------------------------|
G|---------------------------------|---------2---------------0----|---------------------------------|
D|---------2---------------0-------|-----2---------------2--------|---------2---------------0-------|
A|-----2---------------2-------0---|-0-----------3---3------------|-----2---------------2-------0---|
E|-0-----------0---3---------------|------------------------------|-0-----------0---3---------------|


E|------------------------------|---------------------------------|--------|----------------|
B|------------------------------|---------------------------------|--------|----------------|
G|---------2---------------0----|-----------------------------2---|-2------|-2------2-------|
D|-----2---------------2--------|---------2---------------0---2---|-2------|-2------2---9---|
A|-0-----------3---3------------|-----2-------2-------2-------0---|-0------|-0------0---7---|
E|------------------------------|-0-----------0---3---------------|--------|----------------|


E|---------------------------|---------------------------|---------------------------|
B|---------------------------|---------------------------|---------------------------|
G|---------------------------|---------------------------|---------------------------|
D|-9----9----9---9-------9---|-9----9----9---9-----------|---------------------------|
A|-7----7----7---7-------6---|-6----6----6---6-------7---|-7----7----7---7-------7---|
E|---------------------------|-----------------------5---|-5----5----5---4-------5---|


E|---------------------------------|---------------------------|---------------------------------|
B|---------------------------------|---------------------------|---------------------------------|
G|---------------------------------|---------------------------|---------------------------------|
D|---------------------------------|---------------------------|---------------------------------|
A|-----7-------7-------7---4---4---|-4----4--------4-------7---|-7---7-------9---9---9-------2---|
E|-----7-------5-------4---2---0---|-2----2--------2-------5---|-5---5-------7---7---7-------0---|


E|---------------------------|------------------------|---------------------------|
B|---------------------------|------------------------|---------------------------|
G|---------------------------|------------------------|---------------------------|
D|---------------------------|------------------------|-9----9----9---9-------9---|
A|-2----2----2---2---2---5---|-5---5----7---7----7----|-7----7----7---7-------6---|
E|-0----0----0---0---0---3---|-3---3----5---5----5----|---------------------------|


E|---------------------------|---------------------------|---------------------------------|
B|---------------------------|---------------------------|---------------------------------|
G|---------------------------|---------------------------|---------------------------------|
D|-9----9----9---9-----------|---------------------------|---------------------------------|
A|-6----6----6---6-------7---|-7----7----7---7-------7---|-----7-------7-------7---4---4---|
E|-----------------------5---|-5----5----5---4-------5---|-----7-------5-------4---2---0---|


E|---------------------------|---------------------------------|---------------------------|
B|---------------------------|---------------------------------|---------------------------|
G|---------------------------|---------------------------------|---------------------------|
D|---------------------------|---------------------------------|---------------------------|
A|-4----4--------4-------7---|-7---7-------9---9---9-------2---|-2----2----2---2---2---5---|
E|-2----2--------2-------5---|-5---5-------7---7---7-------0---|-0----0----0---0---0---3---|


E|------------------------|-------------|--------------------|-------------|--------------------|
B|------------------------|-------------|--------------------|-------------|--------------------|
G|------------------------|-------------|--------------------|-------------|--------------------|
D|------------------------|-------------|--------------------|-------------|--------------------|
A|-5---5----7---7-----6---|-7-----------|------------6---7---|-7-----------|-----------6----2---|
E|-3---3----5---5-----4---|-5-----------|------------4---5---|-5-----------|-----------4----0---|


E|--------|----------------|-------------|--------------------|-------------|--------------------|
B|--------|----------------|-------------|--------------------|-------------|--------------------|
G|--------|----------------|-------------|--------------------|-------------|--------------------|
D|--------|----------------|-------------|--------------------|-------------|--------------------|
A|-2------|-2------6---7---|-7-----------|------------6---7---|-7-----------|-----------6----4---|
E|-0------|-0------4---5---|-5-----------|------------4---5---|-5-----------|-----------4----2---|


E|---------------------------|---------------------------|---------------------------------|
B|---------------------------|---------------------------|---------------------------------|
G|---------------------------|---------------------------|---------------------------------|
D|---------------------------|---------------------------|---------9-------9---9-------9---|
A|-4----4----4---4---4---4---|-7----7----7---7---7---7---|-9-------7-------7---7-------7---|
E|-2----2----2---2---2---2---|-5----5----5---5---5---5---|-7---7-------7-----------7-------|


E|---------------------------|---------------------------|---------------------------|
B|---------------------------|---------------------------|---------------------------|
G|---------------------------|---------------------------|---------------------------|
D|-----9-------9-------------|-9----9----9---9-------9---|-9----9----9---9-----------|
A|-----7-------7---9----9----|-7----7----7---7-------6---|-6----6----6---6-------7---|
E|-----------------7----7----|---------------------------|-----------------------5---|


E|---------------------------|---------------------------------|---------------------------|
B|---------------------------|---------------------------------|---------------------------|
G|---------------------------|---------------------------------|---------------------------|
D|---------------------------|---------------------------------|---------------------------|
A|-7----7----7---7-------7---|-----7-------7-------7---4---4---|-4----4--------4-------7---|
E|-5----5----5---4-------5---|-----7-------5-------4---2---0---|-2----2--------2-------5---|


E|---------------------------------|---------------------------|------------------------|
B|---------------------------------|---------------------------|------------------------|
G|---------------------------------|---------------------------|------------------------|
D|---------------------------------|---------------------------|------------------------|
A|-7---7-------9---9---9-------2---|-2----2----2---2---2---5---|-5---5----7---7----7----|
E|-5---5-------7---7---7-------0---|-0----0----0---0---0---3---|-3---3----5---5----5----|


E|---------------------------------|---------------------------------|---------------------------------|
B|---------------------------------|---------------------------------|---------------------------------|
G|---------------------------------|---------------------------------|---------------------------------|
D|---------7-----------6-----------|-----6---------------4-----------|---------5-----------4-----------|
A|-----7-----------7-----------6---|-6-----------6---6-------6-------|-----5-----------5-----------4---|
E|-0-----------0-----------0-------|---------0-------------------0---|-0-----------0-----------0-------|


E|---------------------------------|---------------------------|---------------------------------|
B|---------------------------------|---------------------------|---------------------------------|
G|---------0-------2---0-----------|---------------------------|---------------------------------|
D|-----2-------2-----------2-------|---------------------------|---------------------------------|
A|-4---------------------------4---|-4----4--------4-------7---|-7---7-------9---9---9-------2---|
E|---------------------------------|-2----2--------2-------5---|-5---5-------7---7---7-------0---|


E|---------------------------|------------------------|---------------------------|
B|---------------------------|------------------------|---------------------------|
G|---------------------------|------------------------|---------------------------|
D|---------------------------|------------------------|-9----9----9---9-------9---|
A|-2----2----2---2---2---5---|-5---5----7---7----7----|-7----7----7---7-------6---|
E|-0----0----0---0---0---3---|-3---3----5---5----5----|---------------------------|


E|---------------------------|---------------------------|---------------------------------|
B|---------------------------|---------------------------|---------------------------------|
G|---------------------------|---------------------------|---------------------------------|
D|-9----9----9---9-----------|---------------------------|---------------------------------|
A|-6----6----6---6-------7---|-7----7----7---7-------7---|-----7-------7-------7---4---4---|
E|-----------------------5---|-5----5----5---4-------5---|-----7-------5-------4---2---0---|


E|---------------------------|---------------------------------|---------------------------|
B|---------------------------|---------------------------------|---------------------------|
G|---------------------------|---------------------------------|---------------------------|
D|---------------------------|---------------------------------|---------------------------|
A|-4----4--------4-------7---|-7---7-------9---9---9-------2---|-2----2----2---2---2---5---|
E|-2----2--------2-------5---|-5---5-------7---7---7-------0---|-0----0----0---0---0---3---|


E|------------------------|---------------------------|---------------------------|
B|------------------------|---------------------------|---------------------------|
G|------------------------|---------------------------|---------------------------|
D|------------------------|-9----9----9---9-------9---|-9----9----9---9-----------|
A|-5---5----7---7-----6---|-7----7----7---7-------6---|-6----6----6---6-------7---|
E|-3---3----5---5-----4---|---------------------------|-----------------------5---|


E|---------------------------|---------------------------------|---------------------------|
B|---------------------------|---------------------------------|---------------------------|
G|---------------------------|---------------------------------|---------------------------|
D|---------------------------|---------------------------------|---------------------------|
A|-7----7----7---7-------7---|-----7-------7-------7---4---4---|-4----4--------4-------7---|
E|-5----5----5---4-------5---|-----7-------5-------4---2---0---|-2----2--------2-------5---|


E|---------------------------------|---------------------------|------------------------|
B|---------------------------------|---------------------------|------------------------|
G|---------------------------------|---------------------------|------------------------|
D|---------------------------------|---------------------------|------------------------|
A|-7---7-------9---9---9-------2---|-2----2----2---2---2---5---|-5---5----7---7----7----|
E|-5---5-------7---7---7-------0---|-0----0----0---0---0---3---|-3---3----5---5----5----|


E|---------------------------------|------------------------------|---------------------------------|
B|---------------------------------|------------------------------|---------------------------------|
G|---------------------------------|---------2---------------0----|---------------------------------|
D|---------2---------------0-------|-----2---------------2--------|---------2---------------0-------|
A|-----2---------------2-------0---|-0-----------3---3------------|-----2---------------2-------0---|
E|-0-----------0---3---------------|------------------------------|-0-----------0---3---------------|


E|------------------------------|---------------------------------|------------------------------|
B|------------------------------|---------------------------------|------------------------------|
G|---------2---------------0----|---------------------------------|---------2---------------0----|
D|-----2---------------2--------|---------2---------------0-------|-----2---------------2--------|
A|-0-----------3---3------------|-----2---------------2-------0---|-0-----------3---3------------|
E|------------------------------|-0-----------0---3---------------|------------------------------|


E|---------------------------------|------------------------------|---------------------------------|
B|---------------------------------|------------------------------|---------------------------------|
G|---------------------------------|---------2---------------0----|---------------------------------|
D|---------2---------------0-------|-----2---------------2--------|---------2---------------0-------|
A|-----2---------------2-------0---|-0-----------3---3------------|-----2---------------2-------0---|
E|-0-----------0---3---------------|------------------------------|-0-----------0---3---------------|


E|------------------------------|---------------------------------|------------------------------|
B|------------------------------|---------------------------------|------------------------------|
G|---------2---------------0----|---------------------------------|---------2---------------0----|
D|-----2---------------2--------|---------2---------------0-------|-----2---------------2--------|
A|-0-----------3---3------------|-----2---------------2-------0---|-0-----------3---3------------|
E|------------------------------|-0-----------0---3---------------|------------------------------|


E|---------------------------------|------------------------------|---------------------------------|
B|---------------------------------|------------------------------|---------------------------------|
G|---------------------------------|---------2---------------0----|---------------------------------|
D|---------2---------------0-------|-----2---------------2--------|---------2---------------0-------|
A|-----2---------------2-------0---|-0-----------3---3------------|-----2---------------2-------0---|
E|-0-----------0---3---------------|------------------------------|-0-----------0---3---------------|


E|------------------------------|-----------------|--------|
B|------------------------------|-----------------|--------|
G|---------2---------------0----|-----------------|--------|
D|-----2---------------2--------|-----------------|--------|
A|-0-----------3---3------------|-2---------------|--------|
E|------------------------------|-0---------------|--------|





Track 2: Slight Distortion

E|--------|--------|--------|--------|--------|--------|--------|--------|--------|
B|--------|--------|--------|--------|--------|--------|--------|--------|--------|
G|--------|--------|--------|--------|--------|--------|--------|--------|--------|
D|--------|--------|--------|--------|--------|--------|--------|--------|--------|
A|--------|--------|--------|--------|--------|--------|--------|--------|--------|
E|--------|--------|--------|--------|--------|--------|--------|--------|--------|


E|--------|--------|--------|--------|--------|--------|--------|--------|--------|
B|--------|--------|--------|--------|--------|--------|--------|--------|--------|
G|--------|--------|--------|--------|--------|--------|--------|--------|--------|
D|--------|--------|--------|--------|--------|--------|--------|--------|--------|
A|--------|--------|--------|--------|--------|--------|--------|--------|--------|
E|--------|--------|--------|--------|--------|--------|--------|--------|--------|


E|--------|--------|--------|--------|--------|--------|--------|--------|--------|
B|--------|--------|--------|--------|--------|--------|--------|--------|--------|
G|--------|--------|--------|--------|--------|--------|--------|--------|--------|
D|--------|--------|--------|--------|--------|--------|--------|--------|--------|
A|--------|--------|--------|--------|--------|--------|--------|--------|--------|
E|--------|--------|--------|--------|--------|--------|--------|--------|--------|


E|--------|--------|--------|--------|--------|--------|--------|--------|--------|
B|--------|--------|--------|--------|--------|--------|--------|--------|--------|
G|--------|--------|--------|--------|--------|--------|--------|--------|--------|
D|--------|--------|--------|--------|--------|--------|--------|--------|--------|
A|--------|--------|--------|--------|--------|--------|--------|--------|--------|
E|--------|--------|--------|--------|--------|--------|--------|--------|--------|


E|--------|--------|--------|--------|--------|--------|--------|--------|--------|
B|--------|--------|--------|--------|--------|--------|--------|--------|--------|
G|--------|--------|--------|--------|--------|--------|--------|--------|--------|
D|--------|--------|--------|--------|--------|--------|--------|--------|--------|
A|--------|--------|--------|--------|--------|--------|--------|--------|--------|
E|--------|--------|--------|--------|--------|--------|--------|--------|--------|


E|--------|--------|--------|--------|--------|--------|--------|--------|--------|
B|--------|--------|--------|--------|--------|--------|--------|--------|--------|
G|--------|--------|--------|--------|--------|--------|--------|--------|--------|
D|--------|--------|--------|--------|--------|--------|--------|--------|--------|
A|--------|--------|--------|--------|--------|--------|--------|--------|--------|
E|--------|--------|--------|--------|--------|--------|--------|--------|--------|


E|--------|--------|--------|--------|--------|--------|--------|--------|--------|
B|--------|--------|--------|--------|--------|--------|--------|--------|--------|
G|--------|--------|--------|--------|--------|--------|--------|--------|--------|
D|--------|--------|--------|--------|--------|--------|--------|--------|--------|
A|--------|--------|--------|--------|--------|--------|--------|--------|--------|
E|--------|--------|--------|--------|--------|--------|--------|--------|--------|


E|--------|--------|--------|--------|--------|--------|--------|--------|--------|
B|--------|--------|--------|--------|--------|--------|--------|--------|--------|
G|--------|--------|--------|--------|--------|--------|--------|--------|--------|
D|--------|--------|--------|--------|--------|--------|--------|--------|--------|
A|--------|--------|--------|--------|--------|--------|--------|--------|--------|
E|--------|--------|--------|--------|--------|--------|--------|--------|--------|


E|--------|--------|--------|--------|--------|--------|--------|--------|--------|
B|--------|--------|--------|--------|--------|--------|--------|--------|--------|
G|--------|--------|--------|--------|--------|--------|--------|--------|--------|
D|--------|--------|--------|--------|--------|--------|--------|--------|--------|
A|--------|--------|--------|--------|--------|--------|--------|--------|--------|
E|--------|--------|--------|--------|--------|--------|--------|--------|--------|


E|--------|--------|--------|--------|--------|--------|--------|--------|--------|
B|--------|--------|--------|--------|--------|--------|--------|--------|--------|
G|--------|--------|--------|--------|--------|--------|--------|--------|--------|
D|--------|--------|--------|--------|--------|--------|--------|--------|--------|
A|--------|--------|--------|--------|--------|--------|--------|--------|--------|
E|--------|--------|--------|--------|--------|--------|--------|--------|--------|


E|--------|--------|--------|--------|--------|--------|--------|--------|--------|
B|--------|--------|--------|--------|--------|--------|--------|--------|--------|
G|--------|--------|--------|--------|--------|--------|--------|--------|--------|
D|--------|--------|--------|--------|--------|--------|--------|--------|--------|
A|--------|--------|--------|--------|--------|--------|--------|--------|--------|
E|--------|--------|--------|--------|--------|--------|--------|--------|--------|


E|--------|--------|--------|--------|--------|--------|--------|--------|--------|
B|--------|--------|--------|--------|--------|--------|--------|--------|--------|
G|--------|--------|--------|--------|--------|--------|--------|--------|--------|
D|--------|--------|--------|--------|--------|--------|--------|--------|--------|
A|--------|--------|--------|--------|--------|--------|--------|--------|--------|
E|--------|--------|--------|--------|--------|--------|--------|--------|--------|


E|--------|--------|--------|--------|--------|--------|--------|--------|--------|
B|--------|--------|--------|--------|--------|--------|--------|--------|--------|
G|--------|--------|--------|--------|--------|--------|--------|--------|--------|
D|--------|--------|--------|--------|--------|--------|--------|--------|--------|
A|--------|--------|--------|--------|--------|--------|--------|--------|--------|
E|--------|--------|--------|--------|--------|--------|--------|--------|--------|


E|--------|--------|--------|--------|--------|--------|--------|--------|--------|
B|--------|--------|--------|--------|--------|--------|--------|--------|--------|
G|--------|--------|--------|--------|--------|--------|--------|--------|--------|
D|--------|--------|--------|--------|--------|--------|--------|--------|--------|
A|--------|--------|--------|--------|--------|--------|--------|--------|--------|
E|--------|--------|--------|--------|--------|--------|--------|--------|--------|


E|--------|--------|--------|--------|--------|--------|--------|--------|--------|
B|--------|--------|--------|--------|--------|--------|--------|--------|--------|
G|--------|--------|--------|--------|--------|--------|--------|--------|--------|
D|--------|--------|--------|--------|--------|--------|--------|--------|--------|
A|--------|--------|--------|--------|--------|--------|--------|--------|--------|
E|--------|--------|--------|--------|--------|--------|--------|--------|--------|


E|--------|--------|--------|--------|--------|--------|--------|
B|--------|--------|--------|--------|--------|--------|--------|
G|--------|--------|--------|--------|--------|--------|--------|
D|--------|--------|--------|--------|--------|--------|--------|
A|--------|--------|--------|--------|--------|--------|--------|
E|--------|--------|--------|--------|--------|--------|--------|





Track 3: Distortion

E|--------|--------|--------|--------|--------|--------|--------|--------|--------|
B|--------|--------|--------|--------|--------|--------|--------|--------|--------|
G|--------|--------|--------|--------|--------|--------|--------|--------|--------|
D|--------|--------|--------|--------|--------|--------|--------|--------|--------|
A|--------|--------|--------|--------|--------|--------|--------|--------|--------|
E|--------|--------|--------|--------|--------|--------|--------|--------|--------|


E|--------|--------|--------|--------|--------|--------|--------|--------|--------|
B|--------|--------|--------|--------|--------|--------|--------|--------|--------|
G|--------|--------|--------|--------|--------|--------|--------|--------|--------|
D|--------|--------|--------|--------|--------|--------|--------|--------|--------|
A|--------|--------|--------|--------|--------|--------|--------|--------|--------|
E|--------|--------|--------|--------|--------|--------|--------|--------|--------|


E|--------|--------|--------|--------|--------|--------|--------|--------|--------|
B|--------|--------|--------|--------|--------|--------|--------|--------|--------|
G|--------|--------|--------|--------|--------|--------|--------|--------|--------|
D|--------|--------|--------|--------|--------|--------|--------|--------|--------|
A|--------|--------|--------|--------|--------|--------|--------|--------|--------|
E|--------|--------|--------|--------|--------|--------|--------|--------|--------|


E|--------|--------|--------|--------|-----------------------|-----------------------|
B|--------|--------|--------|--------|---------------5---6---|-----5-------3---3-----|
G|--------|--------|--------|--------|-----------4-----------|-----------------------|
D|--------|--------|--------|--------|-------6---------------|-----------------------|
A|--------|--------|--------|--------|-----------------------|-----------------------|
E|--------|--------|--------|--------|-----------------------|-----------------------|


E|--------|--------|--------|--------|--------|--------|--------|--------|--------|
B|--------|--------|--------|--------|--------|--------|--------|--------|--------|
G|--------|--------|--------|--------|--------|--------|--------|--------|--------|
D|--------|--------|--------|--------|--------|--------|--------|--------|--------|
A|--------|--------|--------|--------|--------|--------|--------|--------|--------|
E|--------|--------|--------|--------|--------|--------|--------|--------|--------|


E|--------|--------|--------|--------|--------|--------|--------|--------|--------|
B|--------|--------|--------|--------|--------|--------|--------|--------|--------|
G|--------|--------|--------|--------|--------|--------|--------|--------|--------|
D|--------|--------|--------|--------|--------|--------|--------|--------|--------|
A|--------|--------|--------|--------|--------|--------|--------|--------|--------|
E|--------|--------|--------|--------|--------|--------|--------|--------|--------|


E|--------|--------|--------|--------|--------|--------|--------|--------|--------|
B|--------|--------|--------|--------|--------|--------|--------|--------|--------|
G|--------|--------|--------|--------|--------|--------|--------|--------|--------|
D|--------|--------|--------|--------|--------|--------|--------|--------|--------|
A|--------|--------|--------|--------|--------|--------|--------|--------|--------|
E|--------|--------|--------|--------|--------|--------|--------|--------|--------|


E|--------|--------|--------|--------|--------|--------|--------|--------|-----------------------|
B|--------|--------|--------|--------|--------|--------|--------|--------|---------------17--19--|
G|--------|--------|--------|--------|--------|--------|--------|--------|-----------16----------|
D|--------|--------|--------|--------|--------|--------|--------|--------|-------18--------------|
A|--------|--------|--------|--------|--------|--------|--------|--------|-----------------------|
E|--------|--------|--------|--------|--------|--------|--------|--------|-----------------------|


E|-----14------12--12----|--------|--------|--------|--------|--------|--------|-----------------------|
B|-----17------15--15----|--------|--------|--------|--------|--------|--------|---------------5---6---|
G|-----------------------|--------|--------|--------|--------|--------|--------|-----------4-----------|
D|-----------------------|--------|--------|--------|--------|--------|--------|-------6---------------|
A|-----------------------|--------|--------|--------|--------|--------|--------|-----------------------|
E|-----------------------|--------|--------|--------|--------|--------|--------|-----------------------|


E|-----------------------|------------------------------|------------------------------|
B|-----5-------3---3-----|------------------------------|------------------------------|
G|-----------------------|------------------------------|------------------------------|
D|-----------------------|---------6-----------4--------|---------6-----------4--------|
A|-----------------------|-----4-----------4------------|-----4-----------4------------|
E|-----------------------|-5-----------5----------------|-5-----------5----------------|


E|------------------------------|------------------------------|--------|--------|
B|------------------------------|------------------------------|--------|--------|
G|------------------------------|------------------------------|--------|--------|
D|---------6-----------4--------|---------6-----------4--------|--------|--------|
A|-----4-----------4------------|-----4-----------4------------|--------|--------|
E|-5-----------5----------------|-5-----------5----------------|--------|--------|


E|------------------------------|------------------------------|------------------------------|
B|------------------------------|------------------------------|------------------------------|
G|------------------------------|------------------------------|------------------------------|
D|---------6-----------4--------|---------6-----------4--------|---------6-----------4--------|
A|-----4-----------4------------|-----4-----------4------------|-----4-----------4------------|
E|-5-----------5----------------|-5-----------5----------------|-5-----------5----------------|


E|------------------------------|--------|--------|--------|--------|--------|--------|
B|------------------------------|--------|--------|--------|--------|--------|--------|
G|------------------------------|--------|--------|--------|--------|--------|--------|
D|---------6-----------4--------|--------|--------|--------|--------|--------|--------|
A|-----4-----------4------------|--------|--------|--------|--------|--------|--------|
E|-5-----------5----------------|--------|--------|--------|--------|--------|--------|


E|--------|--------|--------|--------|-----------------------|-----------------------|
B|--------|--------|--------|--------|---------------5---6---|-----5-------3---3-----|
G|--------|--------|--------|--------|-----------4-----------|-----------------------|
D|--------|--------|--------|--------|-------6---------------|-----------------------|
A|--------|--------|--------|--------|-----------------------|-----------------------|
E|--------|--------|--------|--------|-----------------------|-----------------------|


E|--------|--------|--------|--------|--------|--------|-----------------------|-----14------12--12----|
B|--------|--------|--------|--------|--------|--------|---------------17--19--|-----17------15--15----|
G|--------|--------|--------|--------|--------|--------|-----------16----------|-----------------------|
D|--------|--------|--------|--------|--------|--------|-------18--------------|-----------------------|
A|--------|--------|--------|--------|--------|--------|-----------------------|-----------------------|
E|--------|--------|--------|--------|--------|--------|-----------------------|-----------------------|


E|--------|--------|--------|--------|--------|--------|-----------------------|-----14--------------12---12--|
B|--------|--------|--------|--------|--------|--------|---------------17--19--|-----17------15------15---15--|
G|--------|--------|--------|--------|--------|--------|-----------16----------|------------------------------|
D|--------|--------|--------|--------|--------|--------|-------18--------------|------------------------------|
A|--------|--------|--------|--------|--------|--------|-----------------------|------------------------------|
E|--------|--------|--------|--------|--------|--------|-----------------------|------------------------------|


E|-12-----|-11---14--14--14--------|------------------------|-----------------------|
B|-15-----|--------------------12--|-12--12----12--12---12--|---------------9---12--|
G|--------|------------------------|------------------------|-9-----9---11----------|
D|--------|------------------------|------------------------|-----------------------|
A|--------|------------------------|------------------------|-----------------------|
E|--------|------------------------|------------------------|-----------------------|


E|------------9---|-9-----11--11----12--|-12-----12------|-------------------17---17---|
B|-12-----12--12--|-12----14--14----15--|-15-----15------|-----------------------------|
G|----------------|---------------------|------------12--|-----12----------------------|
D|----------------|---------------------|------------12--|-----12----------------------|
A|----------------|---------------------|----------------|-14-------14--14-------------|
E|----------------|---------------------|----------------|-----------------------------|


E|-17----17---17---17---|-17----17---17---17---|-17---17---17---17---17---17---|-17----17----17--|
B|----------------------|----------------------|-------------------------------|-----------------|
G|----------------------|----------------------|-------------------------------|-----------------|
D|----------------------|----------------------|-------------------------------|-----------------|
A|----------------------|----------------------|-------------------------------|-----------------|
E|----------------------|----------------------|-------------------------------|-----------------|


E|-15---12-----------------------|-------------------------------|----------------------|
B|-----------15---12-------------|-------------------------------|-12----12---12---12---|
G|---------------------15---14---|-12------------------12--------|-14----14---14---14---|
D|-------------------------------|------14---12---14--------14---|----------------------|
A|-------------------------------|-------------------------------|----------------------|
E|-------------------------------|-------------------------------|----------------------|


E|--------|-12-10---------12-10-10--------12-10-----|-----12-10---------12-10---------12-10-|
B|-12-----|--------12-10-----------12-10---------12-|-10---------12-10---------12-10--------|
G|-14-----|-----------------------------------------|---------------------------------------|
D|--------|-----------------------------------------|---------------------------------------|
A|--------|-----------------------------------------|---------------------------------------|
E|--------|-----------------------------------------|---------------------------------------|


E|-10------------------------------------|----------------------------------|-------------------------------|
B|----12-10---------12-10----------------|----------------------------------|-------------------------------|
G|-----------12-9----------12-9----------|----------------------------------|-------------------------------|
D|--------------------------------12-9---|----------------------------------|--------------------------12---|
A|---------------------------------------|-12-10----------------------------|-----------12---13---14--------|
E|---------------------------------------|--------12-10--7--5---3--0---0----|-12---15-----------------------|


E|-------------------------------|-12-15-12-------12-15-12-------12-15-12-------12-15-12-------|
B|---------------------12---15---|----------15-12----------15-12----------15-12----------15-12-|
G|------12---14---15-------------|-------------------------------------------------------------|
D|-14----------------------------|-------------------------------------------------------------|
A|-------------------------------|-------------------------------------------------------------|
E|-------------------------------|-------------------------------------------------------------|


E|-12-15-12-------12-15-12-------12-15-12-------12-15-12-------|--------|--------|
B|----------15-12----------15-12----------15-12----------15-12-|--------|--------|
G|-------------------------------------------------------------|--------|--------|
D|-------------------------------------------------------------|--------|--------|
A|-------------------------------------------------------------|--------|--------|
E|-------------------------------------------------------------|-24-----|--------|





Track 4: Slight Distortion

E|--------|--------|--------|--------|--------|--------|--------|--------|--------|
B|--------|--------|--------|--------|--------|--------|--------|--------|--------|
G|--------|--------|--------|--------|--------|--------|--------|--------|--------|
D|--------|--------|--------|--------|--------|--------|--------|--------|--------|
A|--------|--------|--------|--------|--------|--------|--------|--------|--------|
E|--------|--------|--------|--------|--------|--------|--------|--------|--------|


E|--------|--------|--------|--------|--------|--------|--------|--------|--------|
B|--------|--------|--------|--------|--------|--------|--------|--------|--------|
G|--------|--------|--------|--------|--------|--------|--------|--------|--------|
D|--------|--------|--------|--------|--------|--------|--------|--------|--------|
A|--------|--------|--------|--------|--------|--------|--------|--------|--------|
E|--------|--------|--------|--------|--------|--------|--------|--------|--------|


E|--------|--------|--------|--------|--------|--------|--------|--------|--------|
B|--------|--------|--------|--------|--------|--------|--------|--------|--------|
G|--------|--------|--------|--------|--------|--------|--------|--------|--------|
D|--------|--------|--------|--------|--------|--------|--------|--------|--------|
A|--------|--------|--------|--------|--------|--------|--------|--------|--------|
E|--------|--------|--------|--------|--------|--------|--------|--------|--------|


E|--------|--------|--------|--------|--------|--------|--------|--------|--------|
B|--------|--------|--------|--------|--------|--------|--------|--------|--------|
G|--------|--------|--------|--------|--------|--------|--------|--------|--------|
D|--------|--------|--------|--------|--------|--------|--------|--------|--------|
A|--------|--------|--------|--------|--------|--------|--------|--------|--------|
E|--------|--------|--------|--------|--------|--------|--------|--------|--------|


E|--------|--------|--------|--------|--------|--------|--------|--------|--------|
B|--------|--------|--------|--------|--------|--------|--------|--------|--------|
G|--------|--------|--------|--------|--------|--------|--------|--------|--------|
D|--------|--------|--------|--------|--------|--------|--------|--------|--------|
A|--------|--------|--------|--------|--------|--------|--------|--------|--------|
E|--------|--------|--------|--------|--------|--------|--------|--------|--------|


E|--------|--------|--------|--------|--------|--------|--------|--------|--------|
B|--------|--------|--------|--------|--------|--------|--------|--------|--------|
G|--------|--------|--------|--------|--------|--------|--------|--------|--------|
D|--------|--------|--------|--------|--------|--------|--------|--------|--------|
A|--------|--------|--------|--------|--------|--------|--------|--------|--------|
E|--------|--------|--------|--------|--------|--------|--------|--------|--------|


E|--------|--------|--------|--------|--------|--------|--------|--------|--------|
B|--------|--------|--------|--------|--------|--------|--------|--------|--------|
G|--------|--------|--------|--------|--------|--------|--------|--------|--------|
D|--------|--------|--------|--------|--------|--------|--------|--------|--------|
A|--------|--------|--------|--------|--------|--------|--------|--------|--------|
E|--------|--------|--------|--------|--------|--------|--------|--------|--------|


E|--------|--------|--------|--------|--------|--------|--------|--------|--------|
B|--------|--------|--------|--------|--------|--------|--------|--------|--------|
G|--------|--------|--------|--------|--------|--------|--------|--------|--------|
D|--------|--------|--------|--------|--------|--------|--------|--------|--------|
A|--------|--------|--------|--------|--------|--------|--------|--------|--------|
E|--------|--------|--------|--------|--------|--------|--------|--------|--------|


E|--------|--------|--------|--------|--------|--------|--------|--------|--------|
B|--------|--------|--------|--------|--------|--------|--------|--------|--------|
G|--------|--------|--------|--------|--------|--------|--------|--------|--------|
D|--------|--------|--------|--------|--------|--------|--------|--------|--------|
A|--------|--------|--------|--------|--------|--------|--------|--------|--------|
E|--------|--------|--------|--------|--------|--------|--------|--------|--------|


E|--------|--------|--------|--------|--------|--------|--------|--------|--------|
B|--------|--------|--------|--------|--------|--------|--------|--------|--------|
G|--------|--------|--------|--------|--------|--------|--------|--------|--------|
D|--------|--------|--------|--------|--------|--------|--------|--------|--------|
A|--------|--------|--------|--------|--------|--------|--------|--------|--------|
E|--------|--------|--------|--------|--------|--------|--------|--------|--------|


E|--------|--------|--------|--------|--------|--------|--------|--------|--------|
B|--------|--------|--------|--------|--------|--------|--------|--------|--------|
G|--------|--------|--------|--------|--------|--------|--------|--------|--------|
D|--------|--------|--------|--------|--------|--------|--------|--------|--------|
A|--------|--------|--------|--------|--------|--------|--------|--------|--------|
E|--------|--------|--------|--------|--------|--------|--------|--------|--------|


E|--------|--------|--------|--------|--------|--------|--------|--------|--------|
B|--------|--------|--------|--------|--------|--------|--------|--------|--------|
G|--------|--------|--------|--------|--------|--------|--------|--------|--------|
D|--------|--------|--------|--------|--------|--------|--------|--------|--------|
A|--------|--------|--------|--------|--------|--------|--------|--------|--------|
E|--------|--------|--------|--------|--------|--------|--------|--------|--------|


E|--------|--------|--------|--------|--------|--------|--------|--------|--------|
B|--------|--------|--------|--------|--------|--------|--------|--------|--------|
G|--------|--------|--------|--------|--------|--------|--------|--------|--------|
D|--------|--------|--------|--------|--------|--------|--------|--------|--------|
A|--------|--------|--------|--------|--------|--------|--------|--------|--------|
E|--------|--------|--------|--------|--------|--------|--------|--------|--------|


E|--------|--------|--------|--------|--------|--------|--------|--------|--------|
B|--------|--------|--------|--------|--------|--------|--------|--------|--------|
G|--------|--------|--------|--------|--------|--------|--------|--------|--------|
D|--------|--------|--------|--------|--------|--------|--------|--------|--------|
A|--------|--------|--------|--------|--------|--------|--------|--------|--------|
E|--------|--------|--------|--------|--------|--------|--------|--------|--------|


E|--------|--------|--------|--------|--------|--------|--------|--------|--------|
B|--------|--------|--------|--------|--------|--------|--------|--------|--------|
G|--------|--------|--------|--------|--------|--------|--------|--------|--------|
D|--------|--------|--------|--------|--------|--------|--------|--------|--------|
A|--------|--------|--------|--------|--------|--------|--------|--------|--------|
E|--------|--------|--------|--------|--------|--------|--------|--------|--------|


E|--------|--------|--------|--------|--------|--------|--------|
B|--------|--------|--------|--------|--------|--------|--------|
G|--------|--------|--------|--------|--------|--------|--------|
D|--------|--------|--------|--------|--------|--------|--------|
A|--------|--------|--------|--------|--------|--------|--------|
E|--------|--------|--------|--------|--------|--------|--------|





Track 5: Lead Guitar

E|--------|--------|--------|--------|--------|--------|--------|--------|--------|
B|--------|--------|--------|--------|--------|--------|--------|--------|--------|
G|--------|--------|--------|--------|--------|--------|--------|--------|--------|
D|--------|--------|--------|--------|--------|--------|--------|--------|--------|
A|--------|--------|--------|--------|--------|--------|--------|--------|--------|
E|--------|--------|--------|--------|--------|--------|--------|--------|--------|


E|--------|--------|--------|--------|--------|--------|--------|--------|--------|
B|--------|--------|--------|--------|--------|--------|--------|--------|--------|
G|--------|--------|--------|--------|--------|--------|--------|--------|--------|
D|--------|--------|--------|--------|--------|--------|--------|--------|--------|
A|--------|--------|--------|--------|--------|--------|--------|--------|--------|
E|--------|--------|--------|--------|--------|--------|--------|--------|--------|


E|--------|--------|--------|--------|--------|--------|--------|--------|--------|
B|--------|--------|--------|--------|--------|--------|--------|--------|--------|
G|--------|--------|--------|--------|--------|--------|--------|--------|--------|
D|--------|--------|--------|--------|--------|--------|--------|--------|--------|
A|--------|--------|--------|--------|--------|--------|--------|--------|--------|
E|--------|--------|--------|--------|--------|--------|--------|--------|--------|


E|--------|--------|--------|--------|--------|--------|--------|--------|--------|
B|--------|--------|--------|--------|--------|--------|--------|--------|--------|
G|--------|--------|--------|--------|--------|--------|--------|--------|--------|
D|--------|--------|--------|--------|--------|--------|--------|--------|--------|
A|--------|--------|--------|--------|--------|--------|--------|--------|--------|
E|--------|--------|--------|--------|--------|--------|--------|--------|--------|


E|--------|--------|--------|--------|--------|--------|--------|--------|--------|
B|--------|--------|--------|--------|--------|--------|--------|--------|--------|
G|--------|--------|--------|--------|--------|--------|--------|--------|--------|
D|--------|--------|--------|--------|--------|--------|--------|--------|--------|
A|--------|--------|--------|--------|--------|--------|--------|--------|--------|
E|--------|--------|--------|--------|--------|--------|--------|--------|--------|


E|--------|--------|--------|--------|--------|--------|--------|--------|--------|
B|--------|--------|--------|--------|--------|--------|--------|--------|--------|
G|--------|--------|--------|--------|--------|--------|--------|--------|--------|
D|--------|--------|--------|--------|--------|--------|--------|--------|--------|
A|--------|--------|--------|--------|--------|--------|--------|--------|--------|
E|--------|--------|--------|--------|--------|--------|--------|--------|--------|


E|--------|--------|--------|--------|--------|--------|--------|--------|--------|
B|--------|--------|--------|--------|--------|--------|--------|--------|--------|
G|--------|--------|--------|--------|--------|--------|--------|--------|--------|
D|--------|--------|--------|--------|--------|--------|--------|--------|--------|
A|--------|--------|--------|--------|--------|--------|--------|--------|--------|
E|--------|--------|--------|--------|--------|--------|--------|--------|--------|


E|--------|--------|--------|--------|--------|--------|--------|--------|--------|
B|--------|--------|--------|--------|--------|--------|--------|--------|--------|
G|--------|--------|--------|--------|--------|--------|--------|--------|--------|
D|--------|--------|--------|--------|--------|--------|--------|--------|--------|
A|--------|--------|--------|--------|--------|--------|--------|--------|--------|
E|--------|--------|--------|--------|--------|--------|--------|--------|--------|


E|--------|--------|--------|--------|--------|--------|---------------------------------|
B|--------|--------|--------|--------|--------|--------|---------------------------------|
G|--------|--------|--------|--------|--------|--------|---------------------------------|
D|--------|--------|--------|--------|--------|--------|---------6-----------4---4---4---|
A|--------|--------|--------|--------|--------|--------|-----4---------------------------|
E|--------|--------|--------|--------|--------|--------|-5-----------5-------------------|


E|---------------------------|---------------------------|------------------------|
B|---------------------------|---------------------------|------------------------|
G|---------------------------|---------------------------|------------------------|
D|-----4-------6---6---------|---------------4---4---4---|-4---6------------------|
A|---------------------------|---------------------------|----------7----6----7---|
E|----------------------24---|-19---12-------------------|------------------------|


E|------------0---|-0---0---0---0---0---0---0---0---|-0-----0---------------|---------------------------|
B|------------5---|-5---4---4---2---2---0---0---0---|-0-----0---------------|---------------------------|
G|----------------|-----------------------------2---|-2-----2---4---4---4---|-4-------------------------|
D|----------------|---------------------------------|-----------------------|-----7---6---7---7---------|
A|-7------7-------|---------------------------------|-----------------------|---------------------------|
E|----------------|---------------------------------|-----------------------|---------------------24----|


E|-----------------------|------------------------|------------------------|----------17---16--14------|
B|-----------------------|------------------------|------------------------|-----------------------17--|
G|-----------4---4---4---|-4---6------------------|-------14---13--11------|-11---11-------------------|
D|-----------------------|----------7----6----4---|-4------------------14--|---------------------------|
A|-----------------------|------------------------|------------------------|---------------------------|
E|-16----12--------------|------------------------|------------------------|---------------------------|


E|-14----17--17--------|--------------------------|--------|--------|--------|--------|
B|-17----20--20----22--|-22----22--22---22---22---|--------|--------|--------|--------|
G|---------------------|--------------------------|--------|--------|--------|--------|
D|---------------------|--------------------------|--------|--------|--------|--------|
A|---------------------|--------------------------|--------|--------|--------|--------|
E|---------------------|--------------------------|--------|--------|--------|--------|


E|--------|--------|--------|--------|--------|--------|--------|--------|--------|
B|--------|--------|--------|--------|--------|--------|--------|--------|--------|
G|--------|--------|--------|--------|--------|--------|--------|--------|--------|
D|--------|--------|--------|--------|--------|--------|--------|--------|--------|
A|--------|--------|--------|--------|--------|--------|--------|--------|--------|
E|--------|--------|--------|--------|--------|--------|--------|--------|--------|


E|--------|--------|--------|--------|--------|--------|--------|--------|--------|
B|--------|--------|--------|--------|--------|--------|--------|--------|--------|
G|--------|--------|--------|--------|--------|--------|--------|--------|--------|
D|--------|--------|--------|--------|--------|--------|--------|--------|--------|
A|--------|--------|--------|--------|--------|--------|--------|--------|--------|
E|--------|--------|--------|--------|--------|--------|--------|--------|--------|


E|--------|--------|--------|--------|--------|--------|--------|--------|--------|
B|--------|--------|--------|--------|--------|--------|--------|--------|--------|
G|--------|--------|--------|--------|--------|--------|--------|--------|--------|
D|--------|--------|--------|--------|--------|--------|--------|--------|--------|
A|--------|--------|--------|--------|--------|--------|--------|--------|--------|
E|--------|--------|--------|--------|--------|--------|--------|--------|--------|


E|--------|--------|--------|--------|--------|--------|--------|--------|--------|
B|--------|--------|--------|--------|--------|--------|--------|--------|--------|
G|--------|--------|--------|--------|--------|--------|--------|--------|--------|
D|--------|--------|--------|--------|--------|--------|--------|--------|--------|
A|--------|--------|--------|--------|--------|--------|--------|--------|--------|
E|--------|--------|--------|--------|--------|--------|--------|--------|--------|


E|--------|--------|--------|--------|--------|--------|--------|--------|--------|
B|--------|--------|--------|--------|--------|--------|--------|--------|--------|
G|--------|--------|--------|--------|--------|--------|--------|--------|--------|
D|--------|--------|--------|--------|--------|--------|--------|--------|--------|
A|--------|--------|--------|--------|--------|--------|--------|--------|--------|
E|--------|--------|--------|--------|--------|--------|--------|--------|--------|


E|--------|
B|--------|
G|--------|
D|--------|
A|--------|
E|--------|





Track 6: Untitled

G|--------|--------|--------|--------|--------|--------|--------|--------|--------|
D|--------|--------|--------|--------|--------|--------|--------|--------|--------|
A|--------|--------|--------|--------|--------|--------|--------|--------|--------|
E|--------|--------|--------|--------|--------|--------|--------|--------|--------|


G|--------|--------|--------|--------|--------|--------|--------|--------|--------|
D|--------|--------|--------|--------|--------|--------|--------|--------|--------|
A|--------|--------|--------|--------|--------|--------|--------|--------|--------|
E|--------|--------|--------|--------|--------|--------|--------|--------|--------|


G|--------|--------|--------|--------|--------|--------|--------|--------|--------|
D|--------|--------|--------|--------|--------|--------|--------|--------|--------|
A|--------|--------|--------|--------|--------|--------|--------|--------|--------|
E|--------|--------|--------|--------|--------|--------|--------|--------|--------|


G|--------|--------|--------|--------|--------|--------|--------|--------|--------|
D|--------|--------|--------|--------|--------|--------|--------|--------|--------|
A|--------|--------|--------|--------|--------|--------|--------|--------|--------|
E|--------|--------|--------|--------|--------|--------|--------|--------|--------|


G|--------|--------|--------|--------|--------|--------|--------|--------|--------|
D|--------|--------|--------|--------|--------|--------|--------|--------|--------|
A|--------|--------|--------|--------|--------|--------|--------|--------|--------|
E|--------|--------|--------|--------|--------|--------|--------|--------|--------|


G|--------|--------|--------|--------|--------|--------|--------|--------|--------|
D|--------|--------|--------|--------|--------|--------|--------|--------|--------|
A|--------|--------|--------|--------|--------|--------|--------|--------|--------|
E|--------|--------|--------|--------|--------|--------|--------|--------|--------|


G|--------|--------|--------|--------|--------|--------|--------|--------|--------|
D|--------|--------|--------|--------|--------|--------|--------|--------|--------|
A|--------|--------|--------|--------|--------|--------|--------|--------|--------|
E|--------|--------|--------|--------|--------|--------|--------|--------|--------|


G|--------|--------|--------|--------|--------|--------|--------|--------|--------|
D|--------|--------|--------|--------|--------|--------|--------|--------|--------|
A|--------|--------|--------|--------|--------|--------|--------|--------|--------|
E|--------|--------|--------|--------|--------|--------|--------|--------|--------|


G|--------|--------|--------|--------|--------|--------|--------|--------|--------|
D|--------|--------|--------|--------|--------|--------|--------|--------|--------|
A|--------|--------|--------|--------|--------|--------|--------|--------|--------|
E|--------|--------|--------|--------|--------|--------|--------|--------|--------|


G|--------|--------|--------|--------|--------|--------|--------|--------|--------|
D|--------|--------|--------|--------|--------|--------|--------|--------|--------|
A|--------|--------|--------|--------|--------|--------|--------|--------|--------|
E|--------|--------|--------|--------|--------|--------|--------|--------|--------|


G|--------|--------|--------|--------|--------|--------|--------|--------|--------|
D|--------|--------|--------|--------|--------|--------|--------|--------|--------|
A|--------|--------|--------|--------|--------|--------|--------|--------|--------|
E|--------|--------|--------|--------|--------|--------|--------|--------|--------|


G|--------|--------|--------|--------|--------|--------|--------|--------|--------|
D|--------|--------|--------|--------|--------|--------|--------|--------|--------|
A|--------|--------|--------|--------|--------|--------|--------|--------|--------|
E|--------|--------|--------|--------|--------|--------|--------|--------|--------|


G|--------|--------|--------|--------|--------|--------|--------|--------|--------|
D|--------|--------|--------|--------|--------|--------|--------|--------|--------|
A|--------|--------|--------|--------|--------|--------|--------|--------|--------|
E|--------|--------|--------|--------|--------|--------|--------|--------|--------|


G|--------|--------|--------|--------|--------|--------|--------|--------|--------|
D|--------|--------|--------|--------|--------|--------|--------|--------|--------|
A|--------|--------|--------|--------|--------|--------|--------|--------|--------|
E|--------|--------|--------|--------|--------|--------|--------|--------|--------|


G|--------|--------|--------|--------|--------|--------|--------|--------|--------|
D|--------|--------|--------|--------|--------|--------|--------|--------|--------|
A|--------|--------|--------|--------|--------|--------|--------|--------|--------|
E|--------|--------|--------|--------|--------|--------|--------|--------|--------|


G|--------|--------|--------|--------|--------|--------|--------|
D|--------|--------|--------|--------|--------|--------|--------|
A|--------|--------|--------|--------|--------|--------|--------|
E|--------|--------|--------|--------|--------|--------|--------|