Menu:

 

Search:

 

megadeth - blood of heroes:

 



Title: Dave Mustaine
Artist: 
Album: Youthanasia
Author: Dave Mustaine


Track 1: Untitled

D#|---------------------------|---------------------------------|---------------------------|
A#|-------------0-------------|-------------0-----------0-------|-------------0-------------|
F#|---------5-------5---------|---------5-------5-----------5---|---------5-------5---------|
C#|-----7---------------7-----|-----7---------------7-----------|-----7---------------7-----|
G#|-0-------------------------|-0-------------------------------|-0-------------------------|
D#|---------------------------|---------------------------------|---------------------------|


D#|---------------------------------|---------------------------|---------------------------------|
A#|-------------0-----------0-------|-------------0-------------|-------------0-----------0-------|
F#|---------5-------5-----------5---|---------5-------5---------|---------5-------5-----------5---|
C#|-----7---------------7-----------|-----7---------------7-----|-----7---------------7-----------|
G#|-0-------------------------------|-0-------------------------|-0-------------------------------|
D#|---------------------------------|---------------------------|---------------------------------|


D#|---------------------------|---------------------------------|--------|--------|
A#|-------------0-------------|-------------0-----------0-------|--------|--------|
F#|---------5-------5---------|---------5-------5-----------5---|--------|--------|
C#|-----7---------------7-----|-----7---------------7-----------|--------|--------|
G#|-0-------------------------|-0-------------------------------|--------|--------|
D#|---------------------------|---------------------------------|--------|--------|


D#|--------|--------|--------|--------|--------|--------|--------|--------|--------|
A#|--------|--------|--------|--------|--------|--------|--------|--------|--------|
F#|--------|--------|--------|--------|--------|--------|--------|--------|--------|
C#|--------|--------|--------|--------|--------|--------|--------|--------|--------|
G#|--------|--------|--------|--------|--------|--------|--------|--------|--------|
D#|--------|--------|--------|--------|--------|--------|--------|--------|--------|


D#|--------|--------|--------|--------|--------|--------|--------|--------|--------|
A#|--------|--------|--------|--------|--------|--------|--------|--------|--------|
F#|--------|--------|--------|--------|--------|--------|--------|--------|--------|
C#|--------|--------|--------|--------|--------|--------|--------|--------|--------|
G#|--------|--------|--------|--------|--------|--------|--------|--------|--------|
D#|--------|--------|--------|--------|--------|--------|--------|--------|--------|


D#|--------|--------|--------|--------|--------|--------|--------|--------|--------|
A#|--------|--------|--------|--------|--------|--------|--------|--------|--------|
F#|--------|--------|--------|--------|--------|--------|--------|--------|--------|
C#|--------|--------|--------|--------|--------|--------|--------|--------|--------|
G#|--------|--------|--------|--------|--------|--------|--------|--------|--------|
D#|--------|--------|--------|--------|--------|--------|--------|--------|--------|


D#|--------|--------|--------|--------|--------|--------|--------|--------|--------|
A#|--------|--------|--------|--------|--------|--------|--------|--------|--------|
F#|--------|--------|--------|--------|--------|--------|--------|--------|--------|
C#|--------|--------|--------|--------|--------|--------|--------|--------|--------|
G#|--------|--------|--------|--------|--------|--------|--------|--------|--------|
D#|--------|--------|--------|--------|--------|--------|--------|--------|--------|


D#|--------|--------|--------|--------|--------|--------|--------|--------|--------|
A#|--------|--------|--------|--------|--------|--------|--------|--------|--------|
F#|--------|--------|--------|--------|--------|--------|--------|--------|--------|
C#|--------|--------|--------|--------|--------|--------|--------|--------|--------|
G#|--------|--------|--------|--------|--------|--------|--------|--------|--------|
D#|--------|--------|--------|--------|--------|--------|--------|--------|--------|


D#|--------|--------|--------|--------|--------|--------|--------|--------|--------|
A#|--------|--------|--------|--------|--------|--------|--------|--------|--------|
F#|--------|--------|--------|--------|--------|--------|--------|--------|--------|
C#|--------|--------|--------|--------|--------|--------|--------|--------|--------|
G#|--------|--------|--------|--------|--------|--------|--------|--------|--------|
D#|--------|--------|--------|--------|--------|--------|--------|--------|--------|


D#|--------|--------|--------|--------|--------|--------|--------|--------|--------|
A#|--------|--------|--------|--------|--------|--------|--------|--------|--------|
F#|--------|--------|--------|--------|--------|--------|--------|--------|--------|
C#|--------|--------|--------|--------|--------|--------|--------|--------|--------|
G#|--------|--------|--------|--------|--------|--------|--------|--------|--------|
D#|--------|--------|--------|--------|--------|--------|--------|--------|--------|


D#|--------|--------|--------|--------|--------|--------|--------|--------|--------|
A#|--------|--------|--------|--------|--------|--------|--------|--------|--------|
F#|--------|--------|--------|--------|--------|--------|--------|--------|--------|
C#|--------|--------|--------|--------|--------|--------|--------|--------|--------|
G#|--------|--------|--------|--------|--------|--------|--------|--------|--------|
D#|--------|--------|--------|--------|--------|--------|--------|--------|--------|


D#|--------|--------|--------|--------|--------|--------|--------|--------|--------|
A#|--------|--------|--------|--------|--------|--------|--------|--------|--------|
F#|--------|--------|--------|--------|--------|--------|--------|--------|--------|
C#|--------|--------|--------|--------|--------|--------|--------|--------|--------|
G#|--------|--------|--------|--------|--------|--------|--------|--------|--------|
D#|--------|--------|--------|--------|--------|--------|--------|--------|--------|


D#|--------|--------|--------|--------|--------|--------|--------|--------|--------|
A#|--------|--------|--------|--------|--------|--------|--------|--------|--------|
F#|--------|--------|--------|--------|--------|--------|--------|--------|--------|
C#|--------|--------|--------|--------|--------|--------|--------|--------|--------|
G#|--------|--------|--------|--------|--------|--------|--------|--------|--------|
D#|--------|--------|--------|--------|--------|--------|--------|--------|--------|


D#|--------|--------|--------|--------|--------|--------|--------|--------|--------|
A#|--------|--------|--------|--------|--------|--------|--------|--------|--------|
F#|--------|--------|--------|--------|--------|--------|--------|--------|--------|
C#|--------|--------|--------|--------|--------|--------|--------|--------|--------|
G#|--------|--------|--------|--------|--------|--------|--------|--------|--------|
D#|--------|--------|--------|--------|--------|--------|--------|--------|--------|


D#|--------|--------|--------|--------|
A#|--------|--------|--------|--------|
F#|--------|--------|--------|--------|
C#|--------|--------|--------|--------|
G#|--------|--------|--------|--------|
D#|--------|--------|--------|--------|





Track 2: Untitled

D#|--------|--------|--------|--------|--------|--------|--------|--------|------------------------------|
A#|--------|--------|--------|--------|--------|--------|--------|--------|------------------------------|
F#|--------|--------|--------|--------|--------|--------|--------|--------|-2----------------------------|
C#|--------|--------|--------|--------|--------|--------|--------|--------|-2----------------------------|
G#|--------|--------|--------|--------|--------|--------|--------|--------|-0------------3-----------5---|
D#|--------|--------|--------|--------|--------|--------|--------|--------|------3---1-------1---0-------|


D#|---------------------------------|------------------------------|---------------------------------|
A#|---------------------------------|------------------------------|---------------------------------|
F#|---------------------------------|-2----------------------------|---------------------2-----------|
C#|---------------------------------|-2----------------------------|---------------------0-----------|
G#|-------------3---------------5---|-0------------3-----------5---|-------------3-------------------|
D#|-0---0---0---1---0---0---0---3---|------3---1-------1---0-------|-0---0---0---1---0-------3---4---|


D#|------------------------------|---------------------------------|------------------------------|
A#|------------------------------|---------------------------------|------------------------------|
F#|-2----------------------------|---------------------------------|-2----------------------------|
C#|-2----------------------------|---------------------------------|-2----------------------------|
G#|-0------------3-----------5---|-------------3---------------5---|-0------------3-----------5---|
D#|------3---1-------1---0-------|-0---0---0---1---0---0---0---3---|------3---1-------1---0-------|


D#|---------------------------------|------------------------------|---------------------------------|
A#|---------------------------------|------------------------------|---------------------------------|
F#|---------------------2-----------|-2----------------------------|---------------------------------|
C#|---------------------0-----------|-2----------------------------|---------------------------------|
G#|-------------3-------------------|-0------------3-----------5---|-------------3---------------5---|
D#|-0---0---0---1---0-------3---4---|------3---1-------1---0-------|-0---0---0---1---0---0---0---3---|


D#|------------------------------|---------------------------------|------------------------------|
A#|------------------------------|---------------------------------|------------------------------|
F#|-2----------------------------|---------------------2-----------|-2----------------------------|
C#|-2----------------------------|---------------------0-----------|-2----------------------------|
G#|-0------------3-----------5---|-------------3-------------------|-0------------3-----------5---|
D#|------3---1-------1---0-------|-0---0---0---1---0-------3---4---|------3---1-------1---0-------|


D#|---------------------------------|------------------------------|---------------------------------|
A#|---------------------------------|------------------------------|---------------------------------|
F#|---------------------------------|-2----------------------------|---------------------2-----------|
C#|---------------------------------|-2----------------------------|---------------------0-----------|
G#|-------------3---------------5---|-0------------3-----------5---|-------------3-------------------|
D#|-0---0---0---1---0---0---0---3---|------3---1-------1---0-------|-0---0---0---1---0-------3---4---|


D#|------------------------------|---------------------------------|------------------------------|
A#|------------------------------|---------------------------------|------------------------------|
F#|-2----------------------------|---------------------------------|-2----------------------------|
C#|-2----------------------------|---------------------------------|-2----------------------------|
G#|-0------------3-----------5---|-------------3---------------5---|-0------------3-----------5---|
D#|------3---1-------1---0-------|-0---0---0---1---0---0---0---3---|------3---1-------1---0-------|


D#|---------------------------------|------------------------------|---------------------------------|
A#|---------------------------------|------------------------------|---------------------------------|
F#|---------------------2-----------|-2----------------------------|---------------------------------|
C#|---------------------0-----------|-2----------------------------|---------------------------------|
G#|-------------3-------------------|-0------------3-----------5---|-------------3---------------5---|
D#|-0---0---0---1---0-------3---4---|------3---1-------1---0-------|-0---0---0---1---0---0---0---3---|


D#|------------------------------|---------------------------------|------------------------------|
A#|------------------------------|---------------------------------|------------------------------|
F#|-2----------------------------|---------------------2-----------|-2----------------------------|
C#|-2----------------------------|---------------------0-----------|-2------------2---------------|
G#|-0------------3-----------5---|-------------3-------0-----------|-0----2---3-------3---2---0---|
D#|------3---1-------1---0-------|-0---0---0---1---0-------0---3---|------------------------------|


D#|------------------------------|------------------------------------|------------------------------|
A#|------------------------------|--------------5---------------------|------------------------------|
F#|------------------------------|---------------------7--7-----------|------------------------------|
C#|--------------2---------------|------6---7-----------------7---0---|--------------2---0-----------|
G#|------2---3-------3---2---0---|-5----------------------------------|------2---3-----------3---2---|
D#|-1----------------------------|------------------------------------|-0----------------------------|


D#|------------------------------|------------------------------|------------------------------------|
A#|------------------------------|------------------------------|--------------5---------------------|
F#|-2----------------------------|------------------------------|---------------------7--7-----------|
C#|-2------------2---------------|--------------2---------------|------6---7-----------------7---0---|
G#|-0----2---3-------3---2---0---|------2---3-------3---2---0---|-5----------------------------------|
D#|------------------------------|-1----------------------------|------------------------------------|


D#|------------------------------|--------|--------|------------------------------|
A#|------------------------------|--------|--------|------------------------------|
F#|------------------------------|--------|--------|-2----------------------------|
C#|--------------2---0-----------|--------|--------|-2----------------------------|
G#|------2---3-----------3---2---|--------|--------|-0------------3-----------5---|
D#|-0----------------------------|--------|--------|------3---1-------1---0-------|


D#|---------------------------------|------------------------------|---------------------------------|
A#|---------------------------------|------------------------------|---------------------------------|
F#|---------------------------------|-2----------------------------|---------------------2-----------|
C#|---------------------------------|-2----------------------------|---------------------0-----------|
G#|-------------3---------------5---|-0------------3-----------5---|-------------3-------------------|
D#|-0---0---0---1---0---0---0---3---|------3---1-------1---0-------|-0---0---0---1---0-------3---4---|


D#|------------------------------|---------------------------------|------------------------------|
A#|------------------------------|---------------------------------|------------------------------|
F#|-2----------------------------|---------------------------------|-2----------------------------|
C#|-2----------------------------|---------------------------------|-2----------------------------|
G#|-0------------3-----------5---|-------------3---------------5---|-0------------3-----------5---|
D#|------3---1-------1---0-------|-0---0---0---1---0---0---0---3---|------3---1-------1---0-------|


D#|---------------------------------|------------------------------|---------------------------------|
A#|---------------------------------|------------------------------|---------------------------------|
F#|---------------------2-----------|-2----------------------------|---------------------------------|
C#|---------------------0-----------|-2----------------------------|---------------------------------|
G#|-------------3-------------------|-0------------3-----------5---|-------------3---------------5---|
D#|-0---0---0---1---0-------3---4---|------3---1-------1---0-------|-0---0---0---1---0---0---0---3---|


D#|------------------------------|---------------------------------|------------------------------|
A#|------------------------------|---------------------------------|------------------------------|
F#|-2----------------------------|---------------------2-----------|-2----------------------------|
C#|-2----------------------------|---------------------0-----------|-2----------------------------|
G#|-0------------3-----------5---|-------------3-------------------|-0------------3-----------5---|
D#|------3---1-------1---0-------|-0---0---0---1---0-------3---4---|------3---1-------1---0-------|


D#|---------------------------------|------------------------------|---------------------------------|
A#|---------------------------------|------------------------------|---------------------------------|
F#|---------------------------------|-2----------------------------|---------------------2-----------|
C#|---------------------------------|-2----------------------------|---------------------0-----------|
G#|-------------3---------------5---|-0------------3-----------5---|-------------3-------0-----------|
D#|-0---0---0---1---0---0---0---3---|------3---1-------1---0-------|-0---0---0---1---0-------0---3---|


D#|------------------------------|------------------------------|------------------------------------|
A#|------------------------------|------------------------------|--------------5---------------------|
F#|-2----------------------------|------------------------------|---------------------7--7-----------|
C#|-2------------2---------------|--------------2---------------|------6---7-----------------7---0---|
G#|-0----2---3-------3---2---0---|------2---3-------3---2---0---|-5----------------------------------|
D#|------------------------------|-1----------------------------|------------------------------------|


D#|------------------------------|------------------------------|------------------------------|
A#|------------------------------|------------------------------|------------------------------|
F#|------------------------------|-2----------------------------|------------------------------|
C#|--------------2---0-----------|-2------------2---------------|--------------2---------------|
G#|------2---3-----------3---2---|-0----2---3-------3---2---0---|------2---3-------3---2---0---|
D#|-0----------------------------|------------------------------|-1----------------------------|


D#|------------------------------------|------------------------------|--------|--------|
A#|--------------5---------------------|------------------------------|--------|--------|
F#|---------------------7--7-----------|------------------------------|--------|--------|
C#|------6---7-----------------7---0---|--------------2---0-----------|--------|--------|
G#|-5----------------------------------|------2---3-----------3---2---|--------|--------|
D#|------------------------------------|-0----------------------------|--------|--------|


D#|--------|--------|--------|--------|--------|--------|--------|--------|--------|
A#|--------|--------|--------|--------|--------|--------|--------|--------|--------|
F#|--------|--------|--------|--------|--------|--------|--------|--------|--------|
C#|--------|--------|--------|--------|--------|--------|--------|--------|--------|
G#|--------|--------|--------|--------|--------|--------|--------|--------|--------|
D#|--------|--------|--------|--------|--------|--------|--------|--------|--------|


D#|--------|--------|--------|--------|--------|--------|--------|--------|--------|
A#|--------|--------|--------|--------|--------|--------|--------|--------|--------|
F#|--------|--------|--------|--------|--------|--------|--------|--------|--------|
C#|--------|--------|--------|--------|--------|--------|--------|--------|--------|
G#|--------|--------|--------|--------|--------|--------|--------|--------|--------|
D#|--------|--------|--------|--------|--------|--------|--------|--------|--------|


D#|------------------------------|---------------------------------|------------------------------|
A#|------------------------------|---------------------------------|------------------------------|
F#|-2----------------------------|---------------------------------|-2----------------------------|
C#|-2----------------------------|---------------------------------|-2----------------------------|
G#|-0------------3-----------5---|-------------3---------------5---|-0------------3-----------5---|
D#|------3---1-------1---0-------|-0---0---0---1---0---0---0---3---|------3---1-------1---0-------|


D#|---------------------------------|------------------------------|---------------------------------|
A#|---------------------------------|------------------------------|---------------------------------|
F#|---------------------2-----------|-2----------------------------|---------------------------------|
C#|---------------------0-----------|-2----------------------------|---------------------------------|
G#|-------------3-------------------|-0------------3-----------5---|-------------3---------------5---|
D#|-0---0---0---1---0-------3---4---|------3---1-------1---0-------|-0---0---0---1---0---0---0---3---|


D#|------------------------------|---------------------------------|------------------------------|
A#|------------------------------|---------------------------------|------------------------------|
F#|-2----------------------------|---------------------2-----------|-4----------------------------|
C#|-2----------------------------|---------------------0-----------|-4----------------------------|
G#|-0------------3-----------5---|-------------3-------------------|-2------------5-----------7---|
D#|------3---1-------1---0-------|-0---0---0---1---0-------3---4---|------3---2-------3---2-------|


D#|---------------------------------|------------------------------|---------------------------------|
A#|---------------------------------|------------------------------|---------------------------------|
F#|-----------------------------5---|-4----------------------------|-----------------------------5---|
C#|-4---5---4-----------2-------5---|-4----------------------------|-4---5---4-----------2-------5---|
G#|-4---5---4-----------2---2---3---|-2------------5-----------7---|-4---5---4-----------2---2---3---|
D#|-2---3---2---2---2---0---0-------|------3---2-------3---2-------|-2---3---2---2---2---0---0-------|


D#|------------------------------|---------------------------------|------------------------------|
A#|------------------------------|---------------------------------|------------------------------|
F#|-4----------------------------|-----------------------------5---|-4----------------------------|
C#|-4----------------------------|-4---5---4-----------2-------5---|-4----------------------------|
G#|-2------------5-----------7---|-4---5---4-----------2---2---3---|-2------------5-----------7---|
D#|------3---2-------3---2-------|-2---3---2---2---2---0---0-------|------3---2-------3---2-------|


D#|---------------------------------|------------------------------|---------------------------------|
A#|---------------------------------|------------------------------|---------------------------------|
F#|-----------------------------5---|-2----------------------------|---------------------------------|
C#|-4---5---4-----------2-------5---|-2----------------------------|---------------------------------|
G#|-4---5---4-----------2---2---3---|-0------------3-----------5---|-------------3---------------5---|
D#|-2---3---2---2---2---0---0-------|------3---1-------1---0-------|-0---0---0---1---0---0---0---3---|


D#|------------------------------|---------------------------------|------------------------------|
A#|------------------------------|---------------------------------|------------------------------|
F#|-2----------------------------|---------------------2-----------|-2----------------------------|
C#|-2----------------------------|---------------------0-----------|-2----------------------------|
G#|-0------------3-----------5---|-------------3-------------------|-0------------3-----------5---|
D#|------3---1-------1---0-------|-0---0---0---1---0-------3---4---|------3---1-------1---0-------|


D#|---------------------------------|------------------------------|---------------------------------|
A#|---------------------------------|------------------------------|---------------------------------|
F#|---------------------------------|-2----------------------------|---------------------2-----------|
C#|---------------------------------|-2----------------------------|---------------------0-----------|
G#|-------------3---------------5---|-0------------3-----------5---|-------------3-------------------|
D#|-0---0---0---1---0---0---0---3---|------3---1-------1---0-------|-0---0---0---1---0-------3---4---|


D#|--------|-------------------------|-----------------|
A#|--------|-------------------------|-----------------|
F#|--------|-------------------------|-----------------|
C#|-3------|-5-----------------------|-7---------------|
G#|-3------|-5-----6-----------------|-7---------------|
D#|-1------|-3-----4---0---1--1--0---|-5---------------|





Track 3: Untitled

D#|--------|--------|--------|--------|--------|--------|--------|--------|------------------------------|
A#|--------|--------|--------|--------|--------|--------|--------|--------|------------------------------|
F#|--------|--------|--------|--------|--------|--------|--------|--------|-2----------------------------|
C#|--------|--------|--------|--------|--------|--------|--------|--------|-2----------------------------|
G#|--------|--------|--------|--------|--------|--------|--------|--------|-0------------3-----------5---|
D#|--------|--------|--------|--------|--------|--------|--------|--------|------3---1-------1---0-------|


D#|---------------------------------|------------------------------|---------------------------------|
A#|---------------------------------|------------------------------|---------------------------------|
F#|---------------------------------|-2----------------------------|---------------------2-----------|
C#|---------------------------------|-2----------------------------|---------------------0-----------|
G#|-------------3---------------5---|-0------------3-----------5---|-------------3-------------------|
D#|-0---0---0---1---0---0---0---3---|------3---1-------1---0-------|-0---0---0---1---0-------3---4---|


D#|------------------------------|---------------------------------|------------------------------|
A#|------------------------------|---------------------------------|------------------------------|
F#|-2----------------------------|---------------------------------|-2----------------------------|
C#|-2----------------------------|---------------------------------|-2----------------------------|
G#|-0------------3-----------5---|-------------3---------------5---|-0------------3-----------5---|
D#|------3---1-------1---0-------|-0---0---0---1---0---0---0---3---|------3---1-------1---0-------|


D#|---------------------------------|------------------------------|---------------------------------|
A#|---------------------------------|------------------------------|---------------------------------|
F#|---------------------2-----------|-2----------------------------|---------------------------------|
C#|---------------------0-----------|-2----------------------------|---------------------------------|
G#|-------------3-------------------|-0------------3-----------5---|-------------3---------------5---|
D#|-0---0---0---1---0-------3---4---|------3---1-------1---0-------|-0---0---0---1---0---0---0---3---|


D#|------------------------------|---------------------------------|------------------------------|
A#|------------------------------|---------------------------------|------------------------------|
F#|-2----------------------------|---------------------2-----------|-2----------------------------|
C#|-2----------------------------|---------------------0-----------|-2----------------------------|
G#|-0------------3-----------5---|-------------3-------------------|-0------------3-----------5---|
D#|------3---1-------1---0-------|-0---0---0---1---0-------3---4---|------3---1-------1---0-------|


D#|---------------------------------|------------------------------|---------------------------------|
A#|---------------------------------|------------------------------|---------------------------------|
F#|---------------------------------|-2----------------------------|---------------------2-----------|
C#|---------------------------------|-2----------------------------|---------------------0-----------|
G#|-------------3---------------5---|-0------------3-----------5---|-------------3-------------------|
D#|-0---0---0---1---0---0---0---3---|------3---1-------1---0-------|-0---0---0---1---0-------3---4---|


D#|------------------------------|---------------------------------|------------------------------|
A#|------------------------------|---------------------------------|------------------------------|
F#|-2----------------------------|---------------------------------|-2----------------------------|
C#|-2----------------------------|---------------------------------|-2----------------------------|
G#|-0------------3-----------5---|-------------3---------------5---|-0------------3-----------5---|
D#|------3---1-------1---0-------|-0---0---0---1---0---0---0---3---|------3---1-------1---0-------|


D#|---------------------------------|------------------------------|---------------------------------|
A#|---------------------------------|------------------------------|---------------------------------|
F#|---------------------2-----------|-2----------------------------|---------------------------------|
C#|---------------------0-----------|-2----------------------------|---------------------------------|
G#|-------------3-------------------|-0------------3-----------5---|-------------3---------------5---|
D#|-0---0---0---1---0-------3---4---|------3---1-------1---0-------|-0---0---0---1---0---0---0---3---|


D#|------------------------------|---------------------------------|------------------------------|
A#|------------------------------|---------------------------------|------------------------------|
F#|-2----------------------------|---------------------2-----------|-2----------------------------|
C#|-2----------------------------|---------------------0-----------|-2------------2---------------|
G#|-0------------3-----------5---|-------------3-------0-----------|-0----2---3-------3---2---0---|
D#|------3---1-------1---0-------|-0---0---0---1---0-------0---3---|------------------------------|


D#|------------------------------|------------------------------------|------------------------------|
A#|------------------------------|--------------8------6--6-----------|------------------------------|
F#|------------------------------|------6---7-----------------7-------|------------------------------|
C#|--------------2---------------|--------------------------------7---|--------------2---0-----------|
G#|------2---3-------3---2---0---|-5----------------------------------|------2---3-----------3---2---|
D#|-1----------------------------|------------------------------------|-0----------------------------|


D#|------------------------------|------------------------------|------------------------------------|
A#|------------------------------|------------------------------|--------------8------6--6-----------|
F#|-2----------------------------|------------------------------|------6---7-----------------7-------|
C#|-2------------2---------------|--------------2---------------|--------------------------------7---|
G#|-0----2---3-------3---2---0---|------2---3-------3---2---0---|-5----------------------------------|
D#|------------------------------|-1----------------------------|------------------------------------|


D#|------------------------------|--------|--------|--------|--------|--------|--------|
A#|------------------------------|--------|--------|--------|--------|--------|--------|
F#|------------------------------|--------|--------|--------|--------|--------|--------|
C#|--------------2---0-----------|--------|--------|--------|--------|--------|--------|
G#|------2---3-----------3---2---|--------|--------|--------|--------|--------|--------|
D#|-0----------------------------|--------|--------|--------|--------|--------|--------|


D#|------------------------------|---------------------------------|------------------------------|
A#|------------------------------|---------------------------------|------------------------------|
F#|-2----------------------------|---------------------------------|-2----------------------------|
C#|-2----------------------------|---------------------------------|-2----------------------------|
G#|-0------------3-----------5---|-------------3---------------5---|-0------------3-----------5---|
D#|------3---1-------1---0-------|-0---0---0---1---0---0---0---3---|------3---1-------1---0-------|


D#|---------------------------------|------------------------------|---------------------------------|
A#|---------------------------------|------------------------------|---------------------------------|
F#|---------------------2-----------|-2----------------------------|---------------------------------|
C#|---------------------0-----------|-2----------------------------|---------------------------------|
G#|-------------3-------------------|-0------------3-----------5---|-------------3---------------5---|
D#|-0---0---0---1---0-------3---4---|------3---1-------1---0-------|-0---0---0---1---0---0---0---3---|


D#|------------------------------|---------------------------------|------------------------------|
A#|------------------------------|---------------------------------|------------------------------|
F#|-2----------------------------|---------------------2-----------|-2----------------------------|
C#|-2----------------------------|---------------------0-----------|-2----------------------------|
G#|-0------------3-----------5---|-------------3-------------------|-0------------3-----------5---|
D#|------3---1-------1---0-------|-0---0---0---1---0-------3---4---|------3---1-------1---0-------|


D#|---------------------------------|------------------------------|---------------------------------|
A#|---------------------------------|------------------------------|---------------------------------|
F#|---------------------------------|-2----------------------------|---------------------2-----------|
C#|---------------------------------|-2----------------------------|---------------------0-----------|
G#|-------------3---------------5---|-0------------3-----------5---|-------------3-------0-----------|
D#|-0---0---0---1---0---0---0---3---|------3---1-------1---0-------|-0---0---0---1---0-------0---3---|


D#|------------------------------|------------------------------|------------------------------------|
A#|------------------------------|------------------------------|--------------8------6--6-----------|
F#|-2----------------------------|------------------------------|------6---7-----------------7-------|
C#|-2------------2---------------|--------------2---------------|--------------------------------7---|
G#|-0----2---3-------3---2---0---|------2---3-------3---2---0---|-5----------------------------------|
D#|------------------------------|-1----------------------------|------------------------------------|


D#|------------------------------|------------------------------|------------------------------|
A#|------------------------------|------------------------------|------------------------------|
F#|------------------------------|-2----------------------------|------------------------------|
C#|--------------2---0-----------|-2------------2---------------|--------------2---------------|
G#|------2---3-----------3---2---|-0----2---3-------3---2---0---|------2---3-------3---2---0---|
D#|-0----------------------------|------------------------------|-1----------------------------|


D#|------------------------------------|------------------------------|--------|--------|
A#|--------------8------6--6-----------|------------------------------|--------|--------|
F#|------6---7-----------------7-------|------------------------------|--------|--------|
C#|--------------------------------7---|--------------2---0-----------|--------|--------|
G#|-5----------------------------------|------2---3-----------3---2---|--------|--------|
D#|------------------------------------|-0----------------------------|--------|--------|


D#|--------|--------|--------|--------|--------|--------|--------|--------|--------|
A#|--------|--------|--------|--------|--------|--------|--------|--------|--------|
F#|--------|--------|--------|--------|--------|--------|--------|--------|--------|
C#|--------|--------|--------|--------|--------|--------|--------|--------|--------|
G#|--------|--------|--------|--------|--------|--------|--------|--------|--------|
D#|--------|--------|--------|--------|--------|--------|--------|--------|--------|


D#|--------|--------|--------|--------|--------|--------|--------|--------|--------|
A#|--------|--------|--------|--------|--------|--------|--------|--------|--------|
F#|--------|--------|--------|--------|--------|--------|--------|--------|--------|
C#|--------|--------|--------|--------|--------|--------|--------|--------|--------|
G#|--------|--------|--------|--------|--------|--------|--------|--------|--------|
D#|--------|--------|--------|--------|--------|--------|--------|--------|--------|


D#|--------|--------|--------|--------|------------------------------|---------------------------------|
A#|--------|--------|--------|--------|------------------------------|---------------------------------|
F#|--------|--------|--------|--------|-2----------------------------|---------------------------------|
C#|--------|--------|--------|--------|-2----------------------------|---------------------------------|
G#|--------|--------|--------|--------|-0------------3-----------5---|-------------3---------------5---|
D#|--------|--------|--------|--------|------3---1-------1---0-------|-0---0---0---1---0---0---0---3---|


D#|------------------------------|---------------------------------|------------------------------|
A#|------------------------------|---------------------------------|------------------------------|
F#|-2----------------------------|---------------------2-----------|-4----------------------------|
C#|-2----------------------------|---------------------0-----------|-4----------------------------|
G#|-0------------3-----------5---|-------------3-------------------|-2------------5-----------7---|
D#|------3---1-------1---0-------|-0---0---0---1---0-------3---4---|------3---2-------3---2-------|


D#|---------------------------------|------------------------------|---------------------------------|
A#|---------------------------------|------------------------------|---------------------------------|
F#|-----------------------------5---|-4----------------------------|-----------------------------5---|
C#|-4---5---4-----------2-------5---|-4----------------------------|-4---5---4-----------2-------5---|
G#|-4---5---4-----------2---2---3---|-2------------5-----------7---|-4---5---4-----------2---2---3---|
D#|-2---3---2---2---2---0---0-------|------3---2-------3---2-------|-2---3---2---2---2---0---0-------|


D#|------------------------------|---------------------------------|------------------------------|
A#|------------------------------|---------------------------------|------------------------------|
F#|-4----------------------------|-----------------------------5---|-4----------------------------|
C#|-4----------------------------|-4---5---4-----------2-------5---|-4----------------------------|
G#|-2------------5-----------7---|-4---5---4-----------2---2---3---|-2------------5-----------7---|
D#|------3---2-------3---2-------|-2---3---2---2---2---0---0-------|------3---2-------3---2-------|


D#|---------------------------------|------------------------------|---------------------------------|
A#|---------------------------------|------------------------------|---------------------------------|
F#|-----------------------------5---|-2----------------------------|---------------------------------|
C#|-4---5---4-----------2-------5---|-2----------------------------|---------------------------------|
G#|-4---5---4-----------2---2---3---|-0------------3-----------5---|-------------3---------------5---|
D#|-2---3---2---2---2---0---0-------|------3---1-------1---0-------|-0---0---0---1---0---0---0---3---|


D#|------------------------------|---------------------------------|------------------------------|
A#|------------------------------|---------------------------------|------------------------------|
F#|-2----------------------------|---------------------2-----------|-2----------------------------|
C#|-2----------------------------|---------------------0-----------|-2----------------------------|
G#|-0------------3-----------5---|-------------3-------------------|-0------------3-----------5---|
D#|------3---1-------1---0-------|-0---0---0---1---0-------3---4---|------3---1-------1---0-------|


D#|---------------------------------|------------------------------|---------------------------------|
A#|---------------------------------|------------------------------|---------------------------------|
F#|---------------------------------|-2----------------------------|---------------------2-----------|
C#|---------------------------------|-2----------------------------|---------------------0-----------|
G#|-------------3---------------5---|-0------------3-----------5---|-------------3-------------------|
D#|-0---0---0---1---0---0---0---3---|------3---1-------1---0-------|-0---0---0---1---0-------3---4---|


D#|--------|-------------------------|-----------------|
A#|--------|-------------------------|-----------------|
F#|--------|-------------------------|-----------------|
C#|-3------|-5-----------------------|-7---------------|
G#|-3------|-5-----6-----------------|-7---------------|
D#|-1------|-3-----4---0---1--1--0---|-5---------------|





Track 4: Untitled

D#|--------|--------|--------|--------|--------|--------|--------|--------|--------|
A#|--------|--------|--------|--------|--------|--------|--------|--------|--------|
F#|--------|--------|--------|--------|--------|--------|--------|--------|--------|
C#|--------|--------|--------|--------|--------|--------|--------|--------|--------|
G#|--------|--------|--------|--------|--------|--------|--------|--------|--------|
D#|--------|--------|--------|--------|--------|--------|--------|--------|--------|


D#|--------|--------|--------|--------|--------|--------|--------|--------|--------|
A#|--------|--------|--------|--------|--------|--------|--------|--------|--------|
F#|--------|--------|--------|--------|--------|--------|--------|--------|--------|
C#|--------|--------|--------|--------|--------|--------|--------|--------|--------|
G#|--------|--------|--------|--------|--------|--------|--------|--------|--------|
D#|--------|--------|--------|--------|--------|--------|--------|--------|--------|


D#|--------|--------|--------|--------|--------|--------|--------|--------|--------|
A#|--------|--------|--------|--------|--------|--------|--------|--------|--------|
F#|--------|--------|--------|--------|--------|--------|--------|--------|--------|
C#|--------|--------|--------|--------|--------|--------|--------|--------|--------|
G#|--------|--------|--------|--------|--------|--------|--------|--------|--------|
D#|--------|--------|--------|--------|--------|--------|--------|--------|--------|


D#|--------|--------|--------|--------|--------|--------|--------|--------|--------|
A#|--------|--------|--------|--------|--------|--------|--------|--------|--------|
F#|--------|--------|--------|--------|--------|--------|--------|--------|--------|
C#|--------|--------|--------|--------|--------|--------|--------|--------|--------|
G#|--------|--------|--------|--------|--------|--------|--------|--------|--------|
D#|--------|--------|--------|--------|--------|--------|--------|--------|--------|


D#|--------|--------|--------|--------|--------|-------------------------------|-8------|
A#|--------|--------|--------|--------|--------|-------5--6--5-----5--6--8--5--|--------|
F#|--------|--------|--------|--------|--------|----------------7--------------|--------|
C#|--------|--------|--------|--------|-3------|-5-----------------------------|--------|
G#|--------|--------|--------|--------|-3------|-5-----------------------------|--------|
D#|--------|--------|--------|--------|-1------|-3-----------------------------|--------|


D#|-8------|--------|--------|--------|--------|--------|--------|--------|--------|
A#|--------|--------|--------|--------|--------|--------|--------|--------|--------|
F#|--------|--------|--------|--------|--------|--------|--------|--------|--------|
C#|--------|--------|--------|--------|--------|--------|--------|--------|--------|
G#|--------|--------|--------|--------|--------|--------|--------|--------|--------|
D#|--------|--------|--------|--------|--------|--------|--------|--------|--------|


D#|--------|--------|--------|--------|--------|--------|--------|--------|--------|
A#|--------|--------|--------|--------|--------|--------|--------|--------|--------|
F#|--------|--------|--------|--------|--------|--------|--------|--------|--------|
C#|--------|--------|--------|--------|--------|--------|--------|--------|--------|
G#|--------|--------|--------|--------|--------|--------|--------|--------|--------|
D#|--------|--------|--------|--------|--------|--------|--------|--------|--------|


D#|--------|--------|--------|--------|--------|------------------------------|------------------------------|
A#|--------|--------|--------|--------|--------|------------------------------|------------------------------|
F#|--------|--------|--------|--------|--------|------------------------------|------------------------------|
C#|--------|--------|--------|--------|--------|-7---8---7--------5-----------|------------------------------|
G#|--------|--------|--------|--------|--------|--------------------------8---|-7---8---7--------5-----------|
D#|--------|--------|--------|--------|--------|------------------------------|--------------------------6---|


D#|------------------------------|------------------------------------------|------------------------------|
A#|------------------------------|------------------------------------------|------------------------------|
F#|------------------------------|------------------------------------------|--------------------------7---|
C#|------------------------------|------------------------------5---6---7---|-7---8---7--------5-----------|
G#|--------------------------5---|------------------5---6---7---------------|------------------------------|
D#|-5---6---5--------3-----------|------5---6---7---------------------------|------------------------------|


D#|------------------------------|-----------------------------------|-------------------------------0---|
A#|-5---6---5----------------8---|-8----8----10-8--5-----------------|-------------------------------0---|
F#|------------------7-----------|--------------------7---7---7---5--|-7----7---7---7---7---7----7-------|
C#|------------------------------|-----------------------------------|-----------------------------------|
G#|------------------------------|-----------------------------------|-----------------------------------|
D#|------------------------------|-----------------------------------|-----------------------------------|


D#|---------------------------------------------|-------------------------------------------------|
A#|-------17-20-----------17-20-----------17-20-|----17-20-------20-------------------------------|
F#|-19-19-------17--19-19-------17--19-19-------|-19-------19-21----17----19----17----20----19-17-|
C#|---------------------------------------------|----------------------19----19----19----19-------|
G#|---------------------------------------------|-------------------------------------------------|
D#|---------------------------------------------|-------------------------------------------------|


D#|-------------------------------------------|------------------------------------------|
A#|-------------------------------------------|-------------15-12-13---------------------|
F#|-17-14---14-17-12-14-14--14-12-------------|----14-12-13----------14-12-13------------|
C#|-------------------------------14-13-12-13-|-14----------------------------14-13-12---|
G#|-------------------------------------------|------------------------------------------|
D#|-------------------------------------------|------------------------------------------|


D#|----------------------------------|-12--13--12---12--13-12-------------|------------------------------|
A#|-10--11--10---10--11-10-----------|------------------------15-13-11----|------13------15------17------|
F#|------------------------12-10-9---|---------------------------------12-|-14------14------14------14---|
C#|----------------------------------|------------------------------------|------------------------------|
G#|----------------------------------|------------------------------------|------------------------------|
D#|----------------------------------|------------------------------------|------------------------------|


D#|-------17-----------------|---------------------------|----------------|-----------------------------|
A#|-20-------20-17-----------|--------------8---------8--|-5------8---8---|-8----8---8--6--5------------|
F#|----------------19---19---|-19----9------7--9------7--|----------------|-------------------7----7----|
C#|--------------------------|-------9---9-----9---9-----|----------------|-----------------------------|
G#|--------------------------|-----------10--------10----|----------------|-----------------------------|
D#|--------------------------|---------------------------|----------------|-----------------------------|


D#|----------------------------------------15-17-19-|-22-----|--------|--------|--------|
A#|-------------------12-15-------15-16-17----------|--------|--------|--------|--------|
F#|-------13-16-12-13-------15-16-------------------|--------|--------|--------|--------|
C#|-14-15-------------------------------------------|--------|--------|--------|--------|
G#|-------------------------------------------------|--------|--------|--------|--------|
D#|-------------------------------------------------|--------|--------|--------|--------|


D#|--------|--------|--------|--------|--------|--------|--------|--------|--------|
A#|--------|--------|--------|--------|--------|--------|--------|--------|--------|
F#|--------|--------|--------|--------|--------|--------|--------|--------|--------|
C#|--------|--------|--------|--------|--------|--------|--------|--------|--------|
G#|--------|--------|--------|--------|--------|--------|--------|--------|--------|
D#|--------|--------|--------|--------|--------|--------|--------|--------|--------|


D#|--------|--------|--------|--------|--------|--------|--------|--------|--------|
A#|--------|--------|--------|--------|--------|--------|--------|--------|--------|
F#|--------|--------|--------|--------|--------|--------|--------|--------|--------|
C#|--------|--------|--------|--------|--------|--------|--------|--------|--------|
G#|--------|--------|--------|--------|--------|--------|--------|--------|--------|
D#|--------|--------|--------|--------|--------|--------|--------|--------|--------|


D#|--------|--------|--------|--------|--------|
A#|--------|--------|--------|--------|--------|
F#|--------|--------|--------|--------|--------|
C#|--------|--------|--------|--------|--------|
G#|--------|--------|--------|--------|--------|
D#|--------|--------|--------|--------|--------|





Track 5: Untitled

D#|--------|--------|--------|--------|--------|--------|--------|--------|--------|
A#|--------|--------|--------|--------|--------|--------|--------|--------|--------|
F#|--------|--------|--------|--------|--------|--------|--------|--------|--------|
C#|--------|--------|--------|--------|--------|--------|--------|--------|--------|
G#|--------|--------|--------|--------|--------|--------|--------|--------|--------|
D#|--------|--------|--------|--------|--------|--------|--------|--------|--------|


D#|--------|--------|--------|--------|--------|--------|--------|--------|--------|
A#|--------|--------|--------|--------|--------|--------|--------|--------|--------|
F#|--------|--------|--------|--------|--------|--------|--------|--------|--------|
C#|--------|--------|--------|--------|--------|--------|--------|--------|--------|
G#|--------|--------|--------|--------|--------|--------|--------|--------|--------|
D#|--------|--------|--------|--------|--------|--------|--------|--------|--------|


D#|--------|--------|--------|--------|--------|--------|--------|--------|--------|
A#|--------|--------|--------|--------|--------|--------|--------|--------|--------|
F#|--------|--------|--------|--------|--------|--------|--------|--------|--------|
C#|--------|--------|--------|--------|--------|--------|--------|--------|--------|
G#|--------|--------|--------|--------|--------|--------|--------|--------|--------|
D#|--------|--------|--------|--------|--------|--------|--------|--------|--------|


D#|--------|--------|--------|--------|--------|--------|--------|--------|--------|
A#|--------|--------|--------|--------|--------|--------|--------|--------|--------|
F#|--------|--------|--------|--------|--------|--------|--------|--------|--------|
C#|--------|--------|--------|--------|--------|--------|--------|--------|--------|
G#|--------|--------|--------|--------|--------|--------|--------|--------|--------|
D#|--------|--------|--------|--------|--------|--------|--------|--------|--------|


D#|--------|--------|--------|--------|--------|----------------------------12-|-17-----|
A#|--------|--------|--------|--------|-6------|-8-----12-13-12----12-13-15----|--------|
F#|--------|--------|--------|--------|--------|----------------14-------------|--------|
C#|--------|--------|--------|--------|--------|-------------------------------|--------|
G#|--------|--------|--------|--------|--------|-------------------------------|--------|
D#|--------|--------|--------|--------|--------|-------------------------------|--------|


D#|-17-----|--------|--------|--------|--------|--------|--------|--------|--------|
A#|--------|--------|--------|--------|--------|--------|--------|--------|--------|
F#|--------|--------|--------|--------|--------|--------|--------|--------|--------|
C#|--------|--------|--------|--------|--------|--------|--------|--------|--------|
G#|--------|--------|--------|--------|--------|--------|--------|--------|--------|
D#|--------|--------|--------|--------|--------|--------|--------|--------|--------|


D#|--------|--------|--------|--------|--------|--------|--------|--------|--------|
A#|--------|--------|--------|--------|--------|--------|--------|--------|--------|
F#|--------|--------|--------|--------|--------|--------|--------|--------|--------|
C#|--------|--------|--------|--------|--------|--------|--------|--------|--------|
G#|--------|--------|--------|--------|--------|--------|--------|--------|--------|
D#|--------|--------|--------|--------|--------|--------|--------|--------|--------|


D#|--------|--------|--------|--------|--------|--------|--------|--------|--------|
A#|--------|--------|--------|--------|--------|--------|--------|--------|--------|
F#|--------|--------|--------|--------|--------|--------|--------|--------|--------|
C#|--------|--------|--------|--------|--------|--------|--------|--------|--------|
G#|--------|--------|--------|--------|--------|--------|--------|--------|--------|
D#|--------|--------|--------|--------|--------|--------|--------|--------|--------|


D#|--------|--------|--------|--------|--------|--------|--------|--------|--------|
A#|--------|--------|--------|--------|--------|--------|--------|--------|--------|
F#|--------|--------|--------|--------|--------|--------|--------|--------|--------|
C#|--------|--------|--------|--------|--------|--------|--------|--------|--------|
G#|--------|--------|--------|--------|--------|--------|--------|--------|--------|
D#|--------|--------|--------|--------|--------|--------|--------|--------|--------|


D#|--------|--------|--------|--------|--------|--------|--------|--------|--------|
A#|--------|--------|--------|--------|--------|--------|--------|--------|--------|
F#|--------|--------|--------|--------|--------|--------|--------|--------|--------|
C#|--------|--------|--------|--------|--------|--------|--------|--------|--------|
G#|--------|--------|--------|--------|--------|--------|--------|--------|--------|
D#|--------|--------|--------|--------|--------|--------|--------|--------|--------|


D#|--------|--------|--------|--------|--------|--------|--------|--------|--------|
A#|--------|--------|--------|--------|--------|--------|--------|--------|--------|
F#|--------|--------|--------|--------|--------|--------|--------|--------|--------|
C#|--------|--------|--------|--------|--------|--------|--------|--------|--------|
G#|--------|--------|--------|--------|--------|--------|--------|--------|--------|
D#|--------|--------|--------|--------|--------|--------|--------|--------|--------|


D#|--------|--------|--------|--------|--------|--------|--------|--------|--------|
A#|--------|--------|--------|--------|--------|--------|--------|--------|--------|
F#|--------|--------|--------|--------|--------|--------|--------|--------|--------|
C#|--------|--------|--------|--------|--------|--------|--------|--------|--------|
G#|--------|--------|--------|--------|--------|--------|--------|--------|--------|
D#|--------|--------|--------|--------|--------|--------|--------|--------|--------|


D#|--------|--------|--------|--------|--------|--------|--------|
A#|--------|--------|--------|--------|--------|--------|--------|
F#|--------|--------|--------|--------|--------|--------|--------|
C#|--------|--------|--------|--------|--------|--------|--------|
G#|--------|--------|--------|--------|--------|--------|--------|
D#|--------|--------|--------|--------|--------|--------|--------|





Track 6: Bass Guitar

F#|--------|--------|--------|--------|--------|--------|--------|--------|--------|
C#|--------|--------|--------|--------|--------|--------|--------|--------|--------|
G#|-0------|-0------|-3------|-3------|--------|--------|--------|--------|--------|
D#|--------|--------|--------|--------|-1------|-1------|-0------|-0------|--------|


F#|--------|--------|--------|--------|--------|--------|--------|--------|--------|
C#|--------|--------|--------|--------|--------|--------|--------|--------|--------|
G#|--------|--------|--------|--------|--------|--------|--------|--------|--------|
D#|--------|--------|--------|--------|--------|--------|--------|--------|--------|


F#|--------|--------|--------|--------|--------|--------|--------|--------|--------|
C#|--------|--------|--------|--------|--------|--------|--------|--------|--------|
G#|--------|--------|--------|--------|--------|--------|--------|--------|--------|
D#|--------|--------|--------|--------|--------|--------|--------|--------|--------|


F#|--------|--------|--------|--------|--------|--------|--------|--------|--------|
C#|--------|--------|--------|--------|--------|--------|--------|--------|--------|
G#|--------|--------|--------|--------|--------|--------|--------|--------|--------|
D#|--------|--------|--------|--------|--------|--------|--------|--------|--------|


F#|--------|--------|--------|--------|--------|--------|--------|--------|--------|
C#|--------|--------|--------|--------|--------|--------|--------|--------|--------|
G#|--------|--------|--------|--------|--------|--------|--------|--------|--------|
D#|--------|--------|--------|--------|--------|--------|--------|--------|--------|


F#|--------|--------|--------|--------|--------|--------|--------|--------|--------|
C#|--------|--------|--------|--------|--------|--------|--------|--------|--------|
G#|--------|--------|--------|--------|--------|--------|--------|--------|--------|
D#|--------|--------|--------|--------|--------|--------|--------|--------|--------|


F#|--------|--------|--------|--------|--------|--------|--------|--------|--------|
C#|--------|--------|--------|--------|--------|--------|--------|--------|--------|
G#|--------|--------|--------|--------|--------|--------|--------|--------|--------|
D#|--------|--------|--------|--------|--------|--------|--------|--------|--------|


F#|--------|--------|--------|--------|--------|--------|--------|--------|--------|
C#|--------|--------|--------|--------|--------|--------|--------|--------|--------|
G#|--------|--------|--------|--------|--------|--------|--------|--------|--------|
D#|--------|--------|--------|--------|--------|--------|--------|--------|--------|


F#|--------|--------|--------|--------|--------|--------|--------|--------|--------|
C#|--------|--------|--------|--------|--------|--------|--------|--------|--------|
G#|--------|--------|--------|--------|--------|--------|--------|--------|--------|
D#|--------|--------|--------|--------|--------|--------|--------|--------|--------|


F#|--------|--------|--------|--------|--------|--------|--------|--------|--------|
C#|--------|--------|--------|--------|--------|--------|--------|--------|--------|
G#|--------|--------|--------|--------|--------|--------|--------|--------|--------|
D#|--------|--------|--------|--------|--------|--------|--------|--------|--------|


F#|--------|--------|--------|--------|--------|--------|--------|--------|--------|
C#|--------|--------|--------|--------|--------|--------|--------|--------|--------|
G#|--------|--------|--------|--------|--------|--------|--------|--------|--------|
D#|--------|--------|--------|--------|--------|--------|--------|--------|--------|


F#|--------|--------|--------|--------|--------|--------|--------|--------|--------|
C#|--------|--------|--------|--------|--------|--------|--------|--------|--------|
G#|--------|--------|--------|--------|--------|--------|--------|--------|--------|
D#|--------|--------|--------|--------|--------|--------|--------|--------|--------|


F#|--------|--------|--------|--------|--------|
C#|--------|--------|--------|--------|--------|
G#|--------|--------|--------|--------|--------|
D#|--------|--------|--------|--------|--------|





Track 7: Bass Guitar 2

F#|--------|--------|--------|--------|--------|--------|--------|--------|---------------------------------|
C#|--------|--------|--------|--------|--------|--------|--------|--------|---------------------------------|
G#|--------|--------|--------|--------|--------|--------|--------|--------|-0---0-----------3-----------5---|
D#|--------|--------|--------|--------|--------|--------|--------|--------|---------3---1-------1---0-------|


F#|---------------------------------|---------------------------------|---------------------------------|
C#|---------------------------------|---------------------------------|---------------------0-----------|
G#|---------------------------------|-0---0-----------3-----------5---|---------------------------------|
D#|-0---0---0---1---0---0---0---3---|---------3---1-------1---0-------|-0---0---0---1---0-------3---4---|


F#|---------------------------------|---------------------------------|---------------------------------|
C#|---------------------------------|---------------------------------|---------------------------------|
G#|-0---0-----------3-----------5---|---------------------------------|-0---0-----------3-----------5---|
D#|---------3---1-------1---0-------|-0---0---0---1---0---0---0---3---|---------3---1-------1---0-------|


F#|---------------------------------|---------------------------------|---------------------------------|
C#|---------------------0-----------|---------------------------------|---------------------------------|
G#|---------------------------------|-0---0-----------3-----------5---|---------------------------------|
D#|-0---0---0---1---0-------3---4---|---------3---1-------1---0-------|-0---0---0---1---0---0---0---3---|


F#|---------------------------------|---------------------------------|---------------------------------|
C#|---------------------------------|---------------------0-----------|---------------------------------|
G#|-0---0-----------3-----------5---|---------------------------------|-0---0-----------3-----------5---|
D#|---------3---1-------1---0-------|-0---0---0---1---0-------3---4---|---------3---1-------1---0-------|


F#|---------------------------------|---------------------------------|---------------------------------|
C#|---------------------------------|---------------------------------|---------------------0-----------|
G#|---------------------------------|-0---0-----------3-----------5---|---------------------------------|
D#|-0---0---0---1---0---0---0---3---|---------3---1-------1---0-------|-0---0---0---1---0-------3---4---|


F#|---------------------------------|---------------------------------|---------------------------------|
C#|---------------------------------|---------------------------------|---------------------------------|
G#|-0---0-----------3-----------5---|---------------------------------|-0---0-----------3-----------5---|
D#|---------3---1-------1---0-------|-0---0---0---1---0---0---0---3---|---------3---1-------1---0-------|


F#|---------------------------------|---------------------------------|---------------------------------|
C#|---------------------0-----------|---------------------------------|---------------------------------|
G#|---------------------------------|-0---0-----------3-----------5---|---------------------------------|
D#|-0---0---0---1---0-------3---4---|---------3---1-------1---0-------|-0---0---0---1---0---0---0---3---|


F#|---------------------------------|---------------------------------|---------------------------------|
C#|---------------------------------|---------------------0-----------|---------------------------------|
G#|-0---0-----------3-----------5---|---------------------------------|-0---0---0---0---0---0---0---0---|
D#|---------3---1-------1---0-------|-0---0---0---1---0-------0---3---|---------------------------------|


F#|---------------------------------|---------------------------------|---------------------------------|
C#|---------------------------------|-0---0---0---0---0---0---0---0---|---------------------------------|
G#|---------------------------------|---------------------------------|---------------------------------|
D#|-1---1---1---1---1---1---1---1---|---------------------------------|-0---0---0---0---0---0---0---0---|


F#|---------------------------------|---------------------------------|---------------------------------|
C#|---------------------------------|---------------------------------|-0---0---0---0---0---0---0---0---|
G#|-0---0---0---0---0---0---0---0---|---------------------------------|---------------------------------|
D#|---------------------------------|-1---1---1---1---1---1---1---1---|---------------------------------|


F#|---------------------------------|--------|--------|---------------------------------|
C#|---------------------------------|--------|--------|---------------------------------|
G#|---------------------------------|--------|--------|-0---0-----------3-----------5---|
D#|-0---0---0---0---0---0---0---0---|-1------|-3------|---------3---1-------1---0-------|


F#|---------------------------------|---------------------------------|---------------------------------|
C#|---------------------------------|---------------------------------|---------------------0-----------|
G#|---------------------------------|-0---0-----------3-----------5---|---------------------------------|
D#|-0---0---0---1---0---0---0---3---|---------3---1-------1---0-------|-0---0---0---1---0-------3---4---|


F#|---------------------------------|---------------------------------|---------------------------------|
C#|---------------------------------|---------------------------------|---------------------------------|
G#|-0---0-----------3-----------5---|---------------------------------|-0---0-----------3-----------5---|
D#|---------3---1-------1---0-------|-0---0---0---1---0---0---0---3---|---------3---1-------1---0-------|


F#|---------------------------------|---------------------------------|---------------------------------|
C#|---------------------0-----------|---------------------------------|---------------------------------|
G#|---------------------------------|-0---0-----------3-----------5---|---------------------------------|
D#|-0---0---0---1---0-------3---4---|---------3---1-------1---0-------|-0---0---0---1---0---0---0---3---|


F#|---------------------------------|---------------------------------|---------------------------------|
C#|---------------------------------|---------------------0-----------|---------------------------------|
G#|-0---0-----------3-----------5---|---------------------------------|-0---0-----------3-----------5---|
D#|---------3---1-------1---0-------|-0---0---0---1---0-------0---3---|---------3---1-------1---0-------|


F#|---------------------------------|---------------------------------|---------------------------------|
C#|---------------------------------|---------------------------------|---------------------0-----------|
G#|---------------------------------|-0---0-----------3-----------5---|---------------------------------|
D#|-0---0---0---1---0---0---0---3---|---------3---1-------1---0-------|-0---0---0---1---0-------0---3---|


F#|---------------------------------|---------------------------------|---------------------------------|
C#|---------------------------------|---------------------------------|-0---0---0---0---0---0---0---0---|
G#|-0---0---0---0---0---0---0---0---|---------------------------------|---------------------------------|
D#|---------------------------------|-1---1---1---1---1---1---1---1---|---------------------------------|


F#|---------------------------------|---------------------------------|---------------------------------|
C#|---------------------------------|---------------------------------|---------------------------------|
G#|---------------------------------|-0---0---0---0---0---0---0---0---|---------------------------------|
D#|-0---0---0---0---0---0---0---0---|---------------------------------|-1---1---1---1---1---1---1---1---|


F#|---------------------------------|---------------------------------|---------------------------------|
C#|-0---0---0---0---0---0---0---0---|---------------------------------|---------------------------------|
G#|---------------------------------|---------------------------------|-0---1---0---0-------------------|
D#|---------------------------------|-0---0---0---0---0---0---0---0---|-----------------3---3---1---1---|


F#|---------------------------------|---------------------------------|---------------------------------|
C#|---------------------------------|---------------------------------|---------------------------------|
G#|---------------------------------|-0---1---0---0-----------5---5---|-7---8---7---7---5---5-----------|
D#|-0---1---0---0---0---0---3---3---|-----------------3---3-----------|-------------------------6---6---|


F#|---------------------------------|---------------------------------|---------------------------------|
C#|---------------------------------|---------------------------------|---------------------------------|
G#|-0---1---0---0-------------------|---------------------------------|-0---1---0---0-----------5---5---|
D#|-----------------3---3---1---1---|-0---1---0---0---0---0---3---3---|-----------------3---3-----------|


F#|---------------------------------|---------------------------------|---------------------------------|
C#|---------------------------------|---------------------------------|---------------------------------|
G#|-7---8---7---7---5---5-----------|-0---1---0---0-------------------|---------------------------------|
D#|-------------------------6---6---|-----------------3---3---1---1---|-0---1---0---0---0---0---3---3---|


F#|---------------------------------|---------------------------------|---------------------------------|
C#|---------------------------------|---------------------------------|---------------------------------|
G#|-0---1---0---0-----------5---5---|-7---8---7---7---5---5-----------|-0---1---0---0-------------------|
D#|-----------------3---3-----------|-------------------------6---6---|-----------------3---3---1---1---|


F#|---------------------------------|---------------------------------|----------------|
C#|---------------------------------|---------------------------------|----------------|
G#|---------------------------------|-0---1---0---0-----------5---5---|----------------|
D#|-0---1---0---0---0---0---3---3---|-----------------3---3-----------|-0---1---0------|


F#|----------------|----------------|----------------|--------|---------------------------------|
C#|----------------|----------------|----------------|--------|---------------------------------|
G#|----------------|----------------|----------------|--------|-0---0-----------3-----------5---|
D#|-0---1---0------|-0---1---0------|-0---1---0------|-0------|---------3---1-------1---0-------|


F#|---------------------------------|---------------------------------|---------------------------------|
C#|---------------------------------|---------------------------------|---------------------0-----------|
G#|---------------------------------|-0---0-----------3-----------5---|---------------------------------|
D#|-0---0---0---1---0---0---0---3---|---------3---1-------1---0-------|-0---0---0---1---0-------3---4---|


F#|---------------------------------|---------------------------------|---------------------------------|
C#|---------------------------------|---------------------------------|---------------------------------|
G#|-0---0-----------3-----------5---|---------------------------------|-0---0-----------3-----------5---|
D#|---------3---1-------1---0-------|-0---0---0---1---0---0---0---3---|---------3---1-------1---0-------|


F#|---------------------------------|---------------------------------|---------------------------------|
C#|---------------------0-----------|-----------------0-----------2---|---------------------------------|
G#|---------------------------------|-2---2---------------------------|-----------------------------3---|
D#|-0---0---0---1---0-------3---4---|---------3---2-------3---2-------|-2---3---2---2---2---0---0-------|


F#|---------------------------------|---------------------------------|---------------------------------|
C#|-----------------0-----------2---|---------------------------------|-----------------0-----------2---|
G#|-2---2---------------------------|-----------------------------3---|-2---2---------------------------|
D#|---------3---2-------3---2-------|-2---3---2---2---2---0---0-------|---------3---2-------3---2-------|


F#|---------------------------------|---------------------------------|---------------------------------|
C#|---------------------------------|-----------------0-----------2---|---------------------------------|
G#|-----------------------------3---|-2---2---------------------------|-----------------------------3---|
D#|-2---3---2---2---2---0---0-------|---------3---2-------3---2-------|-2---3---2---2---2---0---0-------|


F#|---------------------------------|---------------------------------|---------------------------------|
C#|---------------------------------|---------------------------------|---------------------------------|
G#|-0---0-----------3-----------5---|---------------------------------|-0---0-----------3-----------5---|
D#|---------3---1-------1---0-------|-0---0---0---1---0---0---0---3---|---------3---1-------1---0-------|


F#|---------------------------------|---------------------------------|---------------------------------|
C#|---------------------0-----------|---------------------------------|---------------------------------|
G#|---------------------------------|-0---0-----------3-----------5---|---------------------------------|
D#|-0---0---0---1---0-------3---4---|---------3---1-------1---0-------|-0---0---0---1---0---0---0---3---|


F#|---------------------------------|---------------------------------|--------|-------------------------|
C#|---------------------------------|---------------------0-----------|--------|-------------------------|
G#|-0---0-----------3-----------5---|---------------------------------|--------|-------------------------|
D#|---------3---1-------1---0-------|-0---0---0---1---0-------3---4---|-1------|-3-----4---0---1--1--0---|


F#|-----------------|
C#|-----------------|
G#|-0---------------|
D#|-----------------|