Menu:

 

Search:

 

megadeth - blackmail the universe:

 



Title: Blackmail The Universe
Artist: 
Album: The System Has Failed
Author: Dave Mustaine


Track 1: Dave Mustaine Rhythm

E|--------|--------|-------------------------------------------------|-------------------------------------------------|
B|--------|--------|-------------------------------------------------|-------------------------------------------------|
G|--------|--------|-------------------------------------------------|-------------------------------------------------|
D|--------|--------|-------------------------------------------------|-------------------------------------------------|
A|--------|--------|-------------------------------------------------|-------------------------------------------------|
E|--------|--------|-0---0---0---3---2---0---0---0---0---5---3---0---|-0---0---0---3---2---0---5---3---0---3---2---0---|


E|-------------------------------------------------|-------------------------------------------------|
B|-------------------------------------------------|-------------------------------------------------|
G|-------------------------------------------------|-------------------------------------------------|
D|-------------------------------------------------|-------------------------------------------------|
A|-------------------------------------------------|-------------------------------------------------|
E|-0---0---0---3---2---0---0---0---0---5---3---0---|-0---0---0---3---2---0---5---3---0---3---2---0---|


E|-------------------------------------------------|-------------------------------------------------|
B|-------------------------------------------------|-------------------------------------------------|
G|-------------------------------------------------|-------------------------------------------------|
D|-------------------------------------------------|-------------------------------------------------|
A|-------------4---4---4---------------3---3---3---|-------------2---2---2---------------3---3---3---|
E|-2---2---2---------------2---2---2---------------|-2---2---2---------------2---2---2---------------|


E|-------------------------------------------------|-------------------------------------------------|
B|-------------------------------------------------|-------------------------------------------------|
G|-------------------------------------------------|-------------------------------------------------|
D|-------------------------------------------------|-------------------------------------------------|
A|-------------------------------------------------|-------------------------------------------------|
E|-0---0---0---3---2---0---0---0---0---5---3---0---|-0---0---0---3---2---0---5---3---0---3---2---0---|


E|-------------------------------------------------|-------------------------------------------------|
B|-------------------------------------------------|-------------------------------------------------|
G|-------------------------------------------------|-------------------------------------------------|
D|-------------------------------------------------|-------------------------------------------------|
A|-------------------------------------------------|-------------------------------------------------|
E|-0---0---0---3---2---0---0---0---0---5---3---0---|-0---0---0---3---2---0---5---3---0---3---2---0---|


E|-------------------------------------------------|-------------------------------------------------|
B|-------------------------------------------------|-------------------------------------------------|
G|-------------------------------------------------|-------------------------------------------------|
D|-------------------------------------------------|-------------------------------------------------|
A|-------------4---4---4---------------3---3---3---|-------------2---2---2---------------3---3---3---|
E|-2---2---2---------------2---2---2---------------|-2---2---2---------------2---2---2---------------|


E|-------------------------------------------------|-------------------------------------------------|
B|-------------------------------------------------|-------------------------------------------------|
G|-------------------------------------------------|-------------------------------------------------|
D|-------------------------------------------------|-------------------------------------------------|
A|-------------------------------------------------|-------------------------------------------------|
E|-0---0---0---3---2---0---0---0---0---5---3---0---|-0---0---0---3---2---0---5---3---0---3---2---0---|


E|-------------------------------------------------|-------------------------------------------------|
B|-------------------------------------------------|-------------------------------------------------|
G|-------------------------------------------------|-------------------------------------------------|
D|-------------------------------------------------|-------------------------------------------------|
A|-------------4---4---4---------------3---3---3---|-------------2---2---2---------------3---3---3---|
E|-2---2---2---------------2---2---2---------------|-2---2---2---------------2---2---2---------------|


E|-------------------------------------------------|-------------------------------------------------|
B|-------------------------------------------------|-------------------------------------------------|
G|-------------------------------------------------|-------------------------------------------------|
D|-------------------------------------------------|-------------------------------------------------|
A|-------------------------------------------------|-------------------------------------------------|
E|-0---0---0---3---2---0---0---0---0---5---3---0---|-0---0---0---3---2---0---5---3---0---3---2---0---|


E|-------------------------------------------------|-------------------------------------------------|
B|-------------------------------------------------|-------------------------------------------------|
G|-------------------------------------------------|-------------------------------------------------|
D|-------------------------------------------------|-------------------------------------------------|
A|-4---4---4---4-----------------------------------|-4---4---4---4-----------------------2---3---4---|
E|-2---2---2---2---2---0---2---3---5---3---2---0---|-2---2---2---2---2---0---2---3---5---------------|


E|-------------------------------------------------|-------------------------------------------------|
B|-------------------------------------------------|-------------------------------------------------|
G|-------------------------------------------------|-------------------------------------------------|
D|-------------------------------------------------|-------------------------------------------------|
A|-4---4---4---4-----------------------------------|-4---4---4---4-----------------------------------|
E|-2---2---2---2---2---0---2---3---5---3---2---0---|-2---2---2---2---2---2---2---2---2---2---2---2---|


E|-------------------------------------------------|-------------------------------------------------|
B|-------------------------------------------------|-------------------------------------------------|
G|-------------------------------------------------|-------------------------------------------------|
D|-------------------------------------------------|-------------------------------------------------|
A|-4---4---4---4-----------------------------------|-4---4---4---4-----------------------2---3---4---|
E|-2---2---2---2---2---0---2---3---5---3---2---0---|-2---2---2---2---2---0---2---3---5---------------|


E|-------------------------------------------------|-------------------------------------------------|
B|-------------------------------------------------|-------------------------------------------------|
G|-------------------------------------------------|-------------------------------------------------|
D|-------------------------------------------------|-------------------------------------------------|
A|-4---4---4---4-----------------------------------|-4---4---4---4-----------------------------------|
E|-2---2---2---2---2---0---2---3---5---3---2---0---|-2---2---2---2---2---2---2---2---2---2---2---2---|


E|-------------------------------------------------|-------------------------------------------------|
B|-------------------------------------------------|-------------------------------------------------|
G|-------------------------------------------------|-------------------------------------------------|
D|-------------------------------------------------|-------------------------------------------------|
A|-4---4---4---4-----------------------------------|-4---4---4---4-----------------------------------|
E|-2---2---2---2---2---0---2---3---5---3---2---0---|-2---2---2---2---2---2---2---2---2---2---2---2---|


E|-------------------------------------------------|-------------------------------------------------|
B|-------------------------------------------------|-------------------------------------------------|
G|-------------------------------------------------|-------------------------------------------------|
D|-------------------------------------------------|-------------------------------------------------|
A|-4---4---4---4-----------------------------------|-4---4---4---4-----------------------------------|
E|-2---2---2---2---2---0---2---3---5---3---2---0---|-2---2---2---2---2---2---2---2---2---2---2---2---|


E|-------------------------------------------------|-------------------------------------------------|
B|-------------------------------------------------|-------------------------------------------------|
G|-------------------------------------------------|-------------------------------------------------|
D|-------------------------------------------------|-------------------------------------------------|
A|-4---4---4---4-----------------------------------|-4---4---4---4-----------------------2---3---4---|
E|-2---2---2---2---2---0---2---3---5---3---2---0---|-2---2---2---2---2---0---2---3---5---------------|


E|-------------------------------------------------|-------------------------------------------------|
B|-------------------------------------------------|-------------------------------------------------|
G|-------------------------------------------------|-------------------------------------------------|
D|-------------------------------------------------|-------------------------------------------------|
A|-4---4---4---4-----------------------------------|-4---4---4---4---3---2---------------------------|
E|-2---2---2---2---2---0---2---3---5---3---2---0---|-2---2---2---2-----------5---3---2---0---2---3---|


E|-------------------------------------------------|-------------------------------------------------|
B|-------------------------------------------------|-------------------------------------------------|
G|-------------------------------------------------|-------------------------------------------------|
D|-------------------------------------------------|-------------------------------------------------|
A|-6---6---6---6-----------------------------------|-6---6---6---6-----------------------4---5---6---|
E|-4---4---4---4---4---2---4---5---7---5---4---2---|-4---4---4---4---4---2---4---5---7---------------|


E|-------------------------------------------------|-------------------------------------------------|
B|-------------------------------------------------|-------------------------------------------------|
G|-------------------------------------------------|-------------------------------------------------|
D|-------------------------------------------------|-------------------------------------------------|
A|-6---6---6---6-----------------------------------|-6---6---6---6-----------------------------------|
E|-4---4---4---4---4---2---4---5---7---5---4---2---|-4---4---4---4---4---4---4---4---4---4---4---4---|


E|-------------------------------------------------|-------------------------------------------------|
B|-------------------------------------------------|-------------------------------------------------|
G|-------------------------------------------------|-------------------------------------------------|
D|-------------------------------------------------|-------------------------------------------------|
A|-8---8---8---8-----------------------------------|-8---8---8---8-----------------------6---7---8---|
E|-6---6---6---6---6---4---6---7---9---7---6---4---|-6---6---6---6---6---4---6---7---9---------------|


E|-------------------------------------------------|-------------------------------------------------|
B|-------------------------------------------------|-------------------------------------------------|
G|-------------------------------------------------|-------------------------------------------------|
D|-------------------------------------------------|-------------------------------------------------|
A|-8---8---8---8-----------------------------------|-8---8---8---8-----------------------------------|
E|-6---6---6---6---6---4---6---7---9---7---6---4---|-6---6---6---6---6---6---6---6---6---6---6---6---|


E|-------------------------------------------------|-------------------------------------------------|
B|-------------------------------------------------|-------------------------------------------------|
G|-------------------------------------------------|-------------------------------------------------|
D|-------------------------------------------------|-------------------------------------------------|
A|-4---4---4---4-----------------------------------|-4---4---4---4-----------------------------------|
E|-2---2---2---2---2---0---2---3---5---3---2---0---|-2---2---2---2---2---2---2---2---2---2---2---2---|


E|-------------------------------------------------|-------------------------------------------------|
B|-------------------------------------------------|-------------------------------------------------|
G|-------------------------------------------------|-------------------------------------------------|
D|-------------------------------------------------|-------------------------------------------------|
A|-4---4---4---4-----------------------------------|-4---4---4---4-----------------------------------|
E|-2---2---2---2---2---0---2---3---5---3---2---0---|-2---2---2---2---2---2---2---2---2---2---2---2---|


E|-------------------------------------------------|-------------------------------------------------|
B|-------------------------------------------------|-------------------------------------------------|
G|-------------------------------------------------|-------------------------------------------------|
D|-------------------------------------------------|-------------------------------------------------|
A|-4---4---4---4-----------------------------------|-4---4---4---4-----------------------2---3---4---|
E|-2---2---2---2---2---0---2---3---5---3---2---0---|-2---2---2---2---2---0---2---3---5---------------|


E|-------------------------------------------------|-------------------------------------------------|
B|-------------------------------------------------|-------------------------------------------------|
G|-------------------------------------------------|-------------------------------------------------|
D|-------------------------------------------------|-------------------------------------------------|
A|-4---4---4---4-----------------------------------|-4---4---4---4---3---2---------------------------|
E|-2---2---2---2---2---0---2---3---5---3---2---0---|-2---2---2---2-----------5---3---2---0---2---3---|


E|---------------------------|------------------------------|---------------------------|
B|---------------------------|------------------------------|---------------------------|
G|---------------------------|------------------------------|---------------------------|
D|-----------------------2---|-2-----------4---5---4--------|-----------------------2---|
A|-4---2---4-----2---4---0---|-0---4---2---2---3---2---5----|-4---2---4-----2---4---0---|
E|-2---0---2-----0---2-------|-----2---0---------------3----|-2---0---2-----0---2-------|


E|---------------------------------|---------------------------|------------------------------|
B|---------------------------------|---------------------------|------------------------------|
G|---------------------------------|---------------------------|------------------------------|
D|-2-----------4---5---------------|-----------------------2---|-2-----------4---5---4--------|
A|-0---4---2---2---3---2---2---3---|-4---2---4-----2---4---0---|-0---4---2---2---3---2---5----|
E|-----2---0-----------0---0---1---|-2---0---2-----0---2-------|-----2---0---------------3----|


E|---------------------------|---------------------------------|---------------------------|
B|---------------------------|---------------------------------|---------------------------|
G|---------------------------|---------------------------------|---------------------------|
D|-----------------------2---|-2-----------4---5---------------|-----------------------2---|
A|-4---2---4-----2---4---0---|-0---4---2---2---3---2---2---3---|-4---2---4-----2---4---0---|
E|-2---0---2-----0---2-------|-----2---0-----------0---0---1---|-2---0---2-----0---2-------|


E|------------------------------|---------------------------|---------------------------------|
B|------------------------------|---------------------------|---------------------------------|
G|------------------------------|---------------------------|---------------------------------|
D|-2-----------4---5---4--------|-----------------------2---|-2-----------4---5---------------|
A|-0---4---2---2---3---2---5----|-4---2---4-----2---4---0---|-0---4---2---2---3---2---2---3---|
E|-----2---0---------------3----|-2---0---2-----0---2-------|-----2---0-----------0---0---1---|


E|---------------------------|------------------------------|---------------------------|
B|---------------------------|------------------------------|---------------------------|
G|---------------------------|------------------------------|---------------------------|
D|-----------------------2---|-2-----------4---5---4--------|-----------------------2---|
A|-4---2---4-----2---4---0---|-0---4---2---2---3---2---5----|-4---2---4-----2---4---0---|
E|-2---0---2-----0---2-------|-----2---0---------------3----|-2---0---2-----0---2-------|


E|---------------------------------|---------------------------|------------------------------|
B|---------------------------------|---------------------------|------------------------------|
G|---------------------------------|---------------------------|------------------------------|
D|-2-----------4---5---------------|-----------------------2---|-2-----------4---5---4--------|
A|-0---4---2---2---3---2---2---3---|-4---2---4-----2---4---0---|-0---4---2---2---3---2---5----|
E|-----2---0-----------0---0---1---|-2---0---2-----0---2-------|-----2---0---------------3----|


E|---------------------------|---------------------------------|---------------------------|
B|---------------------------|---------------------------------|---------------------------|
G|---------------------------|---------------------------------|---------------------------|
D|-----------------------2---|-2-----------4---5---------------|---------------------------|
A|-4---2---4-----2---4---0---|-0---4---2---2---3---2---2---3---|-----------------------2---|
E|-2---0---2-----0---2-------|-----2---0-----------0---0---1---|-4---2---4-----2---4-------|


E|------------------------------|---------------------------|---------------------------------|
B|------------------------------|---------------------------|---------------------------------|
G|------------------------------|---------------------------|---------------------------------|
D|------------------------------|---------------------------|---------------------------------|
A|-2-----------4---5---4--------|-----------------------2---|-2-----------4---5---------------|
E|-----4---2---------------5----|-4---2---4-----2---4-------|-----4---2-----------2---2---3---|


E|---------------------------|------------------------------|---------------------------|
B|---------------------------|------------------------------|---------------------------|
G|---------------------------|------------------------------|---------------------------|
D|---------------------------|------------------------------|---------------------------|
A|-----------------------2---|-2-----------4---5---4--------|-----------------------2---|
E|-4---2---4-----2---4-------|-----4---2---------------5----|-4---2---4-----2---4-------|


E|-------------------------------|---------------------------|------------------------------|
B|-------------------------------|---------------------------|------------------------------|
G|-------------------------------|---------------------------|------------------------------|
D|-7----6---------5----4---------|-----------------------2---|-2-----------4---5---4--------|
A|-5----4----7----3----2----5----|-4---2---4-----2---4---0---|-0---4---2---2---3---2---5----|
E|-----------5--------------3----|-2---0---2-----0---2-------|-----2---0---------------3----|


E|---------------------------|---------------------------------|---------------------------|
B|---------------------------|---------------------------------|---------------------------|
G|---------------------------|---------------------------------|---------------------------|
D|-----------------------2---|-2-----------4---5---------------|-----------------------2---|
A|-4---2---4-----2---4---0---|-0---4---2---2---3---2---2---3---|-4---2---4-----2---4---0---|
E|-2---0---2-----0---2-------|-----2---0-----------0---0---1---|-2---0---2-----0---2-------|


E|------------------------------|---------------------------|---------------------------------|
B|------------------------------|---------------------------|---------------------------------|
G|------------------------------|---------------------------|---------------------------------|
D|-2-----------4---5---4--------|-----------------------2---|-2-----------4---5---------------|
A|-0---4---2---2---3---2---5----|-4---2---4-----2---4---0---|-0---4---2---2---3---2---2---3---|
E|-----2---0---------------3----|-2---0---2-----0---2-------|-----2---0-----------0---0---1---|


E|---------------------------|------------------------------|------------------------------|
B|---------------------------|------------------------------|------------------------------|
G|---------------------------|------------------------------|------------------------------|
D|-2------------0------------|-0---2-----------2---3---4----|---------2------------2---4---|
A|-2------------0------------|-0---2-----------2---3---4----|---------2------------2---4---|
E|------0---0--------0---0---|---------0---0----------------|-0---0--------0---0-----------|


E|------------------------------|------------------------------|------------------------------|
B|------------------------------|------------------------------|------------------------------|
G|------------------------------|------------------------------|------------------------------|
D|---------4---5---6------------|-4------------4---6-----------|-6---5---4------------2-------|
A|---------4---5---6------------|-4------------4---6-----------|-4---3---2------------0-------|
E|-0---0----------------0---0---|------0---0-----------0---0---|--------------0---0-------0---|


E|------------------------------|------------------------------|---------------------------------|
B|------------------------------|------------------------------|---------------------------------|
G|------------------------------|----------------------0-------|---------------------------------|
D|-5---4---3--------------------|-4---3--------4-----------0---|-----2---2-----------4---5---4---|
A|-3---2---1------------6-------|-2---1------------------------|-----2---2---4---0---2---3---2---|
E|--------------0---0---4---0---|---------2--------2-----------|-2-----------2-------------------|


E|---------------------------|---------------------------------|------------------------------|
B|---------------------------|---------------------------------|------------------------------|
G|-------------------0-------|---------------------------------|----------------------0-------|
D|-----------4-----------0---|---------------------------------|--------------4-----------0---|
A|-5-------------------------|-------------7---8---7---8-------|-1----------------------------|
E|-3----2--------2-----------|-2---0---0---5---6---5---6---0---|-----0---2--------2-----------|


E|---------------------------------|---------------------------|-----------------------------------------|
B|---------------------------------|---------------------------|-----------------------------------------|
G|-----2---2-----------------------|-------------------0-------|-----------------------------------------|
D|-----2---2-----------4---5---4---|-----------4-----------0---|-----------------------------------------|
A|-------------4---0---2---3---2---|-5-------------------------|-------------7---8---7---8-----------7---|
E|-2-----------2-------------------|-3----2--------2-----------|-2---0---0---5---6---5---6---0---0---5---|


E|----------------------------------|---------------------------------|---------------------------|
B|----------------------------------|---------------------------------|---------------------------|
G|--------------------------0-------|---------------------------------|-------------------0-------|
D|------------------4-----------0---|-----2---2-----------4---5---4---|-----------4-----------0---|
A|-8---7---8------------------------|-----2---2---4---0---2---3---2---|-5-------------------------|
E|-6---5---6---2--------2-----------|-2-----------2-------------------|-3----2--------2-----------|


E|---------------------------------|------------------------------|---------------------------------|
B|---------------------------------|------------------------------|---------------------------------|
G|---------------------------------|----------------------0-------|---------------------------------|
D|---------------------------------|--------------4-----------0---|-----2---2-----------4---5---4---|
A|-------------7---8---7---8-------|-2----------------------------|-----2---2---4---0---2---3---2---|
E|-2---0---0---5---6---5---6---0---|-----0---2--------2-----------|-2-----------2-------------------|


E|---------------------------|------------------------|------------------------|---------------------------|
B|---------------------------|------------------------|------------------------|---------------------------|
G|-------------------0-------|------------------------|------------------------|---------------------------|
D|-----------4-----------0---|-----------2------------|------3-----------------|-4-------------------------|
A|-5-------------------------|------------------------|------------------------|----------------------7----|
E|-3----2--------2-----------|-2----0---------5---3---|-1---------3---5---2----|------5---3---2---3---5----|


E|---------------------------|------------------------|---------------------------|
B|---------------------------|------------------------|---------------------------|
G|---------------------------|------------------------|---------------------------|
D|---------------------------|-2-----------------3----|--------------4------------|
A|---------7-----------------|------------------------|---------------------------|
E|-2---3---5----2---3---0----|------5---3---1---------|-3---5---2---------5---3---|


E|---------------------------|---------------------------|------------------------|
B|---------------------------|---------------------------|------------------------|
G|---------------------------|---------------------------|------------------------|
D|---------------------------|--------------2------------|------3-----------------|
A|---------7------------7----|---------------------------|------------------------|
E|-2---3---5----2---3---5----|-2---3---0---------5---3---|-1---------3---5---2----|


E|---------------------------|---------------------------|------------------------|
B|---------------------------|---------------------------|------------------------|
G|---------------------------|---------------------------|------------------------|
D|-4-------------------------|---------------------------|-2-----------------3----|
A|----------------------7----|---------7-----------------|------------------------|
E|------5---3---2---3---5----|-2---3---5----2---3---0----|------5---3---1---------|


E|---------------------------|---------------------------|------------------------------|
B|---------------------------|---------------------------|------------------------------|
G|---------------------------|---------------------------|------------------------------|
D|--------------4------------|---------------------------|--------------14--------------|
A|---------------------------|---------7------------7----|------------------14----------|
E|-3---5---2---------5---3---|-2---3---5----2---3---5----|-2---3---12-----------12--11--|


E|---------------------------|------------------------------|------------------------------|
B|---------------------------|------------------------------|------------------------------|
G|---------------------------|------------------------------|------------------------------|
D|------12-------------------|-10-------------------8-------|--------------6---------------|
A|----------12---------------|-----10-------------------8---|------------------6-----------|
E|-10-----------10--9---8----|---------8---7---6------------|-6---5---4------------4---3---|


E|----------------------------------|-------------------------------------------------|
B|----------------------------------|-------------------------------------------------|
G|----------------------------------|-------------------------------------------------|
D|------4---------------------------|-------------------------------------------------|
A|----------4-----------------------|-------------------------------------------------|
E|-2------------2---1---0---0---0---|-0---0---0---0---0---0---0---0---0---0---0---0---|


E|-------------------------------------------------|-------------------------------------------------|
B|-------------------------------------------------|-------------------------------------------------|
G|-------------------------------------------------|-------------------------------------------------|
D|-------------------------------------------------|-------------------------------------------------|
A|-------------------------------------------------|-------------------------------------------------|
E|-0---0---0---0---0---0---0---0---0---0---0---0---|-0---0---0---0---0---0---0---0---0---2---3---5---|


E|-------------------------------------------------|-------------------------------------------------|
B|-------------------------------------------------|-------------------------------------------------|
G|-------------------------------------------------|-------------------------------------------------|
D|-------------------------------------------------|-------------------------------------------------|
A|-2---3---5---3---2-------------------------------|-------------------------------------------------|
E|---------------------5---4---3---2---0---0---0---|-0---0---0---0---0---0---0---0---0---0---0---0---|


E|-------------------------------------------------|-------------------------------------------------|
B|-------------------------------------------------|-------------------------------------------------|
G|-------------------------------------------------|-------------------------------------------------|
D|-------------------------------------------------|-------------------------------------------------|
A|-------------------------------------------------|-------------------------------------------------|
E|-0---0---0---0---0---0---0---0---0---0---0---0---|-0---0---0---0---0---0---0---0---0---2---3---5---|


E|-------------------------------------------------|-------------------------------------------------|
B|-------------------------------------------------|-------------------------------------------------|
G|-------------------------------------------------|-------------------------------------------------|
D|-------------------------------------------------|-------------------------------------------------|
A|-2---3---5---3---2-------------------------------|-------------------------------------------------|
E|---------------------5---4---3---2---0---0---0---|-0---0---0---0---0---0---0---0---0---0---0---0---|


E|-------------------------------------------------|-------------------------------------------------|
B|-------------------------------------------------|-------------------------------------------------|
G|-------------------------------------------------|-------------------------------------------------|
D|-------------------------------------------------|-------------------------------------------------|
A|-------------------------------------------------|-------------------------------------------------|
E|-0---0---0---0---0---0---0---0---0---0---0---0---|-0---0---0---0---0---0---0---0---0---2---3---5---|


E|-------------------------------------------------|-------------------------------------------------|
B|-------------------------------------------------|-------------------------------------------------|
G|-------------------------------------------------|-------------------------------------------------|
D|-------------------------------------------------|-------------------------------------------------|
A|-2---3---5---3---2-------------------------------|-------------------------------------------------|
E|---------------------5---4---3---2---0---0---0---|-0---0---0---0---0---0---0---0---0---0---0---0---|


E|-------------------------------------------------|-------------------------------------------------|
B|-------------------------------------------------|-------------------------------------------------|
G|-------------------------------------------------|-------------------------------------------------|
D|-------------------------------------------------|-------------------------------------------------|
A|-------------------------------------------------|-------------------------------------------------|
E|-0---0---0---0---0---0---0---0---0---0---0---0---|-0---0---0---0---0---0---0---0---0---2---3---5---|


E|-------------------------------------------------|-------------------------------------------------|
B|-------------------------------------------------|-------------------------------------------------|
G|-------------------------------------------------|-------------------------------------------------|
D|-------------------------------------------------|-------------------------------------------------|
A|-2---3---5---3---2-------------------------------|-------------------------------------------------|
E|---------------------5---4---3---2---0---0---0---|-0---0---0---0---0---0---0---3---2---1---1---1---|


E|-------------------------------------------------|-------------------------------------------------|
B|-------------------------------------------------|-------------------------------------------------|
G|-------------------------------------------------|-------------------------------------------------|
D|-------------------------------------------------|-------------------------------------------------|
A|-------------------------------------------------|-------------------------------------------------|
E|-1---1---1---1---1---1---1---4---3---2---2---2---|-2---2---2---2---2---2---2---5---4---2---3---5---|


E|-------------------------------------------------|-------------------------------------------------|
B|-------------------------------------------------|-------------------------------------------------|
G|-------------------------------------------------|-------------------------------------------------|
D|-------------------------------------------------|-------------------------------------------------|
A|-2---3---5---3---2-------------------------------|-------------------------------------------------|
E|---------------------5---4---3---2---0---0---0---|-0---0---0---0---0---0---0---3---2---1---1---1---|


E|-------------------------------------------------|-------------------------------------------------|
B|-------------------------------------------------|-------------------------------------------------|
G|-------------------------------------------------|-------------------------------------------------|
D|-------------------------------------------------|-------------------------------------------------|
A|-------------------------------------------------|-------------------------------------------------|
E|-1---1---1---1---1---1---1---4---3---2---2---2---|-2---2---2---2---2---2---2---5---4---2---3---5---|


E|-------------------------------------------------|-------------------------------------------------|
B|-------------------------------------------------|-------------------------------------------------|
G|-------------------------------------------------|-------------------------------------------------|
D|-------------------------------------------------|-------------------------------------------------|
A|-2---3---5---3---2-------------------------------|-------------------------------------------------|
E|---------------------5---4---3---2---0---0---0---|-0---0---0---0---0---0---0---3---2---1---1---1---|


E|-------------------------------------------------|-------------------------------------------------|
B|-------------------------------------------------|-------------------------------------------------|
G|-------------------------------------------------|-------------------------------------------------|
D|-------------------------------------------------|-------------------------------------------------|
A|-------------------------------------------------|-------------------------------------------------|
E|-1---1---1---1---1---1---1---4---3---2---2---2---|-2---2---2---2---2---2---2---5---4---2---3---5---|


E|-------------------------------------------------|-------------------------------------------------|
B|-------------------------------------------------|-------------------------------------------------|
G|-------------------------------------------------|-------------------------------------------------|
D|-------------------------------------------------|-------------------------------------------------|
A|-2---3---5---3---2-------------------------------|-------------------------------------------------|
E|---------------------5---4---3---2---4---4---4---|-4---4---4---4---4---4---4---7---6---5---5---5---|


E|-------------------------------------------------|-------------------------------------------------|
B|-------------------------------------------------|-------------------------------------------------|
G|-------------------------------------------------|-------------------------------------------------|
D|-------------------------------------------------|-------------------------------------------------|
A|---------------------5---------------------------|-------------------------------------------------|
E|-5---8---5---7---8-------8---7---5---1---1---1---|-1---4---1---1---3---4---3---2---1---0---0---0---|


E|-------------------------------------------------|-------------------------------------------------|
B|-------------------------------------------------|-------------------------------------------------|
G|-------------------------------------------------|-------------------------------------------------|
D|-------------------------------------------------|-------------------------------------------------|
A|-------------------------------------------------|-------------------------------------------------|
E|-0---0---0---0---0---0---0---0---0---0---0---0---|-0---0---0---0---0---0---0---0---0---0---0---0---|


E|-------------------------------------------------|-------------------------------------------------|
B|-------------------------------------------------|-------------------------------------------------|
G|-------------------------------------------------|-------------------------------------------------|
D|-------------------------------------------------|-------------------------------------------------|
A|-------------------------------------------------|-2---3---5---3---2-------------------------------|
E|-0---0---0---0---0---0---0---0---0---2---3---5---|---------------------5---4---3---2---0---0---0---|


E|-------------------------------------------------|-------------------------------------------------|
B|-------------------------------------------------|-------------------------------------------------|
G|-------------------------------------------------|-------------------------------------------------|
D|-------------------------------------------------|-------------------------------------------------|
A|-------------------------------------------------|-------------------------------------------------|
E|-0---0---0---0---0---0---0---0---0---0---0---0---|-0---0---0---0---0---0---0---0---0---0---0---0---|


E|-------------------------------------------------|-------------------------------------------------|
B|-------------------------------------------------|-------------------------------------------------|
G|-------------------------------------------------|-------------------------------------------------|
D|-------------------------------------------------|-------------------------------------------------|
A|-------------------------------------------------|-2---3---5---3---2-------------------------------|
E|-0---0---0---0---0---0---0---0---0---2---3---5---|---------------------5---4---3---2---0---0---0---|


E|-------------------------------------------------|-------------------------------------------------|
B|-------------------------------------------------|-------------------------------------------------|
G|-------------------------------------------------|-------------------------------------------------|
D|-------------------------------------------------|-------------------------------------------------|
A|-------------------------------------------------|-------------------------------------------------|
E|-0---0---0---0---0---0---0---3---2---1---1---1---|-1---1---1---1---1---1---1---4---3---2---2---2---|


E|-------------------------------------------------|-------------------------------------------------|
B|-------------------------------------------------|-------------------------------------------------|
G|-------------------------------------------------|-------------------------------------------------|
D|-------------------------------------------------|-------------------------------------------------|
A|-------------------------------------------------|-2---3---5---3---2-------------------------------|
E|-2---2---2---2---2---2---2---5---4---2---3---5---|---------------------5---4---3---2---0---0---0---|


E|-------------------------------------------------|-------------------------------------------------|
B|-------------------------------------------------|-------------------------------------------------|
G|-------------------------------------------------|-------------------------------------------------|
D|-------------------------------------------------|-------------------------------------------------|
A|-------------------------------------------------|-------------------------------------------------|
E|-0---0---0---0---0---0---0---3---2---1---1---1---|-1---1---1---1---1---1---1---4---3---2---2---2---|


E|-------------------------------------------------|-------------------------------------------------|
B|-------------------------------------------------|-------------------------------------------------|
G|-------------------------------------------------|-------------------------------------------------|
D|-------------------------------------------------|-------------------------------------------------|
A|-------------------------------------------------|-2---3---5---3---2-------------------------------|
E|-2---2---2---2---2---2---2---5---4---2---3---5---|---------------------5---4---3---2---0---0---0---|


E|-------------------------------------------------|-------------------------------------------------|
B|-------------------------------------------------|-------------------------------------------------|
G|-------------------------------------------------|-------------------------------------------------|
D|-------------------------------------------------|-------------------------------------------------|
A|-------------------------------------------------|-------------------------------------------------|
E|-0---0---0---0---0---0---0---3---2---1---1---1---|-1---1---1---1---1---1---1---4---3---2---2---2---|


E|-------------------------------------------------|-------------------------------------------------|
B|-------------------------------------------------|-------------------------------------------------|
G|-------------------------------------------------|-------------------------------------------------|
D|-------------------------------------------------|-------------------------------------------------|
A|-------------------------------------------------|-2---3---5---3---2-------------------------------|
E|-2---2---2---2---2---2---2---5---4---2---3---5---|---------------------5---4---3---2---4---4---4---|


E|-------------------------------------------------|-------------------------------------------------|
B|-------------------------------------------------|-------------------------------------------------|
G|-------------------------------------------------|-------------------------------------------------|
D|-------------------------------------------------|-------------------------------------------------|
A|-------------------------------------------------|---------------------5---------------------------|
E|-4---4---4---4---4---4---4---7---6---5---5---5---|-5---8---5---7---8-------8---7---5---1---1---1---|


E|---------------------------------------------|-------------|
B|---------------------------------------------|-------------|
G|---------------------------------------------|-------------|
D|---------------------------------------------|-------------|
A|-------------------------------------2-------|-------------|
E|-1---4---1---1---3---4---3---2---1---0-------|-------------|





Track 2: Chris Poland

E|--------|--------|--------|--------|--------|--------|--------|--------|--------|
B|--------|--------|--------|--------|--------|--------|--------|--------|--------|
G|--------|--------|--------|--------|--------|--------|--------|--------|--------|
D|--------|--------|--------|--------|--------|--------|--------|--------|--------|
A|--------|--------|--------|--------|--------|--------|--------|--------|--------|
E|--------|--------|--------|--------|--------|--------|--------|--------|--------|


E|--------|--------|--------|--------|--------|--------|--------|--------|--------|
B|--------|--------|--------|--------|--------|--------|--------|--------|--------|
G|--------|--------|--------|--------|--------|--------|--------|--------|--------|
D|--------|--------|--------|--------|--------|--------|--------|--------|--------|
A|--------|--------|--------|--------|--------|--------|--------|--------|--------|
E|--------|--------|--------|--------|--------|--------|--------|--------|--------|


E|--------|--------|--------|--------|--------|--------|--------|--------|--------|
B|--------|--------|--------|--------|--------|--------|--------|--------|--------|
G|--------|--------|--------|--------|--------|--------|--------|--------|--------|
D|--------|--------|--------|--------|--------|--------|--------|--------|--------|
A|--------|--------|--------|--------|--------|--------|--------|--------|--------|
E|--------|--------|--------|--------|--------|--------|--------|--------|--------|


E|--------|--------|--------|--------|--------|--------|--------|--------|--------|
B|--------|--------|--------|--------|--------|--------|--------|--------|--------|
G|--------|--------|--------|--------|--------|--------|--------|--------|--------|
D|--------|--------|--------|--------|--------|--------|--------|--------|--------|
A|--------|--------|--------|--------|--------|--------|--------|--------|--------|
E|--------|--------|--------|--------|--------|--------|--------|--------|--------|


E|--------|--------|--------|--------|--------|--------|--------|--------|--------|
B|--------|--------|--------|--------|--------|--------|--------|--------|--------|
G|--------|--------|--------|--------|--------|--------|--------|--------|--------|
D|--------|--------|--------|--------|--------|--------|--------|--------|--------|
A|--------|--------|--------|--------|--------|--------|--------|--------|--------|
E|--------|--------|--------|--------|--------|--------|--------|--------|--------|


E|--------|--------|--------|--------|--------|--------|--------|--------|--------|
B|--------|--------|--------|--------|--------|--------|--------|--------|--------|
G|--------|--------|--------|--------|--------|--------|--------|--------|--------|
D|--------|--------|--------|--------|--------|--------|--------|--------|--------|
A|--------|--------|--------|--------|--------|--------|--------|--------|--------|
E|--------|--------|--------|--------|--------|--------|--------|--------|--------|


E|--------|--------|--------|--------|--------|--------|--------|--------|--------|
B|--------|--------|--------|--------|--------|--------|--------|--------|--------|
G|--------|--------|--------|--------|--------|--------|--------|--------|--------|
D|--------|--------|--------|--------|--------|--------|--------|--------|--------|
A|--------|--------|--------|--------|--------|--------|--------|--------|--------|
E|--------|--------|--------|--------|--------|--------|--------|--------|--------|


E|--------|--------|--------|--------|--------|--------|--------|--------|-------------------------------|
B|--------|--------|--------|--------|--------|--------|--------|--------|-------------------------------|
G|--------|--------|--------|--------|--------|--------|--------|--------|-------------------------------|
D|--------|--------|--------|--------|--------|--------|--------|--------|----------------------------13-|
A|--------|--------|--------|--------|--------|--------|--------|--------|-------16-14-16-14----14-16----|
E|--------|--------|--------|--------|--------|--------|--------|--------|-------------------16----------|


E|-------------------------------------------------|----------14---------17----17--|
B|-------------------------------------------------|-14-16-17----17-17-------------|
G|----------------------13----13-15-13----13-15-16-|-------------------------------|
D|----13-16-13----13-16----16----------16----------|-------------------------------|
A|-16----------16----------------------------------|-------------------------------|
E|-------------------------------------------------|-------------------------------|


E|-17--------------------------|--------------------------------------|-------------------------------------------------|
B|------19---19-19-19---19-17--|-17---17--17--16-14----14-------------|-------------------------------------------------|
G|-----------------------------|--------------------16----16-15-13----|-13----------------------------------------------|
D|-----------------------------|-----------------------------------16-|----16-14-13----13-------------------------------|
A|-----------------------------|--------------------------------------|-------------16----16-14-13----13----------------|
E|-----------------------------|--------------------------------------|----------------------------16----16-14-12-14-16-|


E|----------------------------|------------------------------|--------|--------|--------|
B|----------14----------------|---------------------14---14--|--------|--------|--------|
G|-------16----16---16---16---|-16--16--16--13--16-----------|-13-----|--------|--------|
D|----18----------------------|------------------------------|--------|--------|--------|
A|-14-------------------------|------------------------------|--------|--------|--------|
E|----------------------------|------------------------------|--------|--------|--------|


E|--------|--------|--------|--------|--------|--------|--------|--------|--------|
B|--------|--------|--------|--------|--------|--------|--------|--------|--------|
G|--------|--------|--------|--------|--------|--------|--------|--------|--------|
D|--------|--------|--------|--------|--------|--------|--------|--------|--------|
A|--------|--------|--------|--------|--------|--------|--------|--------|--------|
E|--------|--------|--------|--------|--------|--------|--------|--------|--------|


E|--------|--------|--------|--------|--------|--------|--------|--------|--------|
B|--------|--------|--------|--------|--------|--------|--------|--------|--------|
G|--------|--------|--------|--------|--------|--------|--------|--------|--------|
D|--------|--------|--------|--------|--------|--------|--------|--------|--------|
A|--------|--------|--------|--------|--------|--------|--------|--------|--------|
E|--------|--------|--------|--------|--------|--------|--------|--------|--------|


E|--------|--------|--------|--------|--------|--------|--------|--------|--------|
B|--------|--------|--------|--------|--------|--------|--------|--------|--------|
G|--------|--------|--------|--------|--------|--------|--------|--------|--------|
D|--------|--------|--------|--------|--------|--------|--------|--------|--------|
A|--------|--------|--------|--------|--------|--------|--------|--------|--------|
E|--------|--------|--------|--------|--------|--------|--------|--------|--------|


E|--------|------------------------|--------------------|---------------------------|
B|--------|------------------------|--------------------|---------------------------|
G|--------|----------------16--15--|-16--15--------14---|----------14--16-----------|
D|--------|-----------14-----------|---------17---------|------17----------14--14---|
A|--------|------------------------|--------------------|---------------------------|
E|--------|------------------------|--------------------|---------------------------|


E|----------------------------------|-------15--15--15--15--|-15---17---17---15--17--|
B|----------------------------------|-----------------------|------------------------|
G|----------------------------------|-----------------------|------------------------|
D|-----14--14-12-14-12--------------|-----------------------|------------------------|
A|---------------------12--10-------|-----------------------|------------------------|
E|-----------------------------12---|-----------------------|------------------------|


E|-19--15--17--19--15--17--19------|-20---20----------------|-----------17--------|
B|---------------------------------|------------22--20--22--|-20---22--------21---|
G|---------------------------------|------------------------|---------------------|
D|---------------------------------|------------------------|---------------------|
A|---------------------------------|------------------------|---------------------|
E|---------------------------------|------------------------|---------------------|


E|------------------------------|-----------------------------------------------|-----------------------------------------------|
B|-21---21-17--15---------------|-----17-15-17-15-------------------------------|-------10-12-13-12-10--10-8--7-----------8--7--|
G|-----------------19---19--19--|-19--------------17-16-14-17-16-14----------9--|-11-12--------------------------10-9--7--------|
D|------------------------------|-----------------------------------12-9--12----|-----------------------------------------------|
A|------------------------------|-----------------------------------------------|-----------------------------------------------|
E|------------------------------|-----------------------------------------------|-----------------------------------------------|


E|-----------------------------------|-----------------------|----12----12----------12--------12----------12-|
B|-----------------------------------|-----------15----15-15-|-15----15----15-12-15----15--15----15-12-15----|
G|-10-9--7-----9--7------------------|-----------------------|-----------------------------------------------|
D|----------10-------10-9--7----7----|------7----------------|-----------------------------------------------|
A|-----------------------------------|-----------------------|-----------------------------------------------|
E|-----------------------------------|-----------------------|-----------------------------------------------|


E|--------12----------12--------12----------12-|-----------12----12----------------------------|
B|-15--15----15-12-15----15--15----15-12-15----|-17--17-17----15----15-13-12----------12-13-15-|
G|---------------------------------------------|-----------------------------14-12-14----------|
D|---------------------------------------------|-----------------------------------------------|
A|---------------------------------------------|-----------------------------------------------|
E|---------------------------------------------|-----------------------------------------------|


E|-12-15-12-15-15---15--15---15--|-21---21----22---|-22----22--------|-------------|
B|-------------------------------|-----------------|-----------------|-------------|
G|-------------------------------|-----------------|-----------------|-------------|
D|-------------------------------|-----------------|-----------------|-------------|
A|-------------------------------|-----------------|-----------------|-------------|
E|-------------------------------|-----------------|-----------------|-------------|


E|--------|--------|--------|--------|--------|--------|--------|--------|--------|
B|--------|--------|--------|--------|--------|--------|--------|--------|--------|
G|--------|--------|--------|--------|--------|--------|--------|--------|--------|
D|--------|--------|--------|--------|--------|--------|--------|--------|--------|
A|--------|--------|--------|--------|--------|--------|--------|--------|--------|
E|--------|--------|--------|--------|--------|--------|--------|--------|--------|


E|--------|--------|--------|--------|--------|--------|--------|--------|--------|
B|--------|--------|--------|--------|--------|--------|--------|--------|--------|
G|--------|--------|--------|--------|--------|--------|--------|--------|--------|
D|--------|--------|--------|--------|--------|--------|--------|--------|--------|
A|--------|--------|--------|--------|--------|--------|--------|--------|--------|
E|--------|--------|--------|--------|--------|--------|--------|--------|--------|


E|--------|--------|--------|--------|--------|--------|--------|--------|--------|
B|--------|--------|--------|--------|--------|--------|--------|--------|--------|
G|--------|--------|--------|--------|--------|--------|--------|--------|--------|
D|--------|--------|--------|--------|--------|--------|--------|--------|--------|
A|--------|--------|--------|--------|--------|--------|--------|--------|--------|
E|--------|--------|--------|--------|--------|--------|--------|--------|--------|


E|--------|--------|--------|--------|--------|--------|--------|--------|--------|
B|--------|--------|--------|--------|--------|--------|--------|--------|--------|
G|--------|--------|--------|--------|--------|--------|--------|--------|--------|
D|--------|--------|--------|--------|--------|--------|--------|--------|--------|
A|--------|--------|--------|--------|--------|--------|--------|--------|--------|
E|--------|--------|--------|--------|--------|--------|--------|--------|--------|


E|-------------|-------------|-------------|-------------|-------------|-------------|
B|-------------|-------------|-------------|-------------|-------------|-------------|
G|-------------|-------------|-------------|-------------|-------------|-------------|
D|--------9----|--------10---|--------11---|--------12---|--------9----|--------10---|
A|--------7----|--------8----|--------9----|--------10---|--------7----|--------8----|
E|-------------|-------------|-------------|-------------|-------------|-------------|


E|-------------|-------------|-------------|-------------|-------------|-------------|
B|-------------|-------------|-------------|-------------|-------------|-------------|
G|-------------|-------------|-------------|-------------|-------------|-------------|
D|--------11---|--------12---|--------9----|--------10---|--------11---|--------12---|
A|--------9----|--------10---|--------7----|--------8----|--------9----|--------10---|
E|-------------|-------------|-------------|-------------|-------------|-------------|


E|-------------|-------------|-------------|-------------|-------------|
B|-------------|-------------|-------------|-------------|-------------|
G|-------------|-------------|-------------|-------------|-------------|
D|--------13---|--------14---|--------10---|--------9----|-------------|
A|--------11---|--------12---|--------8----|--------7----|-------------|
E|-------------|-------------|-------------|-------------|-------------|





Track 3: Dave Mustaine Solo

E|--------|--------|--------|--------|--------|--------|--------|--------|--------|
B|--------|--------|--------|--------|--------|--------|--------|--------|--------|
G|--------|--------|--------|--------|--------|--------|--------|--------|--------|
D|--------|--------|--------|--------|--------|--------|--------|--------|--------|
A|--------|--------|--------|--------|--------|--------|--------|--------|--------|
E|--------|--------|--------|--------|--------|--------|--------|--------|--------|


E|--------|--------|--------|--------|--------|--------|--------|--------|--------|
B|--------|--------|--------|--------|--------|--------|--------|--------|--------|
G|--------|--------|--------|--------|--------|--------|--------|--------|--------|
D|--------|--------|--------|--------|--------|--------|--------|--------|--------|
A|--------|--------|--------|--------|--------|--------|--------|--------|--------|
E|--------|--------|--------|--------|--------|--------|--------|--------|--------|


E|--------|--------|--------|--------|--------|--------|--------|--------|--------|
B|--------|--------|--------|--------|--------|--------|--------|--------|--------|
G|--------|--------|--------|--------|--------|--------|--------|--------|--------|
D|--------|--------|--------|--------|--------|--------|--------|--------|--------|
A|--------|--------|--------|--------|--------|--------|--------|--------|--------|
E|--------|--------|--------|--------|--------|--------|--------|--------|--------|


E|--------|--------|--------|--------|--------|--------|--------|--------|--------|
B|--------|--------|--------|--------|--------|--------|--------|--------|--------|
G|--------|--------|--------|--------|--------|--------|--------|--------|--------|
D|--------|--------|--------|--------|--------|--------|--------|--------|--------|
A|--------|--------|--------|--------|--------|--------|--------|--------|--------|
E|--------|--------|--------|--------|--------|--------|--------|--------|--------|


E|--------|--------|--------|--------|--------|--------|--------|--------|--------|
B|--------|--------|--------|--------|--------|--------|--------|--------|--------|
G|--------|--------|--------|--------|--------|--------|--------|--------|--------|
D|--------|--------|--------|--------|--------|--------|--------|--------|--------|
A|--------|--------|--------|--------|--------|--------|--------|--------|--------|
E|--------|--------|--------|--------|--------|--------|--------|--------|--------|


E|--------|--------|--------|--------|--------|--------|--------|--------|--------|
B|--------|--------|--------|--------|--------|--------|--------|--------|--------|
G|--------|--------|--------|--------|--------|--------|--------|--------|--------|
D|--------|--------|--------|--------|--------|--------|--------|--------|--------|
A|--------|--------|--------|--------|--------|--------|--------|--------|--------|
E|--------|--------|--------|--------|--------|--------|--------|--------|--------|


E|--------|--------|--------|--------|--------|--------|--------|--------|--------|
B|--------|--------|--------|--------|--------|--------|--------|--------|--------|
G|--------|--------|--------|--------|--------|--------|--------|--------|--------|
D|--------|--------|--------|--------|--------|--------|--------|--------|--------|
A|--------|--------|--------|--------|--------|--------|--------|--------|--------|
E|--------|--------|--------|--------|--------|--------|--------|--------|--------|


E|--------|--------|--------|--------|--------|--------|--------|--------|--------|
B|--------|--------|--------|--------|--------|--------|--------|--------|--------|
G|--------|--------|--------|--------|--------|--------|--------|--------|--------|
D|--------|--------|--------|--------|--------|--------|--------|--------|--------|
A|--------|--------|--------|--------|--------|--------|--------|--------|--------|
E|--------|--------|--------|--------|--------|--------|--------|--------|--------|


E|--------|--------|--------|--------|--------|--------|--------|--------|--------|
B|--------|--------|--------|--------|--------|--------|--------|--------|--------|
G|--------|--------|--------|--------|--------|--------|--------|--------|--------|
D|--------|--------|--------|--------|--------|--------|--------|--------|--------|
A|--------|--------|--------|--------|--------|--------|--------|--------|--------|
E|--------|--------|--------|--------|--------|--------|--------|--------|--------|


E|--------|--------|--------|--------|--------|--------|--------|--------|--------|
B|--------|--------|--------|--------|--------|--------|--------|--------|--------|
G|--------|--------|--------|--------|--------|--------|--------|--------|--------|
D|--------|--------|--------|--------|--------|--------|--------|--------|--------|
A|--------|--------|--------|--------|--------|--------|--------|--------|--------|
E|--------|--------|--------|--------|--------|--------|--------|--------|--------|


E|--------|--------|--------|--------|--------|--------|--------|--------|--------|
B|--------|--------|--------|--------|--------|--------|--------|--------|--------|
G|--------|--------|--------|--------|--------|--------|--------|--------|--------|
D|--------|--------|--------|--------|--------|--------|--------|--------|--------|
A|--------|--------|--------|--------|--------|--------|--------|--------|--------|
E|--------|--------|--------|--------|--------|--------|--------|--------|--------|


E|--------|--------|--------|--------|--------|--------|--------|--------|--------|
B|--------|--------|--------|--------|--------|--------|--------|--------|--------|
G|--------|--------|--------|--------|--------|--------|--------|--------|--------|
D|--------|--------|--------|--------|--------|--------|--------|--------|--------|
A|--------|--------|--------|--------|--------|--------|--------|--------|--------|
E|--------|--------|--------|--------|--------|--------|--------|--------|--------|


E|--------|--------|--------|--------|--------|--------|--------|--------|--------|
B|--------|--------|--------|--------|--------|--------|--------|--------|--------|
G|--------|--------|--------|--------|--------|--------|--------|--------|--------|
D|--------|--------|--------|--------|--------|--------|--------|--------|--------|
A|--------|--------|--------|--------|--------|--------|--------|--------|--------|
E|--------|--------|--------|--------|--------|--------|--------|--------|--------|


E|--------|--------|--------|--------|--------|--------|--------|--------|--------|
B|--------|--------|--------|--------|--------|--------|--------|--------|--------|
G|--------|--------|--------|--------|--------|--------|--------|--------|--------|
D|--------|--------|--------|--------|--------|--------|--------|--------|--------|
A|--------|--------|--------|--------|--------|--------|--------|--------|--------|
E|--------|--------|--------|--------|--------|--------|--------|--------|--------|


E|--------|--------|--------------------|-------------------------------------------------|
B|--------|--------|--------------------|-------------------------------------------------|
G|--------|--------|--------------------|-------------------------------------------------|
D|--------|--------|--------------------|-------------------------------------------------|
A|--------|--------|--------------------|-------------------------------------------------|
E|--------|--------|--------12--12--12--|-10--10--10--13--13--13--12--12--10--12--10--13--|


E|-------------------------------------------------|-------------------------------------------------|
B|-------------------------------------------------|-------------------------------------------------|
G|-------------------------------------------------|-------------------------------------------------|
D|-------------------------------------------------|-------------------------------------14--12--15--|
A|-----11----------------------11------14--14--14--|-12--12--12--15--15--15--14--14--12--------------|
E|-12------13--12--10--13--12------13--------------|-------------------------------------------------|


E|-------------------------------------------------|-------------------------------------------------|
B|-------------------------------------------------|-------------------------------------------------|
G|-----13----------------------13------13----------|-------------13----------------------16--13------|
D|-14------15--14--12--15--14------15------15--14--|-12--14--15------15--14--12--14--15----------15--|
A|-------------------------------------------------|-------------------------------------------------|
E|-------------------------------------------------|-------------------------------------------------|


E|-------------------------------------------------|-------------------------------------------------|
B|-------------------------------------15--12------|---------12--15--12--------------12--18--15------|
G|---------13--16--13--------------13----------13--|-12--13--------------13--12--13--------------16--|
D|-14--15--------------15--14--15------------------|-------------------------------------------------|
A|-------------------------------------------------|-------------------------------------------------|
E|-------------------------------------------------|-------------------------------------------------|


E|-------------------------------------------------------|-------------------------------------------------------------------------|
B|---------15--18--15--------------15--17-12-17-12-17-12-|-17-12-17-12-17-12-17-12-17-12-17-12-17-12-17-12-17-12-18-12-18-12-18-12-|
G|-15--16--------------16--15--16------------------------|-------------------------------------------------------------------------|
D|-------------------------------------------------------|-------------------------------------------------------------------------|
A|-------------------------------------------------------|-------------------------------------------------------------------------|
E|-------------------------------------------------------|-------------------------------------------------------------------------|


E|-------------------------------------------------------------------------|-------------------------------------------------------------------------|
B|-18-12-18-12-18-12-18-12-18-12-18-12-18-12-18-12-18-12-17-12-17-12-17-12-|-17-12-17-12-17-12-17-12-17-12-17-12-17-12-17-12-17-12-18-12-18-12-18-12-|
G|-------------------------------------------------------------------------|-------------------------------------------------------------------------|
D|-------------------------------------------------------------------------|-------------------------------------------------------------------------|
A|-------------------------------------------------------------------------|-------------------------------------------------------------------------|
E|-------------------------------------------------------------------------|-------------------------------------------------------------------------|


E|-------------------------------------------------------------------------|-------------------------------------------------------------------------|
B|-18-12-18-12-18-12-18-12-18-12-18-12-18-12-18-12-18-12-17-12-17-12-17-12-|-17-12-17-12-17-12-18-12-18-12-18-12-18-12-18-12-18-12-17-12-17-12-17-12-|
G|-------------------------------------------------------------------------|-------------------------------------------------------------------------|
D|-------------------------------------------------------------------------|-------------------------------------------------------------------------|
A|-------------------------------------------------------------------------|-------------------------------------------------------------------------|
E|-------------------------------------------------------------------------|-------------------------------------------------------------------------|


E|-------------------------------------------------------12-------|------------------------------------------|
B|-17-12-17-12-17-12-18-12-18-12-18-12-18-12-18-12-18-12-12---14--|-----14---12--12--------------12--14--12--|
G|------------------------------------------------------------14--|-----14---12--12------12--14--12--14--12--|
D|----------------------------------------------------------------|------------------14--12--14--------------|
A|----------------------------------------------------------------|------------------------------------------|
E|----------------------------------------------------------------|------------------------------------------|


E|------------------------------------------|--------|--------|--------|--------|--------|
B|-------------12--14--12----------14--12---|--------|--------|--------|--------|--------|
G|-14--12--14--12--14--12--14--12--14--12---|--------|--------|--------|--------|--------|
D|-14--12--14--------------14--12-----------|--------|--------|--------|--------|--------|
A|------------------------------------------|--------|--------|--------|--------|--------|
E|------------------------------------------|--------|--------|--------|--------|--------|


E|--------|--------|--------|--------|--------|--------|--------|--------|--------|
B|--------|--------|--------|--------|--------|--------|--------|--------|--------|
G|--------|--------|--------|--------|--------|--------|--------|--------|--------|
D|--------|--------|--------|--------|--------|--------|--------|--------|--------|
A|--------|--------|--------|--------|--------|--------|--------|--------|--------|
E|--------|--------|--------|--------|--------|--------|--------|--------|--------|


E|----------------|-------------------------------12-|------------------------------|
B|--------15--15--|-15--15-12-15--15---------12------|-15--------12-----------------|
G|----------------|--------------------12-13---------|------12------14--14--16---14-|
D|----------------|----------------------------------|------------------------------|
A|----------------|----------------------------------|------------------------------|
E|----------------|----------------------------------|------------------------------|


E|---------------------------------|------------------------------------------|-------------------------------------------------|
B|---------------------------------|------------------------------12--12------|-------------12--15------------------15--18------|
G|-13---10-------------------------|------------------------------------------|-----10--13------------------13--16--------------|
D|---------12---11-10---9--11------|--------------------------------------9---|-12------------------12--15------------------15--|
A|------------------------------14-|-13-12-11----11-------11------------------|-------------------------------------------------|
E|---------------------------------|----------13----13-12----12---------------|-------------------------------------------------|


E|-------------------------------------------------|-------------------------------------------------|
B|-------------18--21------------------------------|-------------------------------------------------|
G|-----16--19------------------19--22--19--19--19--|-19--19--19--19--19--19--19--19--19--19--19--19--|
D|-18------------------18--21----------------------|-------------------------------------------------|
A|-------------------------------------------------|-------------------------------------------------|
E|-------------------------------------------------|-------------------------------------------------|


E|------------------------------------------|-------------|-------------|-------------|
B|------------------------------------------|-------------|-------------|-------------|
G|-19--19--19--19--19--19--19--19--19--21---|-------------|-------------|-------------|
D|------------------------------------------|-------------|-------------|-------------|
A|------------------------------------------|-------------|-------------|-------------|
E|------------------------------------------|-------------|-------------|-------------|


E|--------|--------|--------|--------|--------|--------|--------|--------|--------|
B|--------|--------|--------|--------|--------|--------|--------|--------|--------|
G|--------|--------|--------|--------|--------|--------|--------|--------|--------|
D|--------|--------|--------|--------|--------|--------|--------|--------|--------|
A|--------|--------|--------|--------|--------|--------|--------|--------|--------|
E|--------|--------|--------|--------|--------|--------|--------|--------|--------|


E|--------|--------|--------|--------|
B|--------|--------|--------|--------|
G|--------|--------|--------|--------|
D|--------|--------|--------|--------|
A|--------|--------|--------|--------|
E|--------|--------|--------|--------|





Track 4: Jimmy Sloas

G|--------|--------|-------------------------------------------------|-------------------------------------------------|
D|--------|--------|-------------------------------------------------|-------------------------------------------------|
A|--------|--------|-------------------------------------------------|-------------------------------------------------|
E|--------|--------|-0---0---0---3---2---0---0---0---0---5---3---0---|-0---0---0---3---2---0---5---3---0---3---2---0---|


G|-------------------------------------------------|-------------------------------------------------|
D|-------------------------------------------------|-------------------------------------------------|
A|-------------------------------------------------|-------------------------------------------------|
E|-0---0---0---3---2---0---0---0---0---5---3---0---|-0---0---0---3---2---0---5---3---0---3---2---0---|


G|-------------------------------------------------|-------------------------------------------------|
D|-------------------------------------------------|-------------------------------------------------|
A|-------------4---4---4---------------3---3---3---|-------------2---2---2---------------3---3---3---|
E|-2---2---2---------------2---2---2---------------|-2---2---2---------------2---2---2---------------|


G|-------------------------------------------------|-------------------------------------------------|
D|-------------------------------------------------|-------------------------------------------------|
A|-------------------------------------------------|-------------------------------------------------|
E|-0---0---0---3---2---0---0---0---0---5---3---0---|-0---0---0---3---2---0---5---3---0---3---2---0---|


G|-------------------------------------------------|-------------------------------------------------|
D|-------------------------------------------------|-------------------------------------------------|
A|-------------------------------------------------|-------------------------------------------------|
E|-0---0---0---3---2---0---0---0---0---5---3---0---|-0---0---0---3---2---0---5---3---0---3---2---0---|


G|-------------------------------------------------|-------------------------------------------------|
D|-------------------------------------------------|-------------------------------------------------|
A|-------------4---4---4---------------3---3---3---|-------------2---2---2---------------3---3---3---|
E|-2---2---2---------------2---2---2---------------|-2---2---2---------------2---2---2---------------|


G|-------------------------------------------------|-------------------------------------------------|
D|-------------------------------------------------|-------------------------------------------------|
A|-------------------------------------------------|-------------------------------------------------|
E|-0---0---0---3---2---0---0---0---0---5---3---0---|-0---0---0---3---2---0---5---3---0---3---2---0---|


G|-------------------------------------------------|-------------------------------------------------|
D|-------------------------------------------------|-------------------------------------------------|
A|-------------4---4---4---------------3---3---3---|-------------2---2---2---------------3---3---3---|
E|-2---2---2---------------2---2---2---------------|-2---2---2---------------2---2---2---------------|


G|-------------------------------------------------|-------------------------------------------------|
D|-------------------------------------------------|-------------------------------------------------|
A|-------------------------------------------------|-------------------------------------------------|
E|-0---0---0---3---2---0---0---0---0---5---3---0---|-0---0---0---3---2---0---5---3---0---3---2---0---|


G|-------------------------------------------------|-------------------------------------------------|
D|-------------------------------------------------|-------------------------------------------------|
A|-------------------------------------------------|-------------------------------------2---3---4---|
E|-2---2---2---2---2---0---2---3---5---3---2---0---|-2---2---2---2---2---0---2---3---5---------------|


G|-------------------------------------------------|-------------------------------------------------|
D|-------------------------------------------------|-------------------------------------------------|
A|-------------------------------------------------|-------------------------------------------------|
E|-2---2---2---2---2---0---2---3---5---3---2---0---|-2---2---2---2---2---2---2---2---2---2---2---2---|


G|-------------------------------------------------|-------------------------------------------------|
D|-------------------------------------------------|-------------------------------------------------|
A|-------------------------------------------------|-------------------------------------2---3---4---|
E|-2---2---2---2---2---0---2---3---5---3---2---0---|-2---2---2---2---2---0---2---3---5---------------|


G|-------------------------------------------------|-------------------------------------------------|
D|-------------------------------------------------|-------------------------------------------------|
A|-------------------------------------------------|-------------------------------------------------|
E|-2---2---2---2---2---0---2---3---5---3---2---0---|-2---2---2---2---2---2---2---2---2---2---2---2---|


G|-------------------------------------------------|-------------------------------------------------|
D|-------------------------------------------------|-------------------------------------------------|
A|-------------------------------------------------|-------------------------------------------------|
E|-2---2---2---2---2---0---2---3---5---3---2---0---|-2---2---2---2---2---2---2---2---2---2---2---2---|


G|-------------------------------------------------|-------------------------------------------------|
D|-------------------------------------------------|-------------------------------------------------|
A|-------------------------------------------------|-------------------------------------------------|
E|-2---2---2---2---2---0---2---3---5---3---2---0---|-2---2---2---2---2---2---2---2---2---2---2---2---|


G|-------------------------------------------------|-------------------------------------------------|
D|-------------------------------------------------|-------------------------------------------------|
A|-------------------------------------------------|-------------------------------------2---3---4---|
E|-2---2---2---2---2---0---2---3---5---3---2---0---|-2---2---2---2---2---0---2---3---5---------------|


G|-------------------------------------------------|-------------------------------------------------|
D|-------------------------------------------------|-------------------------------------------------|
A|-------------------------------------------------|-----------------3---2---------------------------|
E|-2---2---2---2---2---0---2---3---5---3---2---0---|-2---2---2---2-----------5---3---2---0---2---3---|


G|-------------------------------------------------|-------------------------------------------------|
D|-------------------------------------------------|-------------------------------------------------|
A|-------------------------------------------------|-------------------------------------4---5---6---|
E|-4---4---4---4---4---2---4---5---7---5---4---2---|-4---4---4---4---4---2---4---5---7---------------|


G|-------------------------------------------------|-------------------------------------------------|
D|-------------------------------------------------|-------------------------------------------------|
A|-------------------------------------------------|-------------------------------------------------|
E|-4---4---4---4---4---2---4---5---7---5---4---2---|-4---4---4---4---4---4---4---4---4---4---4---4---|


G|-------------------------------------------------|-------------------------------------------------|
D|-------------------------------------------------|-------------------------------------------------|
A|-------------------------------------------------|-------------------------------------6---7---8---|
E|-6---6---6---6---6---4---6---7---9---7---6---4---|-6---6---6---6---6---4---6---7---9---------------|


G|-------------------------------------------------|-------------------------------------------------|
D|-------------------------------------------------|-------------------------------------------------|
A|-------------------------------------------------|-------------------------------------------------|
E|-6---6---6---6---6---4---6---7---9---7---6---4---|-6---6---6---6---6---6---6---6---6---6---6---6---|


G|-------------------------------------------------|-------------------------------------------------|
D|-------------------------------------------------|-------------------------------------------------|
A|-------------------------------------------------|-------------------------------------------------|
E|-2---2---2---2---2---0---2---3---5---3---2---0---|-2---2---2---2---2---2---2---2---2---2---2---2---|


G|-------------------------------------------------|-------------------------------------------------|
D|-------------------------------------------------|-------------------------------------------------|
A|-------------------------------------------------|-------------------------------------------------|
E|-2---2---2---2---2---0---2---3---5---3---2---0---|-2---2---2---2---2---2---2---2---2---2---2---2---|


G|-------------------------------------------------|-------------------------------------------------|
D|-------------------------------------------------|-------------------------------------------------|
A|-------------------------------------------------|-------------------------------------2---3---4---|
E|-2---2---2---2---2---0---2---3---5---3---2---0---|-2---2---2---2---2---0---2---3---5---------------|


G|-------------------------------------------------|-------------------------------------------------|
D|-------------------------------------------------|-------------------------------------------------|
A|-------------------------------------------------|-----------------3---2---------------------------|
E|-2---2---2---2---2---0---2---3---5---3---2---0---|-2---2---2---2-----------5---3---2---0---2---3---|


G|----------------|--------|--------|--------|---------------------------|------------------------------|
D|----------------|--------|--------|--------|---------------------------|------------------------------|
A|----------------|--------|--------|--------|-----------------------0---|-0-----------2---3---2--------|
E|-2--------------|--------|--------|--------|-2---0---2-----0---2-------|-----2---0---------------3----|


G|---------------------------|---------------------------------|---------------------------|
D|---------------------------|---------------------------------|---------------------------|
A|-----------------------0---|-0-----------2---3---------------|-----------------------0---|
E|-2---0---2-----0---2-------|-----2---0-----------0---0---1---|-2---0---2-----0---2-------|


G|------------------------------|---------------------------|---------------------------------|
D|------------------------------|---------------------------|---------------------------------|
A|-0-----------2---3---2--------|-----------------------0---|-0-----------2---3---------------|
E|-----2---0---------------3----|-2---0---2-----0---2-------|-----2---0-----------0---0---1---|


G|---------------------------|------------------------------|---------------------------|
D|---------------------------|------------------------------|---------------------------|
A|-----------------------0---|-0-----------2---3---2--------|-----------------------0---|
E|-2---0---2-----0---2-------|-----2---0---------------3----|-2---0---2-----0---2-------|


G|---------------------------------|---------------------------|------------------------------|
D|---------------------------------|---------------------------|------------------------------|
A|-0-----------2---3---------------|-----------------------0---|-0-----------2---3---2--------|
E|-----2---0-----------0---0---1---|-2---0---2-----0---2-------|-----2---0---------------3----|


G|---------------------------|---------------------------------|---------------------------|
D|---------------------------|---------------------------------|---------------------------|
A|-----------------------0---|-0-----------2---3---------------|-----------------------2---|
E|-2---0---2-----0---2-------|-----2---0-----------0---0---1---|-4---2---4-----2---4-------|


G|------------------------------|---------------------------|---------------------------------|
D|------------------------------|---------------------------|---------------------------------|
A|-2-----------4---5---4--------|-----------------------2---|-2-----------4---5---------------|
E|-----4---2---------------5----|-4---2---4-----2---4-------|-----4---2-----------2---2---3---|


G|---------------------------|------------------------------|---------------------------|
D|---------------------------|------------------------------|---------------------------|
A|-----------------------2---|-2-----------4---5---4--------|-----------------------2---|
E|-4---2---4-----2---4-------|-----4---2---------------5----|-4---2---4-----2---4-------|


G|-------------------------------|---------------------------|------------------------------|
D|-------------------------------|---------------------------|------------------------------|
A|-5----4---------3----2---------|-----------------------0---|-0-----------2---3---2--------|
E|-----------5--------------3----|-2---0---2-----0---2-------|-----2---0---------------3----|


G|---------------------------|---------------------------------|---------------------------|
D|---------------------------|---------------------------------|---------------------------|
A|-----------------------0---|-0-----------2---3---------------|-----------------------0---|
E|-2---0---2-----0---2-------|-----2---0-----------0---0---1---|-2---0---2-----0---2-------|


G|------------------------------|---------------------------|---------------------------------|
D|------------------------------|---------------------------|---------------------------------|
A|-0-----------2---3---2--------|-----------------------0---|-0-----------2---3---------------|
E|-----2---0---------------3----|-2---0---2-----0---2-------|-----2---0-----------0---0---1---|


G|---------------------------|------------------------------|------------------------------|
D|-2------------0------------|-0---2-----------2---3---4----|---------2------------2---4---|
A|---------------------------|------------------------------|------------------------------|
E|------0---0--------0---0---|---------0---0----------------|-0---0--------0---0-----------|


G|------------------------------|------------------------------|------------------------------|
D|---------4---5---6------------|-4------------4---6-----------|------------------------------|
A|------------------------------|------------------------------|-4---3---2------------0-------|
E|-0---0----------------0---0---|------0---0-----------0---0---|--------------0---0-------0---|


G|------------------------------|------------------------------|---------------------------------|
D|------------------------------|--------------4---------------|---------------------------------|
A|-3---2---1--------------------|-2---1------------------------|-----------------0---2---3---2---|
E|--------------0---0---4---0---|---------2--------2---2---2---|-2---0---0---2-------------------|


G|---------------------------|---------------------------------|------------------------------|
D|-----------4---------------|---------------------------------|--------------4---------------|
A|---------------------------|---------------------------------|-1----------------------------|
E|-3----2--------2---2---2---|-2---0---0---5---6---5---6---0---|-----0---2--------2---2---2---|


G|---------------------------------|---------------------------|-----------------------------------------|
D|---------------------------------|-----------4---------------|-----------------------------------------|
A|-----0---0-------0---2---3---2---|---------------------------|-----------------------------------------|
E|-2-----------2-------------------|-3----2--------2---2---2---|-2---0---0---5---6---5---6---0---0---5---|


G|----------------------------------|---------------------------------|---------------------------|
D|------------------4---------------|---------------------------------|-----------4---------------|
A|----------------------------------|-----------------0---2---3---2---|---------------------------|
E|-6---5---6---2--------2---2---2---|-2---0---0---2-------------------|-3----2--------2---2---2---|


G|---------------------------------|------------------------------|---------------------------------|
D|---------------------------------|--------------4---------------|---------------------------------|
A|---------------------------------|-2----------------------------|-----------------0---2---3---2---|
E|-2---0---0---5---6---5---6---0---|-----0---2--------2---2---2---|-2---0---0---2-------------------|


G|---------------------------|------------------------|------------------------|---------------------------|
D|-----------4---------------|-----------2------------|------3-----------------|-4-------------------------|
A|---------------------------|------------------------|------------------------|---------------------------|
E|-3----2--------2---2---2---|-2----0---------5---3---|-1---------3---5---2----|------5---3---2---3---5----|


G|---------------------------|------------------------|---------------------------|
D|---------------------------|-2-----------------3----|--------------4------------|
A|---------------------------|------------------------|---------------------------|
E|-2---3---5----2---3---0----|------5---3---1---------|-3---5---2---------5---3---|


G|---------------------------|---------------------------|------------------------|
D|---------------------------|--------------2------------|------3-----------------|
A|---------------------------|---------------------------|------------------------|
E|-2---3---5----2---3---5----|-2---3---0---------5---3---|-1---------3---5---2----|


G|---------------------------|---------------------------|------------------------|
D|-4-------------------------|---------------------------|-2-----------------3----|
A|---------------------------|---------------------------|------------------------|
E|------5---3---2---3---5----|-2---3---5----2---3---0----|------5---3---1---------|


G|---------------------------|---------------------------|--------------9---------------|
D|--------------4------------|---------------------------|------------------9-----------|
A|---------------------------|---------------------------|---------7------------7---6---|
E|-3---5---2---------5---3---|-2---3---5----2---3---5----|-2---3------------------------|


G|------7--------------------|-5--------------------3-------|------------------------------|
D|----------7----------------|-----5--------------------3---|--------------6---------------|
A|-5------------5---4---3----|---------3---2---1------------|-1---0------------6-----------|
E|---------------------------|------------------------------|---------4------------4---3---|


G|----------------------------------|-------------------------------------------------|
D|------4---------------------------|-------------------------------------------------|
A|----------4-----------------------|-------------------------------------------------|
E|-2------------2---1---0---0---0---|-0---0---0---0---0---0---0---0---0---0---0---0---|


G|-------------------------------------------------|-------------------------------------------------|
D|-------------------------------------------------|-------------------------------------------------|
A|-------------------------------------------------|-------------------------------------------------|
E|-0---0---0---0---0---0---0---0---0---0---0---0---|-0---0---0---0---0---0---0---0---0---2---3---5---|


G|-------------------------------------------------|-------------------------------------------------|
D|-------------------------------------------------|-------------------------------------------------|
A|-2---3---5---3---2-------------------------------|-------------------------------------------------|
E|---------------------5---4---3---2---0---0---0---|-0---0---0---0---0---0---0---0---0---0---0---0---|


G|-------------------------------------------------|-------------------------------------------------|
D|-------------------------------------------------|-------------------------------------------------|
A|-------------------------------------------------|-------------------------------------------------|
E|-0---0---0---0---0---0---0---0---0---0---0---0---|-0---0---0---0---0---0---0---0---0---2---3---5---|


G|-------------------------------------------------|-------------------------------------------------|
D|-------------------------------------------------|-------------------------------------------------|
A|-2---3---5---3---2-------------------------------|-------------------------------------------------|
E|---------------------5---4---3---2---0---0---0---|-0---0---0---0---0---0---0---0---0---0---0---0---|


G|-------------------------------------------------|-------------------------------------------------|
D|-------------------------------------------------|-------------------------------------------------|
A|-------------------------------------------------|-------------------------------------------------|
E|-0---0---0---0---0---0---0---0---0---0---0---0---|-0---0---0---0---0---0---0---0---0---2---3---5---|


G|-------------------------------------------------|-------------------------------------------------|
D|-------------------------------------------------|-------------------------------------------------|
A|-2---3---5---3---2-------------------------------|-------------------------------------------------|
E|---------------------5---4---3---2---0---0---0---|-0---0---0---0---0---0---0---0---0---0---0---0---|


G|-------------------------------------------------|-------------------------------------------------|
D|-------------------------------------------------|-------------------------------------------------|
A|-------------------------------------------------|-------------------------------------------------|
E|-0---0---0---0---0---0---0---0---0---0---0---0---|-0---0---0---0---0---0---0---0---0---2---3---5---|


G|-------------------------------------------------|-------------------------------------------------|
D|-------------------------------------------------|-------------------------------------------------|
A|-2---3---5---3---2-------------------------------|-------------------------------------------------|
E|---------------------5---4---3---2---0---0---0---|-0---0---0---0---0---0---0---3---2---1---1---1---|


G|-------------------------------------------------|-------------------------------------------------|
D|-------------------------------------------------|-------------------------------------------------|
A|-------------------------------------------------|-------------------------------------------------|
E|-1---1---1---1---1---1---1---1---3---2---2---2---|-2---2---2---2---2---2---2---5---4---2---3---5---|


G|-------------------------------------------------|-------------------------------------------------|
D|-------------------------------------------------|-------------------------------------------------|
A|-2---3---5---3---2-------------------------------|-------------------------------------------------|
E|---------------------5---4---3---2---0---0---0---|-0---0---0---0---0---0---0---3---2---1---1---1---|


G|-------------------------------------------------|-------------------------------------------------|
D|-------------------------------------------------|-------------------------------------------------|
A|-------------------------------------------------|-------------------------------------------------|
E|-1---1---1---1---1---1---1---1---3---2---2---2---|-2---2---2---2---2---2---2---5---4---2---3---5---|


G|-------------------------------------------------|-------------------------------------------------|
D|-------------------------------------------------|-------------------------------------------------|
A|-2---3---5---3---2-------------------------------|-------------------------------------------------|
E|---------------------5---4---3---2---0---0---0---|-0---0---0---0---0---0---0---3---2---1---1---1---|


G|-------------------------------------------------|-------------------------------------------------|
D|-------------------------------------------------|-------------------------------------------------|
A|-------------------------------------------------|-------------------------------------------------|
E|-1---1---1---1---1---1---1---1---3---2---2---2---|-2---2---2---2---2---2---2---5---4---2---3---5---|


G|-------------------------------------------------|-------------------------------------------------|
D|-------------------------------------------------|-------------------------------------------------|
A|-2---3---5---3---2-------------------------------|-------------------------------------------------|
E|---------------------5---4---3---2---4---4---4---|-4---4---4---4---4---4---4---7---6---5---5---5---|


G|-------------------------------------------------|-------------------------------------------------|
D|-------------------------------------------------|-------------------------------------------------|
A|---------------------5---------------------------|-------------------------------------------------|
E|-5---8---5---7---8-------8---7---5---1---1---1---|-1---4---1---1---3---4---3---2---1---0---0---0---|


G|-------------------------------------------------|-------------------------------------------------|
D|-------------------------------------------------|-------------------------------------------------|
A|-------------------------------------------------|-------------------------------------------------|
E|-0---0---0---0---0---0---0---0---0---0---0---0---|-0---0---0---0---0---0---0---0---0---0---0---0---|


G|-------------------------------------------------|-------------------------------------------------|
D|-------------------------------------------------|-------------------------------------------------|
A|-------------------------------------------------|-2---3---5---3---2-------------------------------|
E|-0---0---0---0---0---0---0---0---0---2---3---5---|---------------------5---4---3---2---0---0---0---|


G|-------------------------------------------------|-------------------------------------------------|
D|-------------------------------------------------|-------------------------------------------------|
A|-------------------------------------------------|-------------------------------------------------|
E|-0---0---0---0---0---0---0---0---0---0---0---0---|-0---0---0---0---0---0---0---0---0---0---0---0---|


G|-------------------------------------------------|-------------------------------------------------|
D|-------------------------------------------------|-------------------------------------------------|
A|-------------------------------------------------|-2---3---5---3---2-------------------------------|
E|-0---0---0---0---0---0---0---0---0---2---3---5---|---------------------5---4---3---2---0---0---0---|


G|-------------------------------------------------|-------------------------------------------------|
D|-------------------------------------------------|-------------------------------------------------|
A|-------------------------------------------------|-------------------------------------------------|
E|-0---0---0---0---0---0---0---3---2---1---1---1---|-1---1---1---1---1---1---1---1---3---2---2---2---|


G|-------------------------------------------------|-------------------------------------------------|
D|-------------------------------------------------|-------------------------------------------------|
A|-------------------------------------------------|-2---3---5---3---2-------------------------------|
E|-2---2---2---2---2---2---2---5---4---2---3---5---|---------------------5---4---3---2---0---0---0---|


G|-------------------------------------------------|-------------------------------------------------|
D|-------------------------------------------------|-------------------------------------------------|
A|-------------------------------------------------|-------------------------------------------------|
E|-0---0---0---0---0---0---0---3---2---1---1---1---|-1---1---1---1---1---1---1---1---3---2---2---2---|


G|-------------------------------------------------|-------------------------------------------------|
D|-------------------------------------------------|-------------------------------------------------|
A|-------------------------------------------------|-2---3---5---3---2-------------------------------|
E|-2---2---2---2---2---2---2---5---4---2---3---5---|---------------------5---4---3---2---0---0---0---|


G|-------------------------------------------------|-------------------------------------------------|
D|-------------------------------------------------|-------------------------------------------------|
A|-------------------------------------------------|-------------------------------------------------|
E|-0---0---0---0---0---0---0---3---2---1---1---1---|-1---1---1---1---1---1---1---1---3---2---2---2---|


G|-------------------------------------------------|-------------------------------------------------|
D|-------------------------------------------------|-------------------------------------------------|
A|-------------------------------------------------|-2---3---5---3---2-------------------------------|
E|-2---2---2---2---2---2---2---5---4---2---3---5---|---------------------5---4---3---2---4---4---4---|


G|-------------------------------------------------|-------------------------------------------------|
D|-------------------------------------------------|-------------------------------------------------|
A|-------------------------------------------------|---------------------5---------------------------|
E|-4---4---4---4---4---4---4---7---6---5---5---5---|-5---8---5---7---8-------8---7---5---1---1---1---|


G|---------------------------------------------|-------------|
D|---------------------------------------------|-------------|
A|---------------------------------------------|-------------|
E|-1---4---1---1---3---4---3---2---1---0-------|-------------|