Menu:

 

Search:

 

megadeth - back in the day:

 



Title: Back In The Day
Artist: 
Album: The System Has Failed
Author: Dave Mustaine


Track 1: Dave Mustaine Rhythm

E|---------------------------------|---------------------------------|---------------------------------|
B|---------------------------------|---------------------------------|---------------------------------|
G|---------------------------------|---------------------------------|---------------------------------|
D|-10--0---0---8---0---0---7---0---|-0---8---0---0---7---0---7---0---|-10--0---0---8---0---0---7---0---|
A|---------------------------------|---------------------------------|---------------------------------|
E|---------------------------------|---------------------------------|---------------------------------|


E|---------------------------------|---------------------------------|---------------------------------|
B|---------------------------------|---------------------------------|---------------------------------|
G|---------------------------------|---------------------------------|---------------------------------|
D|-0---8---0---0---7---0---7---0---|-10--0---0---8---0---0---7---0---|-0---8---0---0---7---0---7---0---|
A|---------------------------------|---------------------------------|---------------------------------|
E|---------------------------------|---------------------------------|---------------------------------|


E|---------------------------------|---------------------------------|---------------------------------|
B|---------------------------------|---------------------------------|---------------------------------|
G|---------------------------------|---------------------------------|---------------------------------|
D|-10--0---0---8---0---0---7---0---|-0---8---0---0---7---0---7---0---|-10--0---0---8---0---0---7---0---|
A|---------------------------------|---------------------------------|---------------------------------|
E|---------------------------------|---------------------------------|---------------------------------|


E|---------------------------------|---------------------------------|---------------------------------|
B|---------------------------------|---------------------------------|---------------------------------|
G|---------------------------------|---------------------------------|---------------------------------|
D|-0---8---0---0---7---0---7---0---|-10--0---0---8---0---0---7---0---|-0---8---0---0---7---0---7---0---|
A|---------------------------------|---------------------------------|---------------------------------|
E|---------------------------------|---------------------------------|---------------------------------|


E|---------------------------------|---------------------------------|---------------------------------|
B|---------------------------------|---------------------------------|---------------------------------|
G|---------------------------------|---------------------------------|---------------------------------|
D|-10--0---0---8---0---0---7---0---|-0---8---0---0---7---0---7---0---|-10--0---0---8---0---0---7---0---|
A|---------------------------------|---------------------------------|---------------------------------|
E|---------------------------------|---------------------------------|---------------------------------|


E|---------------------------------|---------------------------------|---------------------------------|
B|---------------------------------|---------------------------------|---------------------------------|
G|---------------------------------|---------------------------------|---------------------------------|
D|-0---8---0---0---7---0---7---0---|-10--0---0---8---0---0---7---0---|-0---8---0---0---7---0---7---0---|
A|---------------------------------|---------------------------------|---------------------------------|
E|---------------------------------|---------------------------------|---------------------------------|


E|---------------------------------|---------------------------------|---------------------------------|
B|---------------------------------|---------------------------------|---------------------------------|
G|---------------------------------|---------------------------------|---------------------------------|
D|-10--0---0---8---0---0---7---0---|-0---8---0---0---7---0---7---0---|-10--0---0---8---0---0---7---0---|
A|---------------------------------|---------------------------------|---------------------------------|
E|---------------------------------|---------------------------------|---------------------------------|


E|---------------------------------|---------------------------------|---------------------------------|
B|---------------------------------|---------------------------------|---------------------------------|
G|---------------------------------|---------------------------------|---------------------------------|
D|-0---8---0---0---7---0---7---0---|-10--0---0---8---0---0---7---0---|-0---8---0---0---7---0---7---0---|
A|---------------------------------|---------------------------------|---------------------------------|
E|---------------------------------|---------------------------------|---------------------------------|


E|---------------------------------|---------------------------------|---------------------------------|
B|---------------------------------|---------------------------------|---------------------------------|
G|---------------------------------|---------------------------------|---------------------------------|
D|-10--0---0---8---0---0---7---0---|-0---8---0---0---7---0---7---0---|-10--0---0---8---0---0---7---0---|
A|---------------------------------|---------------------------------|---------------------------------|
E|---------------------------------|---------------------------------|---------------------------------|


E|---------------------------------|---------------------------------|---------------------------------|
B|---------------------------------|---------------------------------|---------------------------------|
G|---------------------------------|---------------------------------|---------------------------------|
D|-0---8---0---0---7---0---7---0---|-10--0---0---8---0---0---7---0---|-0---8---0---0---7---0---7---0---|
A|---------------------------------|---------------------------------|---------------------------------|
E|---------------------------------|---------------------------------|---------------------------------|


E|---------------------------------|---------------------------------|---------------------|
B|---------------------------------|---------------------------------|---------------------|
G|---------------------------------|---------------------------------|-7-------------------|
D|-10--0---0---8---0---0---7---0---|-0---8---0---0---7---0---7---0---|-7-----7-----7---8---|
A|---------------------------------|---------------------------------|-5-----7-----7---8---|
E|---------------------------------|---------------------------------|-------5-----5---6---|


E|------------------------------|---------------------|------------------------|---------------------|
B|------------------------------|---------------------|------------------------|---------------------|
G|------------------------------|-7-------------------|------------------------|-7-------------------|
D|-8----------------------------|-7-----7-----7---8---|-8----------------------|-7-----7-----7---8---|
A|-8----------------------------|-5-----7-----7---8---|-8----------------10----|-5-----7-----7---8---|
E|-6----6---6---6---6---6---6---|-------5-----5---6---|-6----6---6---6---8-----|-------5-----5---6---|


E|------------------------------|---------------------|------------------------|---------------------------------|
B|------------------------------|---------------------|------------------------|---------------------------------|
G|------------------------------|-7-------------------|------------------------|---------------------------------|
D|-8----------------------------|-7-----7-----7---8---|-8----------------------|-10--0---0---8---0---0---7---0---|
A|-8----------------------------|-5-----7-----7---8---|-8----------------10----|---------------------------------|
E|-6----6---6---6---6---6---6---|-------5-----5---6---|-6----6---6---6---8-----|---------------------------------|


E|---------------------------------|---------------------------------|---------------------------------|
B|---------------------------------|---------------------------------|---------------------------------|
G|---------------------------------|---------------------------------|---------------------------------|
D|-0---8---0---0---7---0---7---0---|-10--0---0---8---0---0---7---0---|-0---8---0---0---7---0---7---0---|
A|---------------------------------|---------------------------------|---------------------------------|
E|---------------------------------|---------------------------------|---------------------------------|


E|---------------------------------|---------------------------------|---------------------------------|
B|---------------------------------|---------------------------------|---------------------------------|
G|---------------------------------|---------------------------------|---------------------------------|
D|-10--0---0---8---0---0---7---0---|-0---8---0---0---7---0---7---0---|-10--0---0---8---0---0---7---0---|
A|---------------------------------|---------------------------------|---------------------------------|
E|---------------------------------|---------------------------------|---------------------------------|


E|---------------------------------|---------------------------------|---------------------------------|
B|---------------------------------|---------------------------------|---------------------------------|
G|---------------------------------|---------------------------------|---------------------------------|
D|-0---8---0---0---7---0---7---0---|-10--0---0---8---0---0---7---0---|-0---8---0---0---7---0---7---0---|
A|---------------------------------|---------------------------------|---------------------------------|
E|---------------------------------|---------------------------------|---------------------------------|


E|---------------------------------|---------------------------------|---------------------------------|
B|---------------------------------|---------------------------------|---------------------------------|
G|---------------------------------|---------------------------------|---------------------------------|
D|-10--0---0---8---0---0---7---0---|-0---8---0---0---7---0---7---0---|-10--0---0---8---0---0---7---0---|
A|---------------------------------|---------------------------------|---------------------------------|
E|---------------------------------|---------------------------------|---------------------------------|


E|---------------------------------|---------------------------------|---------------------------------|
B|---------------------------------|---------------------------------|---------------------------------|
G|---------------------------------|---------------------------------|---------------------------------|
D|-0---8---0---0---7---0---7---0---|-10--0---0---8---0---0---7---0---|-0---8---0---0---7---0---7---0---|
A|---------------------------------|---------------------------------|---------------------------------|
E|---------------------------------|---------------------------------|---------------------------------|


E|---------------------|------------------------------|---------------------|------------------------|
B|---------------------|------------------------------|---------------------|------------------------|
G|-7-------------------|------------------------------|-7-------------------|------------------------|
D|-7-----7-----7---8---|-8----------------------------|-7-----7-----7---8---|-8----------------------|
A|-5-----7-----7---8---|-8----------------------------|-5-----7-----7---8---|-8----------------10----|
E|-------5-----5---6---|-6----6---6---6---6---6---6---|-------5-----5---6---|-6----6---6---6---8-----|


E|---------------------|------------------------------|---------------------|------------------------|
B|---------------------|------------------------------|---------------------|------------------------|
G|-7-------------------|------------------------------|-7-------------------|------------------------|
D|-7-----7-----7---8---|-8----------------------------|-7-----7-----7---8---|-8----------------------|
A|-5-----7-----7---8---|-8----------------------------|-5-----7-----7---8---|-8----------------10----|
E|-------5-----5---6---|-6----6---6---6---6---6---6---|-------5-----5---6---|-6----6---6---6---8-----|


E|------------------|---------------------------------|------------------|---------------------------------|
B|------------------|---------------------------------|------------------|---------------------------------|
G|------------------|---------------------------------|------------------|---------------------------------|
D|-------2----------|---------------------------------|-------3----------|---------------------------------|
A|-------------2----|-2---2---2---0---2---0-----------|-------------3----|-3---3---3---2---3---2-----------|
E|-0----------------|-------------------------3---2---|-0----------------|-------------------------3---2---|


E|------------------|---------------------------------|------------------|---------------------------------|
B|------------------|---------------------------------|------------------|---------------------------------|
G|------------------|---------------------------------|------------------|---------------------------------|
D|-------2----------|---------------------------------|-------3----------|---------------------------------|
A|-------------2----|-2---2---2---0---2---0-----------|-------------3----|-3---3---3---2---3---2-----------|
E|-0----------------|-------------------------3---2---|-0----------------|-------------------------3---2---|


E|------------------|---------------------------------|------------------|---------------------------------|
B|------------------|---------------------------------|------------------|---------------------------------|
G|------------------|---------------------------------|------------------|---------------------------------|
D|-------2----------|---------------------------------|-------3----------|---------------------------------|
A|-------------2----|-2---2---2---0---2---0-----------|-------------3----|-3---3---3---2---3---2-----------|
E|-0----------------|-------------------------3---2---|-0----------------|-------------------------3---2---|


E|------------------|---------------------------------|------------------|---------------------------------|
B|------------------|---------------------------------|------------------|---------------------------------|
G|------------------|---------------------------------|------------------|---------------------------------|
D|-------2----------|---------------------------------|-------3----------|---------------------------------|
A|-------------2----|-2---2---2---0---2---0-----------|-------------3----|-3---3---3---2---3---2-----------|
E|-0----------------|-------------------------3---2---|-0----------------|-------------------------3---2---|


E|---------------------------|---------------------------|------------------------------|
B|---------------------------|---------------------------|------------------------------|
G|---------------------------|---------------------------|------------------------------|
D|-------------8--------7----|-------------10-------9----|-------------8--------7-------|
A|-0---0---0--------0--------|-0---0---0--------0--------|-0---0---0--------0-----------|
E|---------------------------|---------------------------|--------------------------5---|


E|---------------------------------|---------------------------|---------------------------|
B|---------------------------------|---------------------------|---------------------------|
G|---------------------------------|---------------------------|---------------------------|
D|---------------------5---6---7---|-------------8--------7----|-------------10-------9----|
A|---------5---6---7---------------|-0---0---0--------0--------|-0---0---0--------0--------|
E|-7---8---------------------------|---------------------------|---------------------------|


E|------------------------------|---------------------------------|---------------------------|
B|------------------------------|---------------------------------|---------------------------|
G|------------------------------|---------------------------------|---------------------------|
D|-------------8--------7-------|---------------------5---6---7---|-------------8--------7----|
A|-0---0---0--------0-----------|---------5---6---7---------------|-0---0---0--------0--------|
E|--------------------------5---|-7---8---------------------------|---------------------------|


E|---------------------------|------------------------------|---------------------------------|
B|---------------------------|------------------------------|---------------------------------|
G|---------------------------|------------------------------|---------------------------------|
D|-------------10-------9----|-------------8--------7-------|---------------------5---6---7---|
A|-0---0---0--------0--------|-0---0---0--------0-----------|---------5---6---7---------------|
E|---------------------------|--------------------------5---|-7---8---------------------------|


E|---------------------------|---------------------------|------------------------------|
B|---------------------------|---------------------------|------------------------------|
G|---------------------------|---------------------------|------------------------------|
D|-------------8--------7----|-------------10-------9----|-------------8--------7-------|
A|-0---0---0--------0--------|-0---0---0--------0--------|-0---0---0--------0-----------|
E|---------------------------|---------------------------|--------------------------5---|


E|---------------------------------|------------------|------------------|------------------|
B|---------------------------------|------------------|------------------|------------------|
G|---------------------------------|------------------|------------------|------------------|
D|---------------------5---6---7---|-5----------------|------------------|-5----------------|
A|---------5---6---7---------------|-3-----6-----5----|-5----3-----5-----|-3-----6-----5----|
E|-7---8---------------------------|-------4-----3----|-3----1-----3-----|-------4-----3----|


E|------------------|------------------|------------------|------------------|------------------|
B|------------------|------------------|------------------|------------------|------------------|
G|------------------|------------------|------------------|------------------|------------------|
D|------8-----7-----|-5----------------|------------------|-5----------------|------8-----7-----|
A|-5----6-----5-----|-3-----6-----5----|-5----3-----5-----|-3-----6-----5----|-5----6-----5-----|
E|-3----------------|-------4-----3----|-3----1-----3-----|-------4-----3----|-3----------------|


E|------------------|------------------|------------------|------------------|------------------|
B|------------------|------------------|------------------|------------------|------------------|
G|------------------|------------------|------------------|------------------|------------------|
D|-5----------------|------------------|-5----------------|------8-----7-----|-5----------------|
A|-3-----6-----5----|-5----3-----5-----|-3-----6-----5----|-5----6-----5-----|-3-----6-----5----|
E|-------4-----3----|-3----1-----3-----|-------4-----3----|-3----------------|-------4-----3----|


E|------------------|------------------|------------------|---------------------------------------|
B|------------------|------------------|------------------|---------------------------------------|
G|------------------|------------------|------------------|---------------------------------------|
D|------------------|-5----------------|------8-----7-----|---------------------------------------|
A|-5----3-----5-----|-3-----6-----5----|-5----6-----5-----|-3---3--3--3---3---3--3--3---3---3--3--|
E|-3----1-----3-----|-------4-----3----|-3----------------|---------------------------------------|


E|-----------------------------------|-------------------------------------|---------------------------------------|
B|-----------------------------------|-------------------------------------|---------------------------------------|
G|-----------------------------------|-------------------------------------|---------------------------------------|
D|-----------------------------------|-------------------------------------|---------------------------------------|
A|-3---3---5---6---3---3--3--3---3---|-3--3--3---3---3--3--3---3---6---5---|-3---3--3--3---3---3--3--3---3---3--3--|
E|-----------------------------------|-------------------------------------|---------------------------------------|


E|-----------------------------------|-------------------------------------|---------------------------------------|
B|-----------------------------------|-------------------------------------|---------------------------------------|
G|-----------------------------------|-------------------------------------|---------------------------------------|
D|-----------------------------------|-------------------------------------|---------------------------------------|
A|-3---3---5---6---3---3--3--3---3---|-3--3--3---3---3--3--3---3---6---5---|-6---6--6--6---6---6--6--6---6---6--6--|
E|-----------------------------------|-------------------------------------|---------------------------------------|


E|-------------------------------------|---------------------------------------|---------------------------------------|
B|-------------------------------------|---------------------------------------|---------------------------------------|
G|-------------------------------------|---------------------------------------|---------------------------------------|
D|-------------------------------------|---------------------------------------|---------------------------------------|
A|-6---6---6--6--6---5---5--5--5---5---|-5--5--5---4---4--4--4---4---4--4--4---|-3---3--3--3---3---3--3--3---3---3--3--|
E|-------------------------------------|---------------------------------------|---------------------------------------|


E|-----------------------------------|-------------------------------------|---------------------------------------|
B|-----------------------------------|-------------------------------------|---------------------------------------|
G|-----------------------------------|-------------------------------------|---------------------------------------|
D|-----------------------------------|-------------------------------------|---------------------------------------|
A|-3---3---5---6---3---3--3--3---3---|-3--3--3---3---3--3--3---3---6---5---|-3---3--3--3---3---3--3--3---3---3--3--|
E|-----------------------------------|-------------------------------------|---------------------------------------|


E|-----------------------------------|-------------------------------------|---------------------------------------|
B|-----------------------------------|-------------------------------------|---------------------------------------|
G|-----------------------------------|-------------------------------------|---------------------------------------|
D|-----------------------------------|-------------------------------------|---------------------------------------|
A|-3---3---5---6---3---3--3--3---3---|-3--3--3---3---3--3--3---3---6---5---|-3---3--3--3---3---3--3--3---3---3--3--|
E|-----------------------------------|-------------------------------------|---------------------------------------|


E|-----------------------------------|-------------------------------------|---------------------------------------|
B|-----------------------------------|-------------------------------------|---------------------------------------|
G|-----------------------------------|-------------------------------------|---------------------------------------|
D|-----------------------------------|-------------------------------------|---------------------------------------|
A|-3---3---5---6---3---3--3--3---3---|-3--3--3---3---3--3--3---3---6---5---|-6---6--6--6---6---6--6--6---6---6--6--|
E|-----------------------------------|-------------------------------------|---------------------------------------|


E|-------------------------------------|---------------------------------------|---------------------------------------|
B|-------------------------------------|---------------------------------------|---------------------------------------|
G|-------------------------------------|---------------------------------------|---------------------------------------|
D|-------------------------------------|---------------------------------------|---------------------------------------|
A|-6---6---6--6--6---5---5--5--5---5---|-5--5--5---4---4--4--4---4---4--4--4---|-3---3--3--3---3---3--3--3---3---3--3--|
E|-------------------------------------|---------------------------------------|---------------------------------------|


E|-----------------------------------|-------------------------------------|---------------------------------------|
B|-----------------------------------|-------------------------------------|---------------------------------------|
G|-----------------------------------|-------------------------------------|---------------------------------------|
D|-----------------------------------|-------------------------------------|---------------------------------------|
A|-3---3---5---6---3---3--3--3---3---|-3--3--3---3---3--3--3---3---6---5---|-3---3--3--3---3---3--3--3---3---3--3--|
E|-----------------------------------|-------------------------------------|---------------------------------------|


E|-----------------------------------|-------------------------------------|---------------------------------------|
B|-----------------------------------|-------------------------------------|---------------------------------------|
G|-----------------------------------|-------------------------------------|---------------------------------------|
D|-----------------------------------|-------------------------------------|---------------------------------------|
A|-3---3---5---6---3---3--3--3---3---|-3--3--3---3---3--3--3---3---6---5---|-3---3--3--3---3---3--3--3---3---3--3--|
E|-----------------------------------|-------------------------------------|---------------------------------------|


E|-----------------------------------|-------------------------------------|---------------------------------------|
B|-----------------------------------|-------------------------------------|---------------------------------------|
G|-----------------------------------|-------------------------------------|---------------------------------------|
D|-----------------------------------|-------------------------------------|---------------------------------------|
A|-3---3---5---6---3---3--3--3---3---|-3--3--3---3---3--3--3---3---6---5---|-6---6--6--6---6---6--6--6---6---6--6--|
E|-----------------------------------|-------------------------------------|---------------------------------------|


E|-------------------------------------|---------------------------------------|---------------------------------------|
B|-------------------------------------|---------------------------------------|---------------------------------------|
G|-------------------------------------|---------------------------------------|---------------------------------------|
D|-------------------------------------|---------------------------------------|---------------------------------------|
A|-6---6---6--6--6---5---5--5--5---5---|-5--5--5---4---4--4--4---4---4--4--4---|-3---3--3--3---3---3--3--3---3---3--3--|
E|-------------------------------------|---------------------------------------|---------------------------------------|


E|-----------------------------------|-------------------------------------|---------------------------------------|
B|-----------------------------------|-------------------------------------|---------------------------------------|
G|-----------------------------------|-------------------------------------|---------------------------------------|
D|-----------------------------------|-------------------------------------|---------------------------------------|
A|-3---3---5---6---3---3--3--3---3---|-3--3--3---3---3--3--3---3---6---5---|-3---3--3--3---3---3--3--3---3---3--3--|
E|-----------------------------------|-------------------------------------|---------------------------------------|


E|-----------------------------------|-------------------------------------|---------------------------------------|
B|-----------------------------------|-------------------------------------|---------------------------------------|
G|-----------------------------------|-------------------------------------|---------------------------------------|
D|-----------------------------------|-------------------------------------|---------------------------------------|
A|-3---3---5---6---3---3--3--3---3---|-3--3--3---3---3--3--3---3---6---5---|-3---3--3--3---3---3--3--3---3---3--3--|
E|-----------------------------------|-------------------------------------|---------------------------------------|


E|-----------------------------------|-------------------------------------|---------------------------------------|
B|-----------------------------------|-------------------------------------|---------------------------------------|
G|-----------------------------------|-------------------------------------|---------------------------------------|
D|-----------------------------------|-------------------------------------|---------------------------------------|
A|-3---3---5---6---3---3--3--3---3---|-3--3--3---3---3--3--3---3---6---5---|-6---6--6--6---6---6--6--6---6---6--6--|
E|-----------------------------------|-------------------------------------|---------------------------------------|


E|-------------------------------------|---------------------------------------|---------------------------------------|
B|-------------------------------------|---------------------------------------|---------------------------------------|
G|-------------------------------------|---------------------------------------|---------------------------------------|
D|-------------------------------------|---------------------------------------|---------------------------------------|
A|-6---6---6--6--6---5---5--5--5---5---|-5--5--5---4---4--4--4---4---4--4--4---|-3---3--3--3---3---3--3--3---3---3--3--|
E|-------------------------------------|---------------------------------------|---------------------------------------|


E|-----------------------------------|-------------------------------------|-------------------------------------------------|
B|-----------------------------------|-------------------------------------|-------------------------------------------------|
G|-----------------------------------|-------------------------------------|-------------------------------------------------|
D|-----------------------------------|-------------------------------------|-------------------------------------------------|
A|-3---3---5---6---3---3--3--3---3---|-3--3--3---3---3--3--3---3---6---5---|-3--3--3--3--3--3--3--3--3--3--3--3--3--3--3--3--|
E|-----------------------------------|-------------------------------------|-------------------------------------------------|


E|---------------------------------------------|---------------------------------------------|
B|---------------------------------------------|---------------------------------------------|
G|---------------------------------------------|---------------------------------------------|
D|---------------------------------------------|---------------------------------------------|
A|-3--3--3--3--5---6---3--3--3--3--3--3--3--3--|-3--3--3--3--3--3--3--3--3--3--3--3--6---5---|
E|---------------------------------------------|---------------------------------------------|


E|-------------------------------------------------|---------------------------------------------|
B|-------------------------------------------------|---------------------------------------------|
G|-------------------------------------------------|---------------------------------------------|
D|-------------------------------------------------|---------------------------------------------|
A|-3--3--3--3--3--3--3--3--3--3--3--3--3--3--3--3--|-3--3--3--3--5---6---3--3--3--3--3--3--3--3--|
E|-------------------------------------------------|---------------------------------------------|


E|---------------------------------------------|-------------------------------------------------|
B|---------------------------------------------|-------------------------------------------------|
G|---------------------------------------------|-------------------------------------------------|
D|---------------------------------------------|-------------------------------------------------|
A|-3--3--3--3--3--3--3--3--3--3--3--3--6---5---|-3--3--3--3--3--3--3--3--3--3--3--3--3--3--3--3--|
E|---------------------------------------------|-------------------------------------------------|


E|---------------------------------------------|---------------------------------------------|
B|---------------------------------------------|---------------------------------------------|
G|---------------------------------------------|---------------------------------------------|
D|---------------------------------------------|---------------------------------------------|
A|-3--3--3--3--5---6---3--3--3--3--3--3--3--3--|-3--3--3--3--3--3--3--3--3--3--3--3--6---5---|
E|---------------------------------------------|---------------------------------------------|


E|-------------------------------------------------|---------------------------------------------|
B|-------------------------------------------------|---------------------------------------------|
G|-------------------------------------------------|---------------------------------------------|
D|-------------------------------------------------|---------------------------------------------|
A|-3--3--3--3--3--3--3--3--3--3--3--3--3--3--3--3--|-3--3--3--3--5---6---3--3--3--3--3--3--3--3--|
E|-------------------------------------------------|---------------------------------------------|


E|---------------------------------------------|------------------------|---------------------------|
B|---------------------------------------------|------------------------|---------------------------|
G|---------------------------------------------|------------------------|---------------------------|
D|---------------------------------------------|-5----5----5------------|-----------------5----5----|
A|-3--3--3--3--3--3--3--3--3--3--3--3--6---5---|-3----3----3----3---3---|-3---3---5---6---3----3----|
E|---------------------------------------------|------------------------|---------------------------|


E|------------------------------|------------------------|-----------------------|
B|------------------------------|------------------------|-----------------------|
G|------------------------------|------------------------|-----------------------|
D|-5----------------------------|-5----5----5------------|-----------------5-----|
A|-3----3---3---3---3---6---5---|-3----3----3----3---3---|-3---3---5---6---3-----|
E|------------------------------|------------------------|-----------------------|


E|-------------|
B|-------------|
G|-------------|
D|-------------|
A|-------------|
E|-------------|





Track 2: Chris Poland

E|--------|--------|--------|--------|--------|--------|--------|--------|--------|
B|--------|--------|--------|--------|--------|--------|--------|--------|--------|
G|--------|--------|--------|--------|--------|--------|--------|--------|--------|
D|--------|--------|--------|--------|--------|--------|--------|--------|--------|
A|--------|--------|--------|--------|--------|--------|--------|--------|--------|
E|--------|--------|--------|--------|--------|--------|--------|--------|--------|


E|--------|--------|--------|--------|--------|--------|--------|--------|--------|
B|--------|--------|--------|--------|--------|--------|--------|--------|--------|
G|--------|--------|--------|--------|--------|--------|--------|--------|--------|
D|--------|--------|--------|--------|--------|--------|--------|--------|--------|
A|--------|--------|--------|--------|--------|--------|--------|--------|--------|
E|--------|--------|--------|--------|--------|--------|--------|--------|--------|


E|--------|--------|--------|--------|--------|--------|--------|--------|--------|
B|--------|--------|--------|--------|--------|--------|--------|--------|--------|
G|--------|--------|--------|--------|--------|--------|--------|--------|--------|
D|--------|--------|--------|--------|--------|--------|--------|--------|--------|
A|--------|--------|--------|--------|--------|--------|--------|--------|--------|
E|--------|--------|--------|--------|--------|--------|--------|--------|--------|


E|--------|--------|--------|--------|--------|--------|--------|--------|--------|
B|--------|--------|--------|--------|--------|--------|--------|--------|--------|
G|--------|--------|--------|--------|--------|--------|--------|--------|--------|
D|--------|--------|--------|--------|--------|--------|--------|--------|--------|
A|--------|--------|--------|--------|--------|--------|--------|--------|--------|
E|--------|--------|--------|--------|--------|--------|--------|--------|--------|


E|--------|--------|--------|--------|--------|--------|--------|--------|--------|
B|--------|--------|--------|--------|--------|--------|--------|--------|--------|
G|--------|--------|--------|--------|--------|--------|--------|--------|--------|
D|--------|--------|--------|--------|--------|--------|--------|--------|--------|
A|--------|--------|--------|--------|--------|--------|--------|--------|--------|
E|--------|--------|--------|--------|--------|--------|--------|--------|--------|


E|--------|--------|--------|--------|--------|--------|--------|--------|--------|
B|--------|--------|--------|--------|--------|--------|--------|--------|--------|
G|--------|--------|--------|--------|--------|--------|--------|--------|--------|
D|--------|--------|--------|--------|--------|--------|--------|--------|--------|
A|--------|--------|--------|--------|--------|--------|--------|--------|--------|
E|--------|--------|--------|--------|--------|--------|--------|--------|--------|


E|--------|--------|--------|--------|--------|--------|--------|--------|--------|
B|--------|--------|--------|--------|--------|--------|--------|--------|--------|
G|--------|--------|--------|--------|--------|--------|--------|--------|--------|
D|--------|--------|--------|--------|--------|--------|--------|--------|--------|
A|--------|--------|--------|--------|--------|--------|--------|--------|--------|
E|--------|--------|--------|--------|--------|--------|--------|--------|--------|


E|--------|-----------------------|---------------------------------|-------------------------12------|
B|--------|-----------------------|---------------------------------|---------------------12------12--|
G|--------|-14--14--14--14--12----|---------------------------------|-------------12--14--------------|
D|--------|-----------------------|-14--12--------------------------|-----12--14----------------------|
A|--------|-----------------------|---------14--12--12--12------12--|-14------------------------------|
E|--------|-----------------------|-------------------------15------|---------------------------------|


E|-15--15----17--17----|-17---------------------------|---------------------------------|
B|---------------------|------17--12--15--12----------|---------------------15----------|
G|---------------------|----------------------16--14--|-12------12--14--14------14--12--|
D|---------------------|------------------------------|-----14--------------------------|
A|---------------------|------------------------------|---------------------------------|
E|---------------------|------------------------------|---------------------------------|


E|---------------------------|---------------------------|--------|--------|--------|
B|---------------------------|---------------------------|--------|--------|--------|
G|-----14--12--------12--14--|-12--14--14--14----14--14--|--------|--------|--------|
D|-14----------14------------|---------------------------|--------|--------|--------|
A|---------------------------|---------------------------|--------|--------|--------|
E|---------------------------|---------------------------|--------|--------|--------|


E|--------|--------|--------|--------|--------|--------|--------|--------|--------|
B|--------|--------|--------|--------|--------|--------|--------|--------|--------|
G|--------|--------|--------|--------|--------|--------|--------|--------|--------|
D|--------|--------|--------|--------|--------|--------|--------|--------|--------|
A|--------|--------|--------|--------|--------|--------|--------|--------|--------|
E|--------|--------|--------|--------|--------|--------|--------|--------|--------|


E|--------|--------|--------|--------|--------|--------|--------|--------|--------|
B|--------|--------|--------|--------|--------|--------|--------|--------|--------|
G|--------|--------|--------|--------|--------|--------|--------|--------|--------|
D|--------|--------|--------|--------|--------|--------|--------|--------|--------|
A|--------|--------|--------|--------|--------|--------|--------|--------|--------|
E|--------|--------|--------|--------|--------|--------|--------|--------|--------|


E|--------|--------|--------|--------|--------|--------|--------|--------|--------|
B|--------|--------|--------|--------|--------|--------|--------|--------|--------|
G|--------|--------|--------|--------|--------|--------|--------|--------|--------|
D|--------|--------|--------|--------|--------|--------|--------|--------|--------|
A|--------|--------|--------|--------|--------|--------|--------|--------|--------|
E|--------|--------|--------|--------|--------|--------|--------|--------|--------|


E|--------|--------|--------|--------|--------|--------|--------|--------|--------|
B|--------|--------|--------|--------|--------|--------|--------|--------|--------|
G|--------|--------|--------|--------|--------|--------|--------|--------|--------|
D|--------|--------|--------|--------|--------|--------|--------|--------|--------|
A|--------|--------|--------|--------|--------|--------|--------|--------|--------|
E|--------|--------|--------|--------|--------|--------|--------|--------|--------|


E|--------|--------|--------|--------|--------|--------|--------|--------|--------|
B|--------|--------|--------|--------|--------|--------|--------|--------|--------|
G|--------|--------|--------|--------|--------|--------|--------|--------|--------|
D|--------|--------|--------|--------|--------|--------|--------|--------|--------|
A|--------|--------|--------|--------|--------|--------|--------|--------|--------|
E|--------|--------|--------|--------|--------|--------|--------|--------|--------|


E|--------|--------|--------|--------|--------|--------|--------|--------|--------|
B|--------|--------|--------|--------|--------|--------|--------|--------|--------|
G|--------|--------|--------|--------|--------|--------|--------|--------|--------|
D|--------|--------|--------|--------|--------|--------|--------|--------|--------|
A|--------|--------|--------|--------|--------|--------|--------|--------|--------|
E|--------|--------|--------|--------|--------|--------|--------|--------|--------|


E|--------|--------|--------|--------|--------|--------|--------|--------|--------|
B|--------|--------|--------|--------|--------|--------|--------|--------|--------|
G|--------|--------|--------|--------|--------|--------|--------|--------|--------|
D|--------|--------|--------|--------|--------|--------|--------|--------|--------|
A|--------|--------|--------|--------|--------|--------|--------|--------|--------|
E|--------|--------|--------|--------|--------|--------|--------|--------|--------|


E|--------|--------|--------|--------|--------|--------|--------|--------|--------|
B|--------|--------|--------|--------|--------|--------|--------|--------|--------|
G|--------|--------|--------|--------|--------|--------|--------|--------|--------|
D|--------|--------|--------|--------|--------|--------|--------|--------|--------|
A|--------|--------|--------|--------|--------|--------|--------|--------|--------|
E|--------|--------|--------|--------|--------|--------|--------|--------|--------|


E|--------|--------|--------|--------|--------|--------|--------|--------|--------|
B|--------|--------|--------|--------|--------|--------|--------|--------|--------|
G|--------|--------|--------|--------|--------|--------|--------|--------|--------|
D|--------|--------|--------|--------|--------|--------|--------|--------|--------|
A|--------|--------|--------|--------|--------|--------|--------|--------|--------|
E|--------|--------|--------|--------|--------|--------|--------|--------|--------|


E|--------|--------|--------|--------|--------|--------|--------|--------|--------|
B|--------|--------|--------|--------|--------|--------|--------|--------|--------|
G|--------|--------|--------|--------|--------|--------|--------|--------|--------|
D|--------|--------|--------|--------|--------|--------|--------|--------|--------|
A|--------|--------|--------|--------|--------|--------|--------|--------|--------|
E|--------|--------|--------|--------|--------|--------|--------|--------|--------|


E|--------|--------|--------|--------|--------|--------|--------|--------|--------|
B|--------|--------|--------|--------|--------|--------|--------|--------|--------|
G|--------|--------|--------|--------|--------|--------|--------|--------|--------|
D|--------|--------|--------|--------|--------|--------|--------|--------|--------|
A|--------|--------|--------|--------|--------|--------|--------|--------|--------|
E|--------|--------|--------|--------|--------|--------|--------|--------|--------|


E|--------|--------|--------|--------|
B|--------|--------|--------|--------|
G|--------|--------|--------|--------|
D|--------|--------|--------|--------|
A|--------|--------|--------|--------|
E|--------|--------|--------|--------|





Track 3: Dave Mustaine Solo

E|--------|--------|--------|--------|--------|--------|--------|--------|--------|
B|--------|--------|--------|--------|--------|--------|--------|--------|--------|
G|--------|--------|--------|--------|--------|--------|--------|--------|--------|
D|--------|--------|--------|--------|--------|--------|--------|--------|--------|
A|--------|--------|--------|--------|--------|--------|--------|--------|--------|
E|--------|--------|--------|--------|--------|--------|--------|--------|--------|


E|--------|--------|--------|--------|--------|--------|--------|--------|--------|
B|--------|--------|--------|--------|--------|--------|--------|--------|--------|
G|--------|--------|--------|--------|--------|--------|--------|--------|--------|
D|--------|--------|--------|--------|--------|--------|--------|--------|--------|
A|--------|--------|--------|--------|--------|--------|--------|--------|--------|
E|--------|--------|--------|--------|--------|--------|--------|--------|--------|


E|--------|--------|--------|--------|--------|--------|--------|--------|--------|
B|--------|--------|--------|--------|--------|--------|--------|--------|--------|
G|--------|--------|--------|--------|--------|--------|--------|--------|--------|
D|--------|--------|--------|--------|--------|--------|--------|--------|--------|
A|--------|--------|--------|--------|--------|--------|--------|--------|--------|
E|--------|--------|--------|--------|--------|--------|--------|--------|--------|


E|--------|--------|--------|--------|--------|--------|--------|--------|--------|
B|--------|--------|--------|--------|--------|--------|--------|--------|--------|
G|--------|--------|--------|--------|--------|--------|--------|--------|--------|
D|--------|--------|--------|--------|--------|--------|--------|--------|--------|
A|--------|--------|--------|--------|--------|--------|--------|--------|--------|
E|--------|--------|--------|--------|--------|--------|--------|--------|--------|


E|--------|--------|--------|--------|--------|--------|--------|--------|--------|
B|--------|--------|--------|--------|--------|--------|--------|--------|--------|
G|--------|--------|--------|--------|--------|--------|--------|--------|--------|
D|--------|--------|--------|--------|--------|--------|--------|--------|--------|
A|--------|--------|--------|--------|--------|--------|--------|--------|--------|
E|--------|--------|--------|--------|--------|--------|--------|--------|--------|


E|--------|--------|--------|--------|--------|--------|--------|--------|--------|
B|--------|--------|--------|--------|--------|--------|--------|--------|--------|
G|--------|--------|--------|--------|--------|--------|--------|--------|--------|
D|--------|--------|--------|--------|--------|--------|--------|--------|--------|
A|--------|--------|--------|--------|--------|--------|--------|--------|--------|
E|--------|--------|--------|--------|--------|--------|--------|--------|--------|


E|--------|--------|--------|--------|--------|--------|--------|--------|--------|
B|--------|--------|--------|--------|--------|--------|--------|--------|--------|
G|--------|--------|--------|--------|--------|--------|--------|--------|--------|
D|--------|--------|--------|--------|--------|--------|--------|--------|--------|
A|--------|--------|--------|--------|--------|--------|--------|--------|--------|
E|--------|--------|--------|--------|--------|--------|--------|--------|--------|


E|--------|--------|--------|--------|--------|--------|--------|--------|--------|
B|--------|--------|--------|--------|--------|--------|--------|--------|--------|
G|--------|--------|--------|--------|--------|--------|--------|--------|--------|
D|--------|--------|--------|--------|--------|--------|--------|--------|--------|
A|--------|--------|--------|--------|--------|--------|--------|--------|--------|
E|--------|--------|--------|--------|--------|--------|--------|--------|--------|


E|--------|--------|--------|--------|--------|--------|--------|--------|-----------------|
B|--------|--------|--------|--------|--------|--------|--------|--------|-----------------|
G|--------|--------|--------|--------|--------|--------|--------|--------|-----------------|
D|--------|--------|--------|--------|--------|--------|--------|--------|-----------------|
A|--------|--------|--------|--------|--------|--------|--------|--------|-4-----4-----4---|
E|--------|--------|--------|--------|--------|--------|--------|--------|-----------------|


E|---------------------------------|---------------------------|--------|---------------------|
B|---------------------------------|---------------------------|--------|-------5---5---------|
G|-------------------------5-------|-7---5---------------------|--------|-------5---5---------|
D|-5-------5---7---7---7-------7---|---------7---5---7----7----|--------|-7--------------7----|
A|-----4---------------------------|---------------------------|--------|---------------------|
E|---------------------------------|---------------------------|--------|---------------------|


E|------------------------------|-------------|--------|---------------------------|
B|-----7---7--------------------|-------------|--------|-----------5---5---7---5---|
G|-----7---7----5---6-----------|-------------|--------|-7---7---------------------|
D|-7--------------------7---5---|-7------7----|--------|---------------------------|
A|------------------------------|-------------|--------|---------------------------|
E|------------------------------|-------------|--------|---------------------------|


E|---------------------------------|---------------------------|--------|------------------|
B|-8---7---5-------5---------------|-------------8---8----8----|--------|-19----17----19---|
G|-------------7-------7---7---5---|-----5---7-----------------|--------|-19----17----19---|
D|---------------------------------|-7-------------------------|--------|------------------|
A|---------------------------------|---------------------------|--------|------------------|
E|---------------------------------|---------------------------|--------|------------------|


E|---------------------------|---------------------------------------------|-----------------------------------------|
B|-19--19---17--19-----------|---------------------------------------------|-----------------------------------------|
G|-19--19---17--19---17--19--|-21--19--17------21--19--17------21--19--17--|-----21--19--17------21--19--17------17--|
D|---------------------------|-------------19--------------19--------------|-19--------------19--------------19------|
A|---------------------------|---------------------------------------------|-----------------------------------------|
E|---------------------------|---------------------------------------------|-----------------------------------------|


E|-----------------|--------|--------|--------|-----------------------------------|
B|-----------------|--------|--------|--------|-------------------------13-15-13--|
G|-17---17---------|--------|--------|--------|-15--12------12--15--16------------|
D|-----------------|--------|--------|--------|---------15------------------------|
A|-----------------|--------|--------|--------|-----------------------------------|
E|-----------------|--------|--------|--------|-----------------------------------|


E|-------------11--13--11--16--11--|-15-----|--------|-20--16------16------------------|
B|-12--13--15----------------------|--------|--------|---------20------18--20--16--18--|
G|---------------------------------|--------|--------|---------------------------------|
D|---------------------------------|--------|--------|---------------------------------|
A|---------------------------------|--------|--------|---------------------------------|
E|---------------------------------|--------|--------|---------------------------------|


E|---------------------------------|--------|--------|---------------------|----------------------|
B|-16------------------------------|--------|--------|-16----16--15---13---|-15----13--------13---|
G|-----19--20--17--19--20--19--17--|--------|--------|---------------------|------------16--------|
D|---------------------------------|-21-----|--------|---------------------|----------------------|
A|---------------------------------|--------|--------|---------------------|----------------------|
E|---------------------------------|--------|--------|---------------------|----------------------|


E|------------------------------------|--------|--------|--------|--------|--------|
B|------------------------------------|--------|--------|--------|--------|--------|
G|-16--13-16-13-12-13-12-----12--12---|-12-----|--------|--------|--------|--------|
D|-----------------------16-----------|--------|--------|--------|--------|--------|
A|------------------------------------|--------|--------|--------|--------|--------|
E|------------------------------------|--------|--------|--------|--------|--------|


E|--------|--------|--------|--------|--------|--------|--------|--------|--------|
B|--------|--------|--------|--------|--------|--------|--------|--------|--------|
G|--------|--------|--------|--------|--------|--------|--------|--------|--------|
D|--------|--------|--------|--------|--------|--------|--------|--------|--------|
A|--------|--------|--------|--------|--------|--------|--------|--------|--------|
E|--------|--------|--------|--------|--------|--------|--------|--------|--------|


E|--------|--------|--------|--------|--------|--------|--------|--------|--------|
B|--------|--------|--------|--------|--------|--------|--------|--------|--------|
G|--------|--------|--------|--------|--------|--------|--------|--------|--------|
D|--------|--------|--------|--------|--------|--------|--------|--------|--------|
A|--------|--------|--------|--------|--------|--------|--------|--------|--------|
E|--------|--------|--------|--------|--------|--------|--------|--------|--------|


E|--------|--------|--------|--------|--------|--------|--------|--------|--------|
B|--------|--------|--------|--------|--------|--------|--------|--------|--------|
G|--------|--------|--------|--------|--------|--------|--------|--------|--------|
D|--------|--------|--------|--------|--------|--------|--------|--------|--------|
A|--------|--------|--------|--------|--------|--------|--------|--------|--------|
E|--------|--------|--------|--------|--------|--------|--------|--------|--------|


E|--------|--------|--------|--------|--------|--------|--------|--------|--------|
B|--------|--------|--------|--------|--------|--------|--------|--------|--------|
G|--------|--------|--------|--------|--------|--------|--------|--------|--------|
D|--------|--------|--------|--------|--------|--------|--------|--------|--------|
A|--------|--------|--------|--------|--------|--------|--------|--------|--------|
E|--------|--------|--------|--------|--------|--------|--------|--------|--------|


E|--------|--------|--------|--------|--------|--------|--------|--------|--------|
B|--------|--------|--------|--------|--------|--------|--------|--------|--------|
G|--------|--------|--------|--------|--------|--------|--------|--------|--------|
D|--------|--------|--------|--------|--------|--------|--------|--------|--------|
A|--------|--------|--------|--------|--------|--------|--------|--------|--------|
E|--------|--------|--------|--------|--------|--------|--------|--------|--------|


E|--------|--------|--------|--------|--------|--------|--------|--------|--------|
B|--------|--------|--------|--------|--------|--------|--------|--------|--------|
G|--------|--------|--------|--------|--------|--------|--------|--------|--------|
D|--------|--------|--------|--------|--------|--------|--------|--------|--------|
A|--------|--------|--------|--------|--------|--------|--------|--------|--------|
E|--------|--------|--------|--------|--------|--------|--------|--------|--------|


E|--------|--------|--------|--------|--------|--------|--------|--------|
B|--------|--------|--------|--------|--------|--------|--------|--------|
G|--------|--------|--------|--------|--------|--------|--------|--------|
D|--------|--------|--------|--------|--------|--------|--------|--------|
A|--------|--------|--------|--------|--------|--------|--------|--------|
E|--------|--------|--------|--------|--------|--------|--------|--------|





Track 4: Untitled

G|--------|--------|--------|--------|--------|--------|--------|--------|--------|
D|--------|--------|--------|--------|--------|--------|--------|--------|--------|
A|--------|--------|--------|--------|--------|--------|--------|--------|--------|
E|--------|--------|--------|--------|--------|--------|--------|--------|--------|


G|--------|--------|--------|--------|--------|--------|--------|---------------------------------|
D|--------|--------|--------|--------|--------|--------|--------|-0---0---0---0---0---0---0---0---|
A|--------|--------|--------|--------|--------|--------|--------|---------------------------------|
E|--------|--------|--------|--------|--------|--------|--------|---------------------------------|


G|---------------------------------|---------------------------------|---------------------------------|
D|-0---0---0---0---0---0---0---0---|-0---0---0---0---0---0---0---0---|-0---0---0---0---0---0---0---0---|
A|---------------------------------|---------------------------------|---------------------------------|
E|---------------------------------|---------------------------------|---------------------------------|


G|---------------------------------|---------------------------------|---------------------------------|
D|-0---0---0---0---0---0---0---0---|-0---0---0---0---0---0---0---0---|-0---0---0---0---0---0---0---0---|
A|---------------------------------|---------------------------------|---------------------------------|
E|---------------------------------|---------------------------------|---------------------------------|


G|---------------------------------|---------------------------------|---------------------------------|
D|-0---0---0---0---0---0---0---0---|-0---0---0---0---0---0---0---0---|-0---0---0---0---0---0---0---0---|
A|---------------------------------|---------------------------------|---------------------------------|
E|---------------------------------|---------------------------------|---------------------------------|


G|---------------------------------|---------------------------------|---------------------------------|
D|-0---0---0---0---0---0---0---0---|-0---0---0---0---0---0---0---0---|-0---0---0---0---0---0---0---0---|
A|---------------------------------|---------------------------------|---------------------------------|
E|---------------------------------|---------------------------------|---------------------------------|


G|---------------------------------|---------------------------------|---------------------------------|
D|-0---0---0---0---0---0---0---0---|-0---0---0---0---0---0---0---0---|-0---0---0---0---0---0---0---0---|
A|---------------------------------|---------------------------------|---------------------------------|
E|---------------------------------|---------------------------------|---------------------------------|


G|---------------------|------------------------------|---------------------|------------------------|
D|---------------------|------------------------------|---------------------|------------------------|
A|-5-------------------|------------------------------|-5-------------------|------------------------|
E|-------5-----5---6---|-6----6---6---6---6---6---6---|-------5-----5---6---|-6----6---6---6---8-----|


G|---------------------|------------------------------|---------------------|------------------------|
D|---------------------|------------------------------|---------------------|------------------------|
A|-5-------------------|------------------------------|-5-------------------|------------------------|
E|-------5-----5---6---|-6----6---6---6---6---6---6---|-------5-----5---6---|-6----6---6---6---8-----|


G|---------------------------------|---------------------------------|---------------------------------|
D|-0---0---0---0---0---0---0---0---|-0---0---0---0---0---0---0---0---|-0---0---0---0---0---0---0---0---|
A|---------------------------------|---------------------------------|---------------------------------|
E|---------------------------------|---------------------------------|---------------------------------|


G|---------------------------------|---------------------------------|---------------------------------|
D|-0---0---0---0---0---0---0---0---|-0---0---0---0---0---0---0---0---|-0---0---0---0---0---0---0---0---|
A|---------------------------------|---------------------------------|---------------------------------|
E|---------------------------------|---------------------------------|---------------------------------|


G|---------------------------------|---------------------------------|---------------------------------|
D|-0---0---0---0---0---0---0---0---|-0---0---0---0---0---0---0---0---|-0---0---0---0---0---0---0---0---|
A|---------------------------------|---------------------------------|---------------------------------|
E|---------------------------------|---------------------------------|---------------------------------|


G|---------------------------------|---------------------------------|---------------------------------|
D|-0---0---0---0---0---0---0---0---|-0---0---0---0---0---0---0---0---|-0---0---0---0---0---0---0---0---|
A|---------------------------------|---------------------------------|---------------------------------|
E|---------------------------------|---------------------------------|---------------------------------|


G|---------------------------------|---------------------------------|---------------------------------|
D|-0---0---0---0---0---0---0---0---|-0---0---0---0---0---0---0---0---|-0---0---0---0---0---0---0---0---|
A|---------------------------------|---------------------------------|---------------------------------|
E|---------------------------------|---------------------------------|---------------------------------|


G|---------------------------------|---------------------|------------------------------|
D|-0---0---0---0---0---0---0---0---|---------------------|------------------------------|
A|---------------------------------|-5-------------------|------------------------------|
E|---------------------------------|-------5-----5---6---|-6----6---6---6---6---6---6---|


G|---------------------|------------------------|---------------------|------------------------------|
D|---------------------|------------------------|---------------------|------------------------------|
A|-5-------------------|------------------------|-5-------------------|------------------------------|
E|-------5-----5---6---|-6----6---6---6---8-----|-------5-----5---6---|-6----6---6---6---6---6---6---|


G|---------------------|------------------------|------------------|---------------------------------|
D|---------------------|------------------------|-------2----------|---------------------------------|
A|-5-------------------|------------------------|-------------2----|-2---2---2---0---2---0-----------|
E|-------5-----5---6---|-6----6---6---6---8-----|-0----------------|-------------------------3---2---|


G|------------------|---------------------------------|------------------|---------------------------------|
D|-------3----------|---------------------------------|-------2----------|---------------------------------|
A|-------------3----|-3---3---3---2---3---2-----------|-------------2----|-2---2---2---0---2---0-----------|
E|-0----------------|-------------------------3---2---|-0----------------|-------------------------3---2---|


G|------------------|---------------------------------|------------------|---------------------------------|
D|-------3----------|---------------------------------|-------2----------|---------------------------------|
A|-------------3----|-3---3---3---2---3---2-----------|-------------2----|-2---2---2---0---2---0-----------|
E|-0----------------|-------------------------3---2---|-0----------------|-------------------------3---2---|


G|------------------|---------------------------------|------------------|---------------------------------|
D|-------3----------|---------------------------------|-------2----------|---------------------------------|
A|-------------3----|-3---3---3---2---3---2-----------|-------------2----|-2---2---2---0---2---0-----------|
E|-0----------------|-------------------------3---2---|-0----------------|-------------------------3---2---|


G|------------------|---------------------------------|---------------------------|
D|-------3----------|---------------------------------|-------------8--------7----|
A|-------------3----|-3---3---3---2---3---2-----------|-0---0---0--------0--------|
E|-0----------------|-------------------------3---2---|---------------------------|


G|---------------------------|------------------------------|---------------------------------|
D|-------------10-------9----|-------------8--------7-------|---------------------5---6---7---|
A|-0---0---0--------0--------|-0---0---0--------0-----------|---------5---6---7---------------|
E|---------------------------|--------------------------5---|-7---8---------------------------|


G|---------------------------|---------------------------|------------------------------|
D|-------------8--------7----|-------------10-------9----|-------------8--------7-------|
A|-0---0---0--------0--------|-0---0---0--------0--------|-0---0---0--------0-----------|
E|---------------------------|---------------------------|--------------------------5---|


G|---------------------------------|---------------------------|---------------------------|
D|---------------------5---6---7---|-------------8--------7----|-------------10-------9----|
A|---------5---6---7---------------|-0---0---0--------0--------|-0---0---0--------0--------|
E|-7---8---------------------------|---------------------------|---------------------------|


G|------------------------------|---------------------------------|---------------------------|
D|-------------8--------7-------|---------------------5---6---7---|-------------8--------7----|
A|-0---0---0--------0-----------|---------5---6---7---------------|-0---0---0--------0--------|
E|--------------------------5---|-7---8---------------------------|---------------------------|


G|---------------------------|------------------------------|---------------------------------|
D|-------------10-------9----|-------------8--------7-------|---------------------5---6---7---|
A|-0---0---0--------0--------|-0---0---0--------0-----------|---------5---6---7---------------|
E|---------------------------|--------------------------5---|-7---8---------------------------|


G|------------------|------------------|------------------|------------------|------------------|
D|------------------|------------------|------------------|------------------|------------------|
A|-3----------------|------------------|-3----------------|------6-----5-----|-3----------------|
E|-------4-----3----|-3----1-----3-----|-------4-----3----|-3----------------|-------4-----3----|


G|------------------|------------------|------------------|------------------|------------------|
D|------------------|------------------|------------------|------------------|------------------|
A|------------------|-3----------------|------6-----5-----|-3----------------|------------------|
E|-3----1-----3-----|-------4-----3----|-3----------------|-------4-----3----|-3----1-----3-----|


G|------------------|------------------|------------------|------------------|------------------|
D|------------------|------------------|------------------|------------------|------------------|
A|-3----------------|------6-----5-----|-3----------------|------------------|-3----------------|
E|-------4-----3----|-3----------------|-------4-----3----|-3----1-----3-----|-------4-----3----|


G|------------------|---------------------------------------|-----------------------------------|
D|------------------|---------------------------------------|-----------------------------------|
A|------6-----5-----|-3---3--3--3---3---3--3--3---3---3--3--|-3---3---5---6---3---3--3--3---3---|
E|-3----------------|---------------------------------------|-----------------------------------|


G|-------------------------------------|---------------------------------------|-----------------------------------|
D|-------------------------------------|---------------------------------------|-----------------------------------|
A|-3--3--3---3---3--3--3---3---6---5---|-3---3--3--3---3---3--3--3---3---3--3--|-3---3---5---6---3---3--3--3---3---|
E|-------------------------------------|---------------------------------------|-----------------------------------|


G|-------------------------------------|---------------------------------------|-------------------------------------|
D|-------------------------------------|---------------------------------------|-------------------------------------|
A|-3--3--3---3---3--3--3---3---6---5---|-6---6--6--6---6---6--6--6---6---6--6--|-6---6---6--6--6---5---5--5--5---5---|
E|-------------------------------------|---------------------------------------|-------------------------------------|


G|---------------------------------------|---------------------------------------|
D|---------------------------------------|---------------------------------------|
A|-5--5--5---4---4--4--4---4---4--4--4---|-3---3--3--3---3---3--3--3---3---3--3--|
E|---------------------------------------|---------------------------------------|


G|-----------------------------------|-------------------------------------|---------------------------------------|
D|-----------------------------------|-------------------------------------|---------------------------------------|
A|-3---3---5---6---3---3--3--3---3---|-3--3--3---3---3--3--3---3---6---5---|-3---3--3--3---3---3--3--3---3---3--3--|
E|-----------------------------------|-------------------------------------|---------------------------------------|


G|-----------------------------------|-------------------------------------|---------------------------------------|
D|-----------------------------------|-------------------------------------|---------------------------------------|
A|-3---3---5---6---3---3--3--3---3---|-3--3--3---3---3--3--3---3---6---5---|-3---3--3--3---3---3--3--3---3---3--3--|
E|-----------------------------------|-------------------------------------|---------------------------------------|


G|-----------------------------------|-------------------------------------|---------------------------------------|
D|-----------------------------------|-------------------------------------|---------------------------------------|
A|-3---3---5---6---3---3--3--3---3---|-3--3--3---3---3--3--3---3---6---5---|-6---6--6--6---6---6--6--6---6---6--6--|
E|-----------------------------------|-------------------------------------|---------------------------------------|


G|-------------------------------------|---------------------------------------|---------------------------------------|
D|-------------------------------------|---------------------------------------|---------------------------------------|
A|-6---6---6--6--6---5---5--5--5---5---|-5--5--5---4---4--4--4---4---4--4--4---|-3---3--3--3---3---3--3--3---3---3--3--|
E|-------------------------------------|---------------------------------------|---------------------------------------|


G|-----------------------------------|-------------------------------------|---------------------------------------|
D|-----------------------------------|-------------------------------------|---------------------------------------|
A|-3---3---5---6---3---3--3--3---3---|-3--3--3---3---3--3--3---3---6---5---|-3---3--3--3---3---3--3--3---3---3--3--|
E|-----------------------------------|-------------------------------------|---------------------------------------|


G|-----------------------------------|-------------------------------------|---------------------------------------|
D|-----------------------------------|-------------------------------------|---------------------------------------|
A|-3---3---5---6---3---3--3--3---3---|-3--3--3---3---3--3--3---3---6---5---|-3---3--3--3---3---3--3--3---3---3--3--|
E|-----------------------------------|-------------------------------------|---------------------------------------|


G|-----------------------------------|-------------------------------------|---------------------------------------|
D|-----------------------------------|-------------------------------------|---------------------------------------|
A|-3---3---5---6---3---3--3--3---3---|-3--3--3---3---3--3--3---3---6---5---|-6---6--6--6---6---6--6--6---6---6--6--|
E|-----------------------------------|-------------------------------------|---------------------------------------|


G|-------------------------------------|---------------------------------------|---------------------------------------|
D|-------------------------------------|---------------------------------------|---------------------------------------|
A|-6---6---6--6--6---5---5--5--5---5---|-5--5--5---4---4--4--4---4---4--4--4---|-3---3--3--3---3---3--3--3---3---3--3--|
E|-------------------------------------|---------------------------------------|---------------------------------------|


G|-----------------------------------|-------------------------------------|---------------------------------------|
D|-----------------------------------|-------------------------------------|---------------------------------------|
A|-3---3---5---6---3---3--3--3---3---|-3--3--3---3---3--3--3---3---6---5---|-3---3--3--3---3---3--3--3---3---3--3--|
E|-----------------------------------|-------------------------------------|---------------------------------------|


G|-----------------------------------|-------------------------------------|---------------------------------------|
D|-----------------------------------|-------------------------------------|---------------------------------------|
A|-3---3---5---6---3---3--3--3---3---|-3--3--3---3---3--3--3---3---6---5---|-3---3--3--3---3---3--3--3---3---3--3--|
E|-----------------------------------|-------------------------------------|---------------------------------------|


G|-----------------------------------|-------------------------------------|---------------------------------------|
D|-----------------------------------|-------------------------------------|---------------------------------------|
A|-3---3---5---6---3---3--3--3---3---|-3--3--3---3---3--3--3---3---6---5---|-6---6--6--6---6---6--6--6---6---6--6--|
E|-----------------------------------|-------------------------------------|---------------------------------------|


G|-------------------------------------|---------------------------------------|---------------------------------------|
D|-------------------------------------|---------------------------------------|---------------------------------------|
A|-6---6---6--6--6---5---5--5--5---5---|-5--5--5---4---4--4--4---4---4--4--4---|-3---3--3--3---3---3--3--3---3---3--3--|
E|-------------------------------------|---------------------------------------|---------------------------------------|


G|-----------------------------------|-------------------------------------|-------------------------------------------------|
D|-----------------------------------|-------------------------------------|-------------------------------------------------|
A|-3---3---5---6---3---3--3--3---3---|-3--3--3---3---3--3--3---3---6---5---|-3--3--3--3--3--3--3--3--3--3--3--3--3--3--3--3--|
E|-----------------------------------|-------------------------------------|-------------------------------------------------|


G|---------------------------------------------|---------------------------------------------|
D|---------------------------------------------|---------------------------------------------|
A|-3--3--3--3--5---6---3--3--3--3--3--3--3--3--|-3--3--3--3--3--3--3--3--3--3--3--3--6---5---|
E|---------------------------------------------|---------------------------------------------|


G|-------------------------------------------------|---------------------------------------------|
D|-------------------------------------------------|---------------------------------------------|
A|-3--3--3--3--3--3--3--3--3--3--3--3--3--3--3--3--|-3--3--3--3--5---6---3--3--3--3--3--3--3--3--|
E|-------------------------------------------------|---------------------------------------------|


G|---------------------------------------------|-------------------------------------------------|
D|---------------------------------------------|-------------------------------------------------|
A|-3--3--3--3--3--3--3--3--3--3--3--3--6---5---|-3--3--3--3--3--3--3--3--3--3--3--3--3--3--3--3--|
E|---------------------------------------------|-------------------------------------------------|


G|---------------------------------------------|---------------------------------------------|
D|---------------------------------------------|---------------------------------------------|
A|-3--3--3--3--5---6---3--3--3--3--3--3--3--3--|-3--3--3--3--3--3--3--3--3--3--3--3--6---5---|
E|---------------------------------------------|---------------------------------------------|


G|-------------------------------------------------|---------------------------------------------|
D|-------------------------------------------------|---------------------------------------------|
A|-3--3--3--3--3--3--3--3--3--3--3--3--3--3--3--3--|-3--3--3--3--5---6---3--3--3--3--3--3--3--3--|
E|-------------------------------------------------|---------------------------------------------|


G|---------------------------------------------|-----------3---2---0-------|---------------------------|
D|---------------------------------------------|-----------------------3---|-1---0---------------------|
A|-3--3--3--3--3--3--3--3--3--3--3--3--6---5---|-3----3--------------------|---------3---1---3----3----|
E|---------------------------------------------|---------------------------|---------------------------|


G|-3---2---0-----------------------|------5----3---2---0-------|-----------------------|
D|-------------3---1---0-----------|-----------------------3---|-1---0-----------------|
A|-------------------------3---1---|-3-------------------------|---------3---1---3-----|
E|---------------------------------|---------------------------|-----------------------|


G|-------------|
D|-------------|
A|-------------|
E|-------------|