Menu:

 

Search:

 

megadeth - angry again:

 



Title: Angry Again
Artist: 
Album: Last Action Hero Soundtrack
Author: Dave Mustaine


Track 1: Guitar 1 Dave Mustaine

E|---------------------------------|---------------------------------|---------------------------------|
B|---------------------------------|---------------------------------|---------------------------------|
G|---------------------------------|---------------------------------|---------------------------------|
D|-0---1-----------4---5-----------|-8---9-----------12--13----------|---------2-----------2-----------|
A|---------2---------------6-------|---------10--------------14------|-----2-----------3-------3---2---|
E|-------------3---------------7---|-------------11--------------15--|-0-----------0-------------------|


E|---------------------------------|---------------------------------|---------------------------------|
B|---------------------------------|---------------------------------|---------------------------------|
G|---------------------------------|---------------------------------|---------------------------------|
D|---------------------------------|---------2-----------2-----------|---------------------------------|
A|-2-----------2-------------------|-----2-----------3-------3---2---|-2-----------2-------4---3---2---|
E|-0---0---0---0---0---0---0---0---|-0-----------0-------------------|-0---0---0---0---0---5---4---3---|


E|---------------------------------|---------------------------------|---------------------------------|
B|-0-------------------------------|---------------------------------|---------------------------------|
G|-0-------------------------------|---------------------------------|---------------------------------|
D|-0-------2-----------2-----------|---------------------------------|-----------------------------7---|
A|-----2-----------3-------3---2---|-2-----------2-------4---3---2---|-----4---3---2-------4---3---5---|
E|-------------0-------------------|-0---0---0---0---0---5---4---3---|-----5---4---3-------5---4-------|


E|---------------------------------|---------------------------------|---------------------------------|
B|---------------------------------|---------------------------------|---------------------------------|
G|-------------2---2---------------|---------------------------------|---------------------------------|
D|-7-------------------------------|---------2-----------2-----------|---------------------------------|
A|-5-----------3---3-----------2---|-----2-----------3-------3---2---|-2-----------2-------------------|
E|-----0---0-----------3---3---0---|-------------0-------------------|-0---0---0---0---0---0---0---0---|


E|---------------------------------|---------------------------------|---------------------------------|
B|---------------------------------|---------------------------------|-0-------------------------------|
G|---------------------------------|---------------------------------|-0-------------------------------|
D|---------2-----------2-----------|---------------------------------|-0-------2-----------2-----------|
A|-----2-----------3-------3---2---|-2-----------2-------4---3---2---|-----2-----------3-------3---2---|
E|-0-----------0-------------------|-0---0---0---0---0---5---4---3---|-------------0-------------------|


E|---------------------------------|---------------------------------|---------------------------------|
B|---------------------------------|---------------------------------|---------------------------------|
G|---------------------------------|---------------------------------|-------------2---2---------------|
D|---------------------------------|---------2-----------2-------7---|-7-------------------------------|
A|-2-----------2-------------------|-----2-----------3-------0---5---|-5-----------3---3-----------2---|
E|-0---0---0---0---0---0---0---0---|-0-----------0-------------------|-----0---0-----------3---3---0---|


E|---------------------------------|---------------------------------|---------------------------------|
B|---------------------------------|---------------------------------|---------------------------------|
G|---------------------------------|---------------------------------|---------------------------------|
D|---------2-----------2-----------|---------------------------------|---------2-----------2-----------|
A|-----2-----------3-------3---2---|-2-----------2-------------------|-----2-----------3-------3---2---|
E|-------------0-------------------|-0---0---0---0---0---0---0---0---|-0-----------0-------------------|


E|---------------------------------|---------------------------------|---------------------------------|
B|---------------------------------|-0-------------------------------|---------------------------------|
G|---------------------------------|-0-------------------------------|---------------------------------|
D|---------------------------------|-0-------2-----------2-----------|---------------------------------|
A|-2-----------2-------4---3---2---|-----2-----------3-------3---2---|-2-----------2-------4---3---2---|
E|-0---0---0---0---0---5---4---3---|-------------0-------------------|-0---0---0---0---0---5---4---3---|


E|---------------------------------|---------------------------------|---------------------------------|
B|---------------------------------|---------------------------------|---------------------------------|
G|---------------------------------|-------------2---2---------------|---------------------------------|
D|-----------------------------7---|-7-------------------------------|-0---1-----------4---5-----------|
A|-----4---3---2-------4---2---5---|-5-----------3---3-----------2---|---------2---------------6-------|
E|-----5---4---3-------5---3-------|-----0---0-----------3---3---0---|-------------3---------------7---|


E|---------------------------------|---------------------------------|---------------------------------|
B|---------------------------------|---------------------------------|---------------------------------|
G|---------------------------------|---------------------------------|---------------------------------|
D|-8---9-----------12--13----------|-5-------4---5-------9---7---5---|-5-----------2-------4---4-------|
A|---------10--------------14------|-7-------5---7-------10--9---7---|-7-----------3-------5---5-------|
E|-------------11--------------15--|-----0-----------0---------------|-----0---0-------0-----------0---|


E|---------------------------------|---------------------------------|---------------------------------|
B|---------------------------------|---------------------------------|---------------------------------|
G|---------------------------------|---------------------------------|---------------------------------|
D|-5-------4---5-------9---7---2---|-2-----------4---4---------------|-5-------4---5-------9---7---5---|
A|-7-------5---7-------10--9---3---|-3-----------5---5---------------|-7-------5---7-------10--9---7---|
E|-----0-----------0---------------|-----0---0-----------0---0---0---|-----0-----------0---------------|


E|---------------------------------|---------------------------------|---------------------------------|
B|---------------------------------|---------------------------------|---------------------------------|
G|---------------------------------|---------------------------------|---------------------------------|
D|-5-----------2-------4---4-------|-5-------4---5-------9---7---2---|-2-----------5---5-----------2---|
A|-7-----------3-------5---5-------|-7-------5---7-------10--9---3---|-3-----------2---2-----------0---|
E|-----0---0-------0-----------0---|-----0-----------0---------------|-----0---0-----------0---0-------|


E|---------------------------------|---------------------------------|---------------------------------|
B|---------------------------------|---------------------------------|---------------------------------|
G|---------------------------------|---------------------------------|---------------------------------|
D|-2-----------0---0---------------|---------2-----------2-----------|---------------------------------|
A|-0-----------2---2---------------|-----2-----------3-------3---2---|-2-----------2-------------------|
E|-----0---0-----------3---3---0---|-------------0-------------------|-0---0---0---0---0---0---0---0---|


E|---------------------------------|---------------------------------|---------------------------------|
B|---------------------------------|---------------------------------|-0-------------------------------|
G|---------------------------------|---------------------------------|-0-------------------------------|
D|---------2-----------2-----------|---------------------------------|-0-------2-----------2-----------|
A|-----2-----------3-------3---2---|-2-----------2-------4---3---2---|-----2-----------3-------3---2---|
E|-0-----------0-------------------|-0---0---0---0---0---5---4---3---|-------------0-------------------|


E|---------------------------------|---------------------------------|---------------------------------|
B|---------------------------------|---------------------------------|---------------------------------|
G|---------------------------------|---------------------------------|-------------2---2---------------|
D|---------------------------------|---------2-----------2-------7---|-7-------------------------------|
A|-2-----------2-------------------|-----2-----------3-------0---5---|-5-----------3---3-----------2---|
E|-0---0---0---0---0---0---0---0---|-0-----------0-------------------|-----0---0-----------3---3---0---|


E|---------------------------------|---------------------------------|---------------------------------|
B|---------------------------------|---------------------------------|---------------------------------|
G|---------------------------------|---------------------------------|-------------2---2---------------|
D|---------------------------------|-----------------------------7---|-7-------------------------------|
A|-2-----------2-------4---3---2---|-----4---3---2-------4---2---5---|-5-----------3---3-----------2---|
E|-0---0---0---0---0---5---4---3---|-----5---4---3-------5---3-------|-----0---0-----------3---3---0---|


E|---------------------------------|---------------------------------|---------------------------------|
B|---------------------------------|---------------------------------|---------------------------------|
G|---------------------------------|---------------------------------|---------------------------------|
D|-0---1-----------4---5-----------|-8---9-----------12--13----------|-5-------4---5-------9---7---5---|
A|---------2---------------6-------|---------10--------------14------|-7-------5---7-------10--9---7---|
E|-------------3---------------7---|-------------11--------------15--|-----0-----------0---------------|


E|---------------------------------|---------------------------------|---------------------------------|
B|---------------------------------|---------------------------------|---------------------------------|
G|---------------------------------|---------------------------------|---------------------------------|
D|-5-----------2-------4---4-------|-5-------4---5-------9---7---2---|-2-----------4---4---------------|
A|-7-----------3-------5---5-------|-7-------5---7-------10--9---3---|-3-----------5---5---------------|
E|-----0---0-------0-----------0---|-----0-----------0---------------|-----0---0-----------0---0---0---|


E|---------------------------------|---------------------------------|---------------------------------|
B|---------------------------------|---------------------------------|---------------------------------|
G|---------------------------------|---------------------------------|---------------------------------|
D|-5-------4---5-------9---7---5---|-5-----------2-------4---4-------|-5-------4---5-------9---7---2---|
A|-7-------5---7-------10--9---7---|-7-----------3-------5---5-------|-7-------5---7-------10--9---3---|
E|-----0-----------0---------------|-----0---0-------0-----------0---|-----0-----------0---------------|


E|---------------------------------|---------------------------------|---------------------------------|
B|---------------------------------|---------------------------------|---------------------------------|
G|---------------------------------|---------------------------------|---------------------------------|
D|-2-----------5---5-----------2---|-2-----------0---0---------------|---------------------------------|
A|-3-----------2---2-----------0---|-0-----------2---2---------------|---------------------------------|
E|-----0---0-----------0---0-------|-----0---0-----------3---3---0---|-----0---0---0-------0---0---0---|


E|---------------------------------|---------------------------------|---------------------------------|
B|---------------------------------|---------------------------------|---------------------------------|
G|---------------------------------|---------------------------------|---------------------------------|
D|---------------------------------|---------------------------------|---------------------------------|
A|---------------------------------|---------------------------------|---------------------------------|
E|-----1---1---1-------1---1---1---|-----2---2---2-------2---2---2---|-----3---3---3-------3---3---3---|


E|---------------------------------|---------------------------------|---------------------------------|
B|---------------------------------|---------------------------------|---------------------------------|
G|---------------------------------|---------------------------------|---------------------------------|
D|---------------------------------|---------------------------------|-----------------------------7---|
A|---------------------------------|---------------------------------|-----------------------------5---|
E|-----4---4---4-------4---4---4---|-----5---5---5-------5---5---5---|-----6---6---6-------6---6-------|


E|---------------------------------|------------------------------|---------------------------------|
B|---------------------------------|------------------------------|---------------------------------|
G|-------------2---2---------------|------------------------------|-------------2---2---------------|
D|-7---------------------------9---|-9------------------------7---|-7---------------------------9---|
A|-5-----------3---3-----------7---|-7------------------------5---|-5-----------3---3-----------7---|
E|-----0---0-----------3---0-------|------0---0---0---0---0-------|-----0---0-----------3---0-------|


E|------------------------------|---------------------------------|------------------------------|
B|--------------------------0---|-0-------------------------------|------------------------------|
G|--------------------------2---|-2-----------2---2---------------|--------------------------4---|
D|-9------------------------0---|-0---------------------------9---|-9----------------------------|
A|-7----------------------------|-------------3---3-----------7---|-7------------------------5---|
E|------0---0---0---0---0-------|-----0---0-----------3---0-------|------0---0---0---0---0-------|


E|---------------------------------|------------------------------|---------------------------------|
B|---------------------------------|------------------------------|---------------------------------|
G|-4-----------2---2---------------|--------------------------4---|-4-----------2---2---------------|
D|-----------------------------9---|-9----------------------------|---------------------------------|
A|-5-----------3---3-----------7---|-7------------------------5---|-5-----------3---3-----------2---|
E|-----0---0-----------3---0-------|------0---0---0---0---0-------|-----0---0-----------3---0---0---|


E|---------------------------------|---------------------------------|---------------------------------|
B|---------------------------------|---------------------------------|---------------------------------|
G|---------------------------------|---------------------------------|---------------------------------|
D|---------2-----------2-----------|-0---1---------------------------|---------2-----------2-----------|
A|-2---2-----------3-------3---2---|---------2-----------------------|-----2-----------3-------3---2---|
E|-0-----------0-------------------|-------------3---2---1---2---3---|-0-----------0-------------------|


E|---------------------------------|---------------------------------|---------------------------------|
B|---------------------------------|---------------------------------|---------------------------------|
G|---------------------------------|---------------------------------|---------------------------------|
D|-0---1-----------4---5-----------|---------4-----------4-----------|-2---3---------------------------|
A|---------2---------------6-------|-----4-----------5-------5---4---|---------4-----------------------|
E|-------------3---------------7---|-2-----------2-------------------|-------------5---4---3---4---5---|


E|---------------------------------|---------------------------------|---------------------------------|
B|---------------------------------|---------------------------------|---------------------------------|
G|---------------------------------|---------------------------------|---------------------------------|
D|---------4-----------4-----------|-2---3---------------------------|---------2-----------2-----------|
A|-----4-----------5-------5---4---|---------4-----------------------|-----2-----------3-------3---2---|
E|-2-----------2-------------------|-------------5---4---3---2---1---|-------------0-------------------|


E|---------------------------------|---------------------------------|---------------------------------|
B|---------------------------------|---------------------------------|---------------------------------|
G|---------------------------------|---------------------------------|---------------------------------|
D|---------------------------------|---------2-----------2-----------|---------------------------------|
A|-2-----------2-------------------|-----2-----------3-------3---2---|-2-----------2-------4---3---2---|
E|-0---0---0---0---0---0---0---0---|-0-----------0-------------------|-0---0---0---0---0---5---4---3---|


E|---------------------------------|---------------------------------|---------------------------------|
B|-0-------------------------------|---------------------------------|---------------------------------|
G|-0-------------------------------|---------------------------------|---------------------------------|
D|-0-------2-----------2-----------|---------------------------------|---------2-----------2-------7---|
A|-----2-----------3-------3---2---|-2-----------2-------------------|-----2-----------3-------0---5---|
E|-------------0-------------------|-0---0---0---0---0---0---0---0---|-0-----------0-------------------|


E|---------------------------------|---------------------------------|---------------------------------|
B|---------------------------------|---------------------------------|---------------------------------|
G|-------------2---2---------------|---------------------------------|---------------------------------|
D|-7-------------------------------|---------------------------------|-----------------------------7---|
A|-5-----------3---3-----------2---|-2-----------2-------4---3---2---|-----4---3---2-------4---2---5---|
E|-----0---0-----------3---3---0---|-0---0---0---0---0---5---4---3---|-----5---4---3-------5---3-------|


E|---------------------------------|---------------------------------|---------------------------------|
B|---------------------------------|---------------------------------|---------------------------------|
G|-------------2---2---------------|---------------------------------|---------------------------------|
D|-7-------------------------------|-0---1-----------4---5-----------|-8---9-----------12--13----------|
A|-5-----------3---3-----------2---|---------2---------------6-------|---------10--------------14------|
E|-----0---0-----------3---3---0---|-------------3---------------7---|-------------11--------------15--|


E|---------------------------------|---------------------------------|---------------------------------|
B|---------------------------------|---------------------------------|---------------------------------|
G|---------------------------------|---------------------------------|---------------------------------|
D|-5-------4---5-------9---7---5---|-5-----------2-------4---4-------|-5-------4---5-------9---7---2---|
A|-7-------5---7-------10--9---7---|-7-----------3-------5---5-------|-7-------5---7-------10--9---3---|
E|-----0-----------0---------------|-----0---0-------0-----------0---|-----0-----------0---------------|


E|---------------------------------|---------------------------------|---------------------------------|
B|---------------------------------|---------------------------------|---------------------------------|
G|---------------------------------|---------------------------------|---------------------------------|
D|-2-----------4---4---------------|-5-------4---5-------9---7---5---|-5-----------2-------4---4-------|
A|-3-----------5---5---------------|-7-------5---7-------10--9---7---|-7-----------3-------5---5-------|
E|-----0---0-----------0---0---0---|-----0-----------0---------------|-----0---0-------0-----------0---|


E|---------------------------------|---------------------------------|---------------------------------|
B|---------------------------------|---------------------------------|---------------------------------|
G|---------------------------------|---------------------------------|---------------------------------|
D|-5-------4---5-------9---7---2---|-2-----------5---5-----------2---|-2-----------5---5-----------5---|
A|-7-------5---7-------10--9---3---|-3-----------2---2-----------0---|-0-----------2---2-----------3---|
E|-----0-----------0---------------|-----0---0-----------0---0-------|-----0---0-----------3---3-------|


E|---------------------------------|---------------------------------|---------------------------------|
B|---------------------------------|---------------------------------|---------------------------------|
G|---------------------------------|---------------------------------|---------------------------------|
D|-5-----------5---5-----------2---|-2-----------5---5---------------|-5-------4---5-------9---7---5---|
A|-3-----------2---2-----------0---|-0-----------2---2---------------|-7-------5---7-------10--9---7---|
E|-----0---0-----------0---0-------|-----0---0-----------3---0---0---|-----0-----------0---------------|


E|---------------------------------|---------------------------------|---------------------------------|
B|---------------------------------|---------------------------------|---------------------------------|
G|---------------------------------|---------------------------------|---------------------------------|
D|-5-----------2-------4---4-------|-5-------4---5-------9---7---2---|-2-----------4---4---------------|
A|-7-----------3-------5---5-------|-7-------5---7-------10--9---3---|-3-----------5---5---------------|
E|-----0---0-------0-----------0---|-----0-----------0---------------|-----0---0-----------0---0---0---|


E|---------------------------------|---------------------------------|---------------------------------|
B|---------------------------------|---------------------------------|---------------------------------|
G|---------------------------------|---------------------------------|-----------------------------0---|
D|-5-------4---5-------9---7---5---|-5-----------2-------4---4-------|-5-------4---5-------9---7---2---|
A|-7-------5---7-------10--9---7---|-7-----------3-------5---5-------|-7-------5---7-------10--9---3---|
E|-----0-----------0---------------|-----0---0-------0-----------0---|-----0-----------0---------------|


E|---------------------------------|------------------------------|---------------------------------|
B|---------------------------------|------------------------------|---------------------------------|
G|-0-------------------------------|------------------------------|---------------------------------|
D|-2-----------5---5-----------2---|-2-----------5---5------------|-0---1-----------4---5-----------|
A|-3-----------2---2-----------0---|-0-----------2---2------------|---------2---------------6-------|
E|-----0---0-----------0---0-------|-----0---0-----------3----3---|-------------3---------------7---|


E|---------------------------------|-----------------|
B|---------------------------------|-----------------|
G|---------------------------------|-----------------|
D|-8---9---------------------------|-2---------------|
A|---------10----------------------|-2---------------|
E|-------------11--2---1---2---3---|-0---------------|





Track 2: Guitar 2  Marty Friedman

E|---------------------------------|---------------------------------|---------------------------------|
B|-3---4-----------7---8-----------|-11--12----------15--16----------|---------------------------------|
G|---------4---------------8-------|---------12--------------16------|---------------------------------|
D|-------------5---------------9---|-------------13--------------17--|---------2-----------2-----------|
A|---------------------------------|---------------------------------|-----2-----------3-------3---2---|
E|---------------------------------|---------------------------------|-0-----------0-------------------|


E|---------------------------------|--------|--------|--------|--------|--------|--------|
B|---------------------------------|--------|--------|--------|--------|--------|--------|
G|---------------------------------|--------|--------|--------|--------|--------|--------|
D|---------------------------------|--------|--------|--------|--------|--------|--------|
A|-2-----------2-------------------|--------|--------|--------|--------|--------|--------|
E|-0---0---0---0---0---0---0---0---|--------|--------|--------|--------|--------|--------|


E|--------|--------|--------|--------|--------|--------|--------|--------|--------|
B|--------|--------|--------|--------|--------|--------|--------|--------|--------|
G|--------|--------|--------|--------|--------|--------|--------|--------|--------|
D|--------|--------|--------|--------|--------|--------|--------|--------|--------|
A|--------|--------|--------|--------|--------|--------|--------|--------|--------|
E|--------|--------|--------|--------|--------|--------|--------|--------|--------|


E|--------|--------|--------|--------|--------|--------|--------|---------------------------------|
B|--------|--------|--------|--------|--------|--------|--------|-3---4-----------7---8-----------|
G|--------|--------|--------|--------|--------|--------|--------|---------4---------------8-------|
D|--------|--------|--------|--------|--------|--------|--------|-------------5---------------9---|
A|--------|--------|--------|--------|--------|--------|--------|---------------------------------|
E|--------|--------|--------|--------|--------|--------|--------|---------------------------------|


E|---------------------------------|---------------------------------|---------------------------------|
B|-11--12----------15--16----------|---------------------------------|---------------------------------|
G|---------12--------------16------|---------------------------------|---------------------------------|
D|-------------13--------------17--|-9-------7---9-------12--10--9---|-9-----------5-------7---7-------|
A|---------------------------------|-10------9---10------14--12--10--|-10----------7-------9---9-------|
E|---------------------------------|-----0-----------0---------------|-----0---0-------0-----------0---|


E|---------------------------------|---------------------------------|---------------------------------|
B|---------------------------------|---------------------------------|---------------------------------|
G|---------------------------------|---------------------------------|---------------------------------|
D|-9-------7---9-------12--10--9---|-9-----------7---7---------------|-9-------7---9-------12--10--9---|
A|-10------9---10------14--12--10--|-10----------9---9---------------|-10------9---10------14--12--10--|
E|-----0-----------0---------------|-----0---0-----------0---0---0---|-----0-----------0---------------|


E|---------------------------------|---------------------------------|---------------------------------|
B|---------------------------------|---------------------------------|---------------------------------|
G|---------------------------------|---------------------7---5---4---|-4-----------4---4-----------4---|
D|-9-----------5-------7---7-------|-9-------7---9-------9---7---5---|-5-----------5---5-----------2---|
A|-10----------7-------9---9-------|-10------9---10------------------|---------------------------------|
E|-----0---0-------0-----------0---|-----0-----------0---------------|-----0---0-----------0---0-------|


E|---------------------------------|--------|--------|--------|--------|--------|--------|
B|---------------------------------|--------|--------|--------|--------|--------|--------|
G|-4-----------4---4---------------|--------|--------|--------|--------|--------|--------|
D|-2-----------5---5---------------|--------|--------|--------|--------|--------|--------|
A|---------------------------------|--------|--------|--------|--------|--------|--------|
E|-----0---0-----------3---3---0---|--------|--------|--------|--------|--------|--------|


E|--------|--------|--------|--------|--------|---------------------------------|---------------------------------|
B|--------|--------|--------|--------|--------|-3---4-----------7---8-----------|-11--12----------15--16----------|
G|--------|--------|--------|--------|--------|---------4---------------8-------|---------12--------------16------|
D|--------|--------|--------|--------|--------|-------------5---------------9---|-------------13--------------17--|
A|--------|--------|--------|--------|--------|---------------------------------|---------------------------------|
E|--------|--------|--------|--------|--------|---------------------------------|---------------------------------|


E|---------------------------------|---------------------------------|---------------------------------|
B|---------------------------------|---------------------------------|---------------------------------|
G|---------------------------------|---------------------------------|---------------------------------|
D|-9-------7---9-------12--10--9---|-9-----------5-------7---7-------|-9-------7---9-------12--10--9---|
A|-10------9---10------14--12--10--|-10----------7-------9---9-------|-10------9---10------14--12--10--|
E|-----0-----------0---------------|-----0---0-------0-----------0---|-----0-----------0---------------|


E|---------------------------------|---------------------------------|---------------------------------|
B|---------------------------------|---------------------------------|---------------------------------|
G|---------------------------------|---------------------------------|---------------------------------|
D|-9-----------7---7---------------|-9-------7---9-------12--10--9---|-9-----------5-------7---7-------|
A|-10----------9---9---------------|-10------9---10------14--12--10--|-10----------7-------9---9-------|
E|-----0---0-----------0---0---0---|-----0-----------0---------------|-----0---0-------0-----------0---|


E|---------------------------------|---------------------------------|---------------------------------|
B|---------------------------------|---------------------------------|---------------------------------|
G|---------------------7---5---4---|-4-----------4---4-----------4---|-4-----------4---4---------------|
D|-9-------7---9-------9---7---5---|-5-----------5---5-----------2---|-2-----------5---5---------------|
A|-10------9---10------------------|---------------------------------|---------------------------------|
E|-----0-----------0---------------|-----0---0-----------0---0-------|-----0---0-----------3---3---0---|


E|--------|--------|--------|--------|--------|--------|--------|--------|--------|
B|--------|--------|--------|--------|--------|--------|--------|--------|--------|
G|--------|--------|--------|--------|--------|--------|--------|--------|--------|
D|--------|--------|--------|--------|--------|--------|--------|--------|--------|
A|--------|--------|--------|--------|--------|--------|--------|--------|--------|
E|--------|--------|--------|--------|--------|--------|--------|--------|--------|


E|--------|--------|--------|--------|--------|--------|--------|--------|--------|
B|--------|--------|--------|--------|--------|--------|--------|--------|--------|
G|--------|--------|--------|--------|--------|--------|--------|--------|--------|
D|--------|--------|--------|--------|--------|--------|--------|--------|--------|
A|--------|--------|--------|--------|--------|--------|--------|--------|--------|
E|--------|--------|--------|--------|--------|--------|--------|--------|--------|


E|--------|--------|--------|--------|--------|--------|--------|--------|--------|
B|--------|--------|--------|--------|--------|--------|--------|--------|--------|
G|--------|--------|--------|--------|--------|--------|--------|--------|--------|
D|--------|--------|--------|--------|--------|--------|--------|--------|--------|
A|--------|--------|--------|--------|--------|--------|--------|--------|--------|
E|--------|--------|--------|--------|--------|--------|--------|--------|--------|


E|--------|--------|--------|--------|--------|--------|--------|--------|---------------------------------|
B|--------|--------|--------|--------|--------|--------|--------|--------|-3---4-----------7---8-----------|
G|--------|--------|--------|--------|--------|--------|--------|--------|---------4---------------8-------|
D|--------|--------|--------|--------|--------|--------|--------|--------|-------------5---------------9---|
A|--------|--------|--------|--------|--------|--------|--------|--------|---------------------------------|
E|--------|--------|--------|--------|--------|--------|--------|--------|---------------------------------|


E|---------------------------------|---------------------------------|---------------------------------|
B|-11--12----------15--16----------|---------------------------------|---------------------------------|
G|---------12--------------16------|---------------------------------|---------------------------------|
D|-------------13--------------17--|-9-------7---9-------12--10--9---|-9-----------5-------7---7-------|
A|---------------------------------|-10------9---10------14--12--10--|-10----------7-------9---9-------|
E|---------------------------------|-----0-----------0---------------|-----0---0-------0-----------0---|


E|---------------------------------|---------------------------------|---------------------------------|
B|---------------------------------|---------------------------------|---------------------------------|
G|---------------------------------|---------------------------------|---------------------------------|
D|-9-------7---9-------12--10--9---|-9-----------7---7---------------|-9-------7---9-------12--10--9---|
A|-10------9---10------14--12--10--|-10----------9---9---------------|-10------9---10------14--12--10--|
E|-----0-----------0---------------|-----0---0-----------0---0---0---|-----0-----------0---------------|


E|---------------------------------|---------------------------------|---------------------------------|
B|---------------------------------|---------------------------------|---------------------------------|
G|---------------------------------|---------------------7---5---4---|-4-----------4---4-----------4---|
D|-9-----------5-------7---7-------|-9-------7---9-------9---7---5---|-5-----------5---5-----------2---|
A|-10----------7-------9---9-------|-10------9---10------------------|---------------------------------|
E|-----0---0-------0-----------0---|-----0-----------0---------------|-----0---0-----------0---0-------|


E|---------------------------------|---------------------------------|---------------------------------|
B|---------------------------------|---------------------------------|---------------------------------|
G|-4-----------4---4-----------4---|-4-----------4---4-----------4---|-4-----------4---4---------------|
D|-2-----------5---5-----------5---|-5-----------5---5-----------2---|-2-----------5---5---------------|
A|---------------------------------|---------------------------------|---------------------------------|
E|-----0---0-----------3---3-------|-----0---0-----------0---0-------|-----0---0-----------3---0---0---|


E|---------------------------------|---------------------------------|---------------------------------|
B|---------------------------------|---------------------------------|---------------------------------|
G|---------------------------------|---------------------------------|---------------------------------|
D|-9-------7---9-------12--10--9---|-9-----------5-------7---7-------|-9-------7---9-------12--10--9---|
A|-10------9---10------14--12--10--|-10----------7-------9---9-------|-10------9---10------14--12--10--|
E|-----0-----------0---------------|-----0---0-------0-----------0---|-----0-----------0---------------|


E|---------------------------------|---------------------------------|---------------------------------|
B|---------------------------------|---------------------------------|---------------------------------|
G|---------------------------------|---------------------------------|---------------------------------|
D|-9-----------7---7---------------|-9-------7---9-------12--10--9---|-9-----------5-------7---7-------|
A|-10----------9---9---------------|-10------9---10------14--12--10--|-10----------7-------9---9-------|
E|-----0---0-----------0---0---0---|-----0-----------0---------------|-----0---0-------0-----------0---|


E|---------------------------------|---------------------------------|------------------------------|
B|---------------------------------|---------------------------------|------------------------------|
G|---------------------7---5---4---|-4-----------4---4-----------4---|-4-----------4---4------------|
D|-9-------7---9-------9---7---5---|-5-----------5---5-----------2---|-2-----------5---5------------|
A|-10------9---10------------------|---------------------------------|------------------------------|
E|-----0-----------0---------------|-----0---0-----------0---0-------|-----0---0-----------3----3---|


E|---------------------------------|---------------------------------|-----------------|
B|-3---4-----------7---8-----------|-11--12--------------------------|-----------------|
G|---------4---------------8-------|---------12----------------------|-----------------|
D|-------------5---------------9---|-------------13------------------|-2---------------|
A|---------------------------------|---------------------------------|-2---------------|
E|---------------------------------|-----------------2---1---2---3---|-0---------------|





Track 3: Guitar 3 Dave Mustaine 

E|--------|--------|--------|--------|--------|--------|--------|--------|--------|
B|--------|--------|--------|--------|--------|--------|--------|--------|--------|
G|--------|--------|--------|--------|--------|--------|--------|--------|--------|
D|--------|--------|--------|--------|--------|--------|--------|--------|--------|
A|--------|--------|--------|--------|--------|--------|--------|--------|--------|
E|--------|--------|--------|--------|--------|--------|--------|--------|--------|


E|--------|--------|--------|--------|--------|--------|--------|--------|--------|
B|--------|--------|--------|--------|--------|--------|--------|--------|--------|
G|--------|--------|--------|--------|--------|--------|--------|--------|--------|
D|--------|--------|--------|--------|--------|--------|--------|--------|--------|
A|--------|--------|--------|--------|--------|--------|--------|--------|--------|
E|--------|--------|--------|--------|--------|--------|--------|--------|--------|


E|--------|--------|--------|--------|--------|--------|--------|--------|--------|
B|--------|--------|--------|--------|--------|--------|--------|--------|--------|
G|--------|--------|--------|--------|--------|--------|--------|--------|--------|
D|--------|--------|--------|--------|--------|--------|--------|--------|--------|
A|--------|--------|--------|--------|--------|--------|--------|--------|--------|
E|--------|--------|--------|--------|--------|--------|--------|--------|--------|


E|--------|--------|--------|--------|--------|--------|--------|--------|--------|
B|--------|--------|--------|--------|--------|--------|--------|--------|--------|
G|--------|--------|--------|--------|--------|--------|--------|--------|--------|
D|--------|--------|--------|--------|--------|--------|--------|--------|--------|
A|--------|--------|--------|--------|--------|--------|--------|--------|--------|
E|--------|--------|--------|--------|--------|--------|--------|--------|--------|


E|--------|--------|--------|--------|--------|--------|--------|--------|--------|
B|--------|--------|--------|--------|--------|--------|--------|--------|--------|
G|--------|--------|--------|--------|--------|--------|--------|--------|--------|
D|--------|--------|--------|--------|--------|--------|--------|--------|--------|
A|--------|--------|--------|--------|--------|--------|--------|--------|--------|
E|--------|--------|--------|--------|--------|--------|--------|--------|--------|


E|--------|--------|--------|--------|--------|--------|--------|--------|--------|
B|--------|--------|--------|--------|--------|--------|--------|--------|--------|
G|--------|--------|--------|--------|--------|--------|--------|--------|--------|
D|--------|--------|--------|--------|--------|--------|--------|--------|--------|
A|--------|--------|--------|--------|--------|--------|--------|--------|--------|
E|--------|--------|--------|--------|--------|--------|--------|--------|--------|


E|--------|--------|--------|--------|--------|--------|--------|--------|--------|
B|--------|--------|--------|--------|--------|--------|--------|--------|--------|
G|--------|--------|--------|--------|--------|--------|--------|--------|--------|
D|--------|--------|--------|--------|--------|--------|--------|--------|--------|
A|--------|--------|--------|--------|--------|--------|--------|--------|--------|
E|--------|--------|--------|--------|--------|--------|--------|--------|--------|


E|--------|--------|--------|--------|------------------------|-----------------|------------------------|
B|--------|--------|--------|--------|------------------------|-----------------|----------------12--10--|
G|--------|--------|--------|--------|------4----9----4---4---|-4-----4---4-----|-4----4----9------------|
D|--------|--------|--------|--------|------------------------|-----------------|------------------------|
A|--------|--------|--------|--------|------------------------|-----------------|------------------------|
E|--------|--------|--------|--------|------------------------|-----------------|------------------------|


E|------------------------|-------------------0-----12-0-----12-0-----10-0--|----10-0--10-14-0--12-14-15-141512-14-12----12-----|
B|-10---8---7---7---------|----------------12----12-------12-------12-------|-12--------------------------------------15----15--|
G|-------------------7----|-0--9--12-0--12----------------------------------|---------------------------------------------------|
D|------------------------|-------------------------------------------------|---------------------------------------------------|
A|------------------------|-------------------------------------------------|---------------------------------------------------|
E|------------------------|-------------------------------------------------|---------------------------------------------------|


E|-----------------------------12-17-12----------|---------------------------------------|
B|-15--15--12-15-12--12--12-15----------15-12----|-12-------------14---------------------|
G|--------------------------------------------14-|----14-14-12----14-----12-14-12---12---|
D|-----------------------------------------------|-------------14------14----------------|
A|-----------------------------------------------|---------------------------------------|
E|-----------------------------------------------|---------------------------------------|


E|-----------------------------|-----------------------------------------------|---------------------------------|
B|-----------------------------|-----------------------------------------------|---------------------------------|
G|-2----2---2---2----2----2----|-2--2--2--2---2---2---2---2---2---2---4--2--0--|---------4-----------4-----------|
D|-----------------------------|-----------------------------------------------|-2---5-------2---5-------5---2---|
A|-----------------------------|-----------------------------------------------|---------------------------------|
E|-----------------------------|-----------------------------------------------|---------------------------------|


E|---------------------------------|-----------------------------------------|-----------------------------------|
B|---------------------------------|-10--10-10-10--10-10-10-12-12-12-12--12--|-----------------------------------|
G|-----------------4---5-----------|-----------------------------------------|-0--4--4---4----4----2-3-2---2--2--|
D|-6---7---4---------------7---4---|-7---7--7--7---7--7--7--9--9--9--9---9---|-0-------------------------4-------|
A|-5---6-------6-------------------|-----------------------------------------|-----------------------------------|
E|---------------------------------|-----------------------------------------|-----------------------------------|


E|-------------------------------|-17--17--17---19-20-19-17-19-17----------------17-|
B|-2--10---10--10-10-10----17-14-|--------------------------------20-19-17-19-20----|
G|-------------------------------|--------------------------------------------------|
D|-------------------------------|--------------------------------------------------|
A|-------------------------------|--------------------------------------------------|
E|-------------------------------|--------------------------------------------------|


E|-22---22---22---22---|--------|--------|--------|--------|--------|--------|--------|
B|---------------------|--------|--------|--------|--------|--------|--------|--------|
G|---------------------|--------|--------|--------|--------|--------|--------|--------|
D|---------------------|--------|--------|--------|--------|--------|--------|--------|
A|---------------------|--------|--------|--------|--------|--------|--------|--------|
E|---------------------|--------|--------|--------|--------|--------|--------|--------|


E|--------|--------|--------|--------|--------|--------|--------|--------|--------|
B|--------|--------|--------|--------|--------|--------|--------|--------|--------|
G|--------|--------|--------|--------|--------|--------|--------|--------|--------|
D|--------|--------|--------|--------|--------|--------|--------|--------|--------|
A|--------|--------|--------|--------|--------|--------|--------|--------|--------|
E|--------|--------|--------|--------|--------|--------|--------|--------|--------|


E|--------|--------|--------|--------|--------|--------|--------|--------|--------|
B|--------|--------|--------|--------|--------|--------|--------|--------|--------|
G|--------|--------|--------|--------|--------|--------|--------|--------|--------|
D|--------|--------|--------|--------|--------|--------|--------|--------|--------|
A|--------|--------|--------|--------|--------|--------|--------|--------|--------|
E|--------|--------|--------|--------|--------|--------|--------|--------|--------|


E|--------|--------|--------|--------|--------|--------|--------|--------|--------|
B|--------|--------|--------|--------|--------|--------|--------|--------|--------|
G|--------|--------|--------|--------|--------|--------|--------|--------|--------|
D|--------|--------|--------|--------|--------|--------|--------|--------|--------|
A|--------|--------|--------|--------|--------|--------|--------|--------|--------|
E|--------|--------|--------|--------|--------|--------|--------|--------|--------|


E|--------|
B|--------|
G|--------|
D|--------|
A|--------|
E|--------|





Track 4: Untitled

G|--------|--------|--------|--------|--------|--------|--------|--------|--------|
D|--------|--------|--------|--------|--------|--------|--------|--------|--------|
A|--------|--------|--------|--------|--------|--------|--------|--------|--------|
E|--------|--------|--------|--------|--------|--------|--------|--------|--------|


G|--------|--------|--------|--------|--------|--------|--------|--------|--------|
D|--------|--------|--------|--------|--------|--------|--------|--------|--------|
A|--------|--------|--------|--------|--------|--------|--------|--------|--------|
E|--------|--------|--------|--------|--------|--------|--------|--------|--------|


G|--------|--------|--------|--------|--------|--------|--------|--------|--------|
D|--------|--------|--------|--------|--------|--------|--------|--------|--------|
A|--------|--------|--------|--------|--------|--------|--------|--------|--------|
E|--------|--------|--------|--------|--------|--------|--------|--------|--------|


G|--------|--------|--------|--------|--------|--------|--------|--------|--------|
D|--------|--------|--------|--------|--------|--------|--------|--------|--------|
A|--------|--------|--------|--------|--------|--------|--------|--------|--------|
E|--------|--------|--------|--------|--------|--------|--------|--------|--------|


G|--------|--------|--------|--------|--------|--------|--------|--------|--------|
D|--------|--------|--------|--------|--------|--------|--------|--------|--------|
A|--------|--------|--------|--------|--------|--------|--------|--------|--------|
E|--------|--------|--------|--------|--------|--------|--------|--------|--------|


G|--------|--------|--------|--------|--------|--------|--------|--------|--------|
D|--------|--------|--------|--------|--------|--------|--------|--------|--------|
A|--------|--------|--------|--------|--------|--------|--------|--------|--------|
E|--------|--------|--------|--------|--------|--------|--------|--------|--------|


G|--------|--------|--------|--------|--------|--------|--------|--------|--------|
D|--------|--------|--------|--------|--------|--------|--------|--------|--------|
A|--------|--------|--------|--------|--------|--------|--------|--------|--------|
E|--------|--------|--------|--------|--------|--------|--------|--------|--------|


G|--------|--------|--------|--------|--------|--------|--------|--------|--------|
D|--------|--------|--------|--------|--------|--------|--------|--------|--------|
A|--------|--------|--------|--------|--------|--------|--------|--------|--------|
E|--------|--------|--------|--------|--------|--------|--------|--------|--------|


G|--------|--------|--------|--------|--------|--------|--------|--------|--------|
D|--------|--------|--------|--------|--------|--------|--------|--------|--------|
A|--------|--------|--------|--------|--------|--------|--------|--------|--------|
E|--------|--------|--------|--------|--------|--------|--------|--------|--------|


G|--------|--------|--------|--------|--------|--------|--------|--------|--------|
D|--------|--------|--------|--------|--------|--------|--------|--------|--------|
A|--------|--------|--------|--------|--------|--------|--------|--------|--------|
E|--------|--------|--------|--------|--------|--------|--------|--------|--------|


G|--------|--------|--------|--------|--------|--------|--------|--------|--------|
D|--------|--------|--------|--------|--------|--------|--------|--------|--------|
A|--------|--------|--------|--------|--------|--------|--------|--------|--------|
E|--------|--------|--------|--------|--------|--------|--------|--------|--------|


G|--------|--------|--------|--------|--------|--------|--------|--------|--------|
D|--------|--------|--------|--------|--------|--------|--------|--------|--------|
A|--------|--------|--------|--------|--------|--------|--------|--------|--------|
E|--------|--------|--------|--------|--------|--------|--------|--------|--------|


G|--------|--------|--------|--------|--------|--------|--------|--------|--------|
D|--------|--------|--------|--------|--------|--------|--------|--------|--------|
A|--------|--------|--------|--------|--------|--------|--------|--------|--------|
E|--------|--------|--------|--------|--------|--------|--------|--------|--------|


G|--------|--------|
D|--------|--------|
A|--------|--------|
E|--------|--------|