Menu:

 

Search:

 

megadeth - absolution:

 



Title: Absolution
Artist: 
Album: Youthanasia (Remix/Remaster) Edition
Author: Mustaine/Friedman


Track 1: Rhythm Guitar

E|---------------------------------|---------------------------------|---------------------------------|
B|-5---------------5---------------|-4---------------4---------------|-5---------------5---------------|
G|---------5---------------5-------|---------5---------------5-------|---------5---------------5-------|
D|-----7-------7-------7-------7---|-----7-------7-------7-------7---|-----7-------7-------7-------7---|
A|---------------------------------|---------------------------------|---------------------------------|
E|---------------------------------|---------------------------------|---------------------------------|


E|---------------------------------|--------------------------------------|--------------------------------------|
B|-4---------------4---------------|-5-----------5---6---5--6--5----------|-8-----------8---9---8--9--8----------|
G|---------5---------------5-------|---------5--------------------5-------|---------8--------------------8-------|
D|-----7-------7-------7-------7---|-----7----------------------------7---|-----10---------------------------10--|
A|---------------------------------|--------------------------------------|--------------------------------------|
E|---------------------------------|--------------------------------------|--------------------------------------|


E|--------------------------------------|-----------------------|--------|---------------------------------|
B|-3-----------3---4---3--4--3----------|-----------------------|--------|-5---------------5---------------|
G|---------3--------------------3-------|-----------------------|--------|---------5---------------5-------|
D|-----5----------------------------5---|-7---10--10--5---7-----|-7------|-----7-------7-------7-------7---|
A|--------------------------------------|-----------------------|--------|---------------------------------|
E|--------------------------------------|-----------------------|--------|---------------------------------|


E|---------------------------------|---------------------------------|---------------------------------|
B|-4---------------4---------------|-5---------------5---------------|-4---------------4---------------|
G|---------5---------------5-------|---------5---------------5-------|---------5---------------5-------|
D|-----7-------7-------7-------7---|-----7-------7-------7-------7---|-----7-------7-------7-------7---|
A|---------------------------------|---------------------------------|---------------------------------|
E|---------------------------------|---------------------------------|---------------------------------|


E|--------------------------------------|--------------------------------------|--------------------------------------|
B|-5-----------5---6---5--6--5----------|-8-----------8---9---8--9--8----------|-3-----------3---4---3--4--3----------|
G|---------5--------------------5-------|---------8--------------------8-------|---------3--------------------3-------|
D|-----7----------------------------7---|-----10---------------------------10--|-----5----------------------------5---|
A|--------------------------------------|--------------------------------------|--------------------------------------|
E|--------------------------------------|--------------------------------------|--------------------------------------|


E|-----------------------|--------|---------------------------------|---------------------------------|
B|-----------------------|--------|-5---------------5---------------|-4---------------4---------------|
G|-----------------------|--------|---------5---------------5-------|---------5---------------5-------|
D|-7---5---5---8---7-----|-7------|-----7-------7-------7-------7---|-----7-------7-------7-------7---|
A|-----------------------|--------|---------------------------------|---------------------------------|
E|-----------------------|--------|---------------------------------|---------------------------------|


E|---------------------------------|---------------------------------|--------------------------------------|
B|-5---------------5---------------|-4---------------4---------------|-5-----------5---6---5--6--5----------|
G|---------5---------------5-------|---------5---------------5-------|---------5--------------------5-------|
D|-----7-------7-------7-------7---|-----7-------7-------7-------7---|-----7----------------------------7---|
A|---------------------------------|---------------------------------|--------------------------------------|
E|---------------------------------|---------------------------------|--------------------------------------|


E|---------------------------------|-----------------3-------3---5---|-6-------------------------------|
B|-5-----------4---------------4---|-3-----------3-------3-----------|-----6-------6---------------6---|
G|-----5-----------5-------5-------|---------3-----------------------|---------6-------6-------6-------|
D|---------7-----------3-----------|-----5---------------------------|---------------------8-----------|
A|---------------------------------|---------------------------------|---------------------------------|
E|---------------------------------|---------------------------------|---------------------------------|


E|-----------------0---------------|--------------------------------------|--------|
B|-------------6-------6-----------|-------------8---11--8--11-8----------|--------|
G|---------5---------------5-------|---------6--------------------9-------|--------|
D|-----7-----------------------7---|-----5----------------------------11--|-11-----|
A|-0-------------------------------|-0------------------------------------|--------|
E|---------------------------------|--------------------------------------|--------|


E|---------------------------------|---------------------------------|--------|--------|
B|---------------------------------|---------------------------------|--------|--------|
G|---------------------------------|---------0---------------3-------|--------|--------|
D|---------0---------------0-------|-----0---------------3-----------|--------|--------|
A|-----0---------------0-----------|-0-----------0---1---------------|--------|--------|
E|-1-----------1---0-----------0---|---------------------------------|--------|--------|


E|--------|--------|--------|--------|--------|--------|--------|--------|--------|
B|--------|--------|--------|--------|--------|--------|--------|--------|--------|
G|--------|--------|--------|--------|--------|--------|--------|--------|--------|
D|--------|--------|--------|--------|--------|--------|--------|--------|--------|
A|--------|--------|--------|--------|--------|--------|--------|--------|--------|
E|--------|--------|--------|--------|--------|--------|--------|--------|--------|


E|--------|--------|--------|--------|--------|--------|--------|--------|--------|
B|--------|--------|--------|--------|--------|--------|--------|--------|--------|
G|--------|--------|--------|--------|--------|--------|--------|--------|--------|
D|--------|--------|--------|--------|--------|--------|--------|--------|--------|
A|--------|--------|--------|--------|--------|--------|--------|--------|--------|
E|--------|--------|--------|--------|--------|--------|--------|--------|--------|


E|--------|--------|--------|--------|--------|--------|--------|--------|--------|
B|--------|--------|--------|--------|--------|--------|--------|--------|--------|
G|--------|--------|--------|--------|--------|--------|--------|--------|--------|
D|--------|--------|--------|--------|--------|--------|--------|--------|--------|
A|--------|--------|--------|--------|--------|--------|--------|--------|--------|
E|--------|--------|--------|--------|--------|--------|--------|--------|--------|


E|--------|--------|--------|--------|--------|--------|--------|--------|--------|
B|--------|--------|--------|--------|--------|--------|--------|--------|--------|
G|--------|--------|--------|--------|--------|--------|--------|--------|--------|
D|--------|--------|--------|--------|--------|--------|--------|--------|--------|
A|--------|--------|--------|--------|--------|--------|--------|--------|--------|
E|--------|--------|--------|--------|--------|--------|--------|--------|--------|


E|--------|--------|--------|--------|--------|--------|--------|--------|--------|
B|--------|--------|--------|--------|--------|--------|--------|--------|--------|
G|--------|--------|--------|--------|--------|--------|--------|--------|--------|
D|--------|--------|--------|--------|--------|--------|--------|--------|--------|
A|--------|--------|--------|--------|--------|--------|--------|--------|--------|
E|--------|--------|--------|--------|--------|--------|--------|--------|--------|


E|--------|--------|--------|--------|--------|--------|--------|--------|--------|
B|--------|--------|--------|--------|--------|--------|--------|--------|--------|
G|--------|--------|--------|--------|--------|--------|--------|--------|--------|
D|--------|--------|--------|--------|--------|--------|--------|--------|--------|
A|--------|--------|--------|--------|--------|--------|--------|--------|--------|
E|--------|--------|--------|--------|--------|--------|--------|--------|--------|


E|--------|
B|--------|
G|--------|
D|--------|
A|--------|
E|--------|





Track 2: Rhythm Guitar

E|---------------------------------|---------------------------------|---------------------------------|
B|---------------------------------|---------------------------------|---------------------------------|
G|-5---------------5---------------|-5---------------5---------------|-5---------------5---------------|
D|---------7---------------7-------|---------7---------------7-------|---------7---------------7-------|
A|-----7-------7-------7-------7---|-----6-------6-------6-------6---|-----7-------7-------7-------7---|
E|---------------------------------|---------------------------------|---------------------------------|


E|---------------------------------|--------------------------------------|--------------------------------------|
B|---------------------------------|--------------------------------------|--------------------------------------|
G|-5---------------5---------------|-5-----------5---7---5--7--5----------|-8-----------8---10--8--10-8----------|
D|---------7---------------7-------|---------7--------------------7-------|---------10-------------------10------|
A|-----6-------6-------6-------6---|-----7----------------------------7---|-----10---------------------------10--|
E|---------------------------------|--------------------------------------|--------------------------------------|


E|--------------------------------------|-----------------------|--------|---------------------------------|
B|--------------------------------------|-----------------------|--------|---------------------------------|
G|-3-----------3---5---3--5--3----------|-----------------------|--------|-5---------------5---------------|
D|---------5--------------------5-------|-----------------------|--------|---------7---------------7-------|
A|-----5----------------------------5---|-7---10--10--5---7-----|-7------|-----7-------7-------7-------7---|
E|--------------------------------------|-----------------------|--------|---------------------------------|


E|---------------------------------|---------------------------------|---------------------------------|
B|---------------------------------|---------------------------------|---------------------------------|
G|-5---------------5---------------|-5---------------5---------------|-5---------------5---------------|
D|---------7---------------7-------|---------7---------------7-------|---------7---------------7-------|
A|-----6-------6-------6-------6---|-----7-------7-------7-------7---|-----6-------6-------6-------6---|
E|---------------------------------|---------------------------------|---------------------------------|


E|--------------------------------------|--------------------------------------|--------------------------------------|
B|--------------------------------------|--------------------------------------|--------------------------------------|
G|-5-----------5---7---5--7--5----------|-8-----------8---10--8--10-8----------|-3-----------3---5---3--5--3----------|
D|---------7--------------------7-------|---------10-------------------10------|---------5--------------------5-------|
A|-----7----------------------------7---|-----10---------------------------10--|-----5----------------------------5---|
E|--------------------------------------|--------------------------------------|--------------------------------------|


E|-----------------------|--------|---------------------------------|---------------------------------|
B|-----------------------|--------|---------------------------------|---------------------------------|
G|-----------------------|--------|-5---------------5---------------|-5---------------5---------------|
D|-----------------------|--------|---------7---------------7-------|---------7---------------7-------|
A|-7---5---5---8---7-----|-7------|-----7-------7-------7-------7---|-----6-------6-------6-------6---|
E|-----------------------|--------|---------------------------------|---------------------------------|


E|---------------------------------|---------------------------------|--------------------------------------|
B|---------------------------------|---------------------------------|--------------------------------------|
G|-5---------------5---------------|-5---------------5---------------|-5-----------5---7---5--7--5----------|
D|---------7---------------7-------|---------7---------------7-------|---------7--------------------7-------|
A|-----7-------7-------7-------7---|-----6-------6-------6-------6---|-----7----------------------------7---|
E|---------------------------------|---------------------------------|--------------------------------------|


E|------------------------------|-----------------------------|----------------------------------|
B|------------------------------|-----------------------------|----------------------------------|
G|---------5--------------------|-----------3--2--3-----------|----------------6--5--6-----------|
D|-----7------------------------|-5-----0-------------5-------|--------------------------8-------|
A|-6-----------3---3---3---6----|-------------------------5---|-5--8--8----------------------8---|
E|------------------------------|-----------------------------|------------6---------------------|


E|------------------------|--------------------------------------|--------|--------|
B|------------------------|-------------5---8---5--8--5----------|--------|--------|
G|------------------------|---------3--------------------6-------|--------|--------|
D|------------------------|-----2----------------------------8---|-8------|--------|
A|-8---7---12---12----12--|-0------------------------------------|--------|--------|
E|------------------------|--------------------------------------|--------|--------|


E|--------|--------|--------|--------|--------|--------|--------|--------|--------|
B|--------|--------|--------|--------|--------|--------|--------|--------|--------|
G|--------|--------|--------|--------|--------|--------|--------|--------|--------|
D|--------|--------|--------|--------|--------|--------|--------|--------|--------|
A|--------|--------|--------|--------|--------|--------|--------|--------|--------|
E|--------|--------|--------|--------|--------|--------|--------|--------|--------|


E|--------|--------|--------|--------|--------|--------|--------|--------|--------|
B|--------|--------|--------|--------|--------|--------|--------|--------|--------|
G|--------|--------|--------|--------|--------|--------|--------|--------|--------|
D|--------|--------|--------|--------|--------|--------|--------|--------|--------|
A|--------|--------|--------|--------|--------|--------|--------|--------|--------|
E|--------|--------|--------|--------|--------|--------|--------|--------|--------|


E|--------|--------|--------|--------|--------|--------|--------|--------|--------|
B|--------|--------|--------|--------|--------|--------|--------|--------|--------|
G|--------|--------|--------|--------|--------|--------|--------|--------|--------|
D|--------|--------|--------|--------|--------|--------|--------|--------|--------|
A|--------|--------|--------|--------|--------|--------|--------|--------|--------|
E|--------|--------|--------|--------|--------|--------|--------|--------|--------|


E|--------|--------|--------|--------|--------|--------|--------|--------|--------|
B|--------|--------|--------|--------|--------|--------|--------|--------|--------|
G|--------|--------|--------|--------|--------|--------|--------|--------|--------|
D|--------|--------|--------|--------|--------|--------|--------|--------|--------|
A|--------|--------|--------|--------|--------|--------|--------|--------|--------|
E|--------|--------|--------|--------|--------|--------|--------|--------|--------|


E|--------|--------|--------|--------|--------|--------|--------|--------|--------|
B|--------|--------|--------|--------|--------|--------|--------|--------|--------|
G|--------|--------|--------|--------|--------|--------|--------|--------|--------|
D|--------|--------|--------|--------|--------|--------|--------|--------|--------|
A|--------|--------|--------|--------|--------|--------|--------|--------|--------|
E|--------|--------|--------|--------|--------|--------|--------|--------|--------|


E|--------|--------|--------|--------|--------|--------|--------|--------|--------|
B|--------|--------|--------|--------|--------|--------|--------|--------|--------|
G|--------|--------|--------|--------|--------|--------|--------|--------|--------|
D|--------|--------|--------|--------|--------|--------|--------|--------|--------|
A|--------|--------|--------|--------|--------|--------|--------|--------|--------|
E|--------|--------|--------|--------|--------|--------|--------|--------|--------|


E|--------|--------|--------|--------|
B|--------|--------|--------|--------|
G|--------|--------|--------|--------|
D|--------|--------|--------|--------|
A|--------|--------|--------|--------|
E|--------|--------|--------|--------|





Track 3: Rhythm Guitar

E|--------|--------|--------|--------|--------|--------|--------|--------|--------|
B|--------|--------|--------|--------|--------|--------|--------|--------|--------|
G|--------|--------|--------|--------|--------|--------|--------|--------|--------|
D|--------|--------|--------|--------|--------|--------|--------|--------|--------|
A|--------|--------|--------|--------|--------|--------|--------|--------|--------|
E|--------|--------|--------|--------|--------|--------|--------|--------|--------|


E|--------|--------|--------|--------|--------|--------|--------|--------|--------|
B|--------|--------|--------|--------|--------|--------|--------|--------|--------|
G|--------|--------|--------|--------|--------|--------|--------|--------|--------|
D|--------|--------|--------|--------|--------|--------|--------|--------|--------|
A|--------|--------|--------|--------|--------|--------|--------|--------|--------|
E|--------|--------|--------|--------|--------|--------|--------|--------|--------|


E|--------|--------|--------|--------|--------|--------|--------|--------|--------|
B|--------|--------|--------|--------|--------|--------|--------|--------|--------|
G|--------|--------|--------|--------|--------|--------|--------|--------|--------|
D|--------|--------|--------|--------|--------|--------|--------|--------|--------|
A|--------|--------|--------|--------|--------|--------|--------|--------|--------|
E|--------|--------|--------|--------|--------|--------|--------|--------|--------|


E|--------|--------|--------|----------------|--------|--------|--------|--------|
B|--------|--------|--------|----------------|--------|--------|--------|--------|
G|--------|--------|--------|----------------|--------|--------|--------|--------|
D|--------|--------|--------|----------------|--------|--------|--------|--------|
A|--------|--------|--------|------------3---|-2------|-2------|-2------|-2------|
E|--------|--------|--------|------------1---|-0------|-0------|-0------|-0------|


E|--------|--------|-------------------------------------|---------------------------------|
B|--------|--------|-------------------------------------|-----------------0---------------|
G|--------|--------|-----------------0-------------------|---------0-----------0-----------|
D|--------|--------|---------2---4-------4---2--4--2--0--|-----2-------2-----------2-------|
A|-2------|-2------|-----2-------------------------------|-4---------------------------5---|
E|-0------|-0------|-0-----------------------------------|-----------------------------3---|


E|-------------------------------------|---------------------------------|-------------------------------------|
B|-------------------------------------|-----------------0---------------|-------------------------------------|
G|-----------------0-------------------|---------0-----------0-----------|-----------------0-------------------|
D|---------2---4-------4---2--4--2--0--|-----2-------2-------------------|---------2---4-------4---2--4--2--0--|
A|-----2-------------------------------|-4-----------------------5---4---|-----2-------------------------------|
E|-0-----------------------------------|-------------------------3---2---|-0-----------------------------------|


E|---------------------------------|-------------------------------------|---------------------------|
B|-----------------0---------------|-------------------------------------|---------------------------|
G|---------0-----------0-----------|-----------------0-------------------|---------------------------|
D|-----2-------2-------------------|---------2---4-------4---2--4--2--0--|-5--------5----------------|
A|-4-----------------------4---5---|-----2-------------------------------|-3--------3--------5---4---|
E|-------------------------2---3---|-0-----------------------------------|-------------------3---2---|


E|-------------------------------------|---------------------------------|-------------------------------------|
B|-------------------------------------|-----------------0---------------|-------------------------------------|
G|-----------------0-------------------|---------0-----------0-----------|-----------------0-------------------|
D|---------2---4-------4---2--4--2--0--|-----2-------2-----------2-------|---------2---4-------4---2--4--2--0--|
A|-----2-------------------------------|-4---------------------------5---|-----2-------------------------------|
E|-0-----------------------------------|-----------------------------3---|-0-----------------------------------|


E|---------------------------------|-------------------------------------|---------------------------------|
B|-----------------0---------------|-------------------------------------|-----------------0---------------|
G|---------0-----------0-----------|-----------------0-------------------|---------0-----------0-----------|
D|-----2-------2-------------------|---------2---4-------4---2--4--2--0--|-----2-------2-------------------|
A|-4-----------------------5---4---|-----2-------------------------------|-4-----------------------4---5---|
E|-------------------------3---2---|-0-----------------------------------|-------------------------2---3---|


E|-------------------------------------|--------------------|---------------------------------|
B|-------------------------------------|--------------------|-----------------0---------------|
G|-----------------0-------------------|--------------------|---------0-----------0-------0---|
D|---------2---4-------4---2--4--2--0--|-5------------------|-----2-------2-----------2-------|
A|-----2-------------------------------|-3------------------|-3-------------------------------|
E|-0-----------------------------------|--------------------|---------------------------------|


E|---------------------------------|---------------------------------|---------------------------------|
B|-----------------0---------------|---------------------------------|-----------------0---------------|
G|---------0-----------0-------0---|---------0-------3---0-------0---|---------0-----------0-----------|
D|-----2-------2-----------2-------|-----0-------0-----------0-------|-----2-------2-----------2-------|
A|-2-------------------------------|-1-------------------------------|-0---------------------------0---|
E|---------------------------------|---------------------------------|---------------------------------|


E|---------------------------------|---------------------------------|---------------------------------|
B|---------------------------------|---------------------------------|---------------------------------|
G|---------------------------------|---------------------------------|---------------------------------|
D|---------0---1-------0---1-------|---------0---1-------0---1-------|---------0---1-------0---1-------|
A|-----3-----------3-----------3---|-----3-----------3-----------3---|-----3-----------3-----------3---|
E|-4-------------------------------|-3-------------------------------|-2-------------------------------|


E|---------------------------------|-------------------------------------|---------------------------------|
B|---------------------------------|-------------------------------------|-----------------0---------------|
G|---------------------------------|-----------------0-------------------|---------0-----------0-----------|
D|---------3-----------6---3-------|---------2---4-------4---2--4--2--0--|-----2-------2-----------2-------|
A|-----2-----------5-----------2---|-----2-------------------------------|-4---------------------------5---|
E|-1-----------4-------------------|-0-----------------------------------|-----------------------------3---|


E|-------------------------------------|---------------------------------|-------------------------------------|
B|-------------------------------------|-----------------0---------------|-------------------------------------|
G|-----------------0-------------------|---------0-----------0-----------|-----------------0-------------------|
D|---------2---4-------4---2--4--2--0--|-----2-------2-------------------|---------2---4-------4---2--4--2--0--|
A|-----2-------------------------------|-4-----------------------5---4---|-----2-------------------------------|
E|-0-----------------------------------|-------------------------3---2---|-0-----------------------------------|


E|---------------------------------|-------------------------------------|---------------------------|
B|-----------------0---------------|-------------------------------------|---------------------------|
G|---------0-----------0-----------|-----------------0-------------------|---------------------------|
D|-----2-------2-------------------|---------2---4-------4---2--4--2--0--|-5--------5----------------|
A|-4-----------------------4---5---|-----2-------------------------------|-3--------3--------5---4---|
E|-------------------------2---3---|-0-----------------------------------|-------------------3---2---|


E|-------------------------------------|---------------------------------|-------------------------------------|
B|-------------------------------------|-----------------0---------------|-------------------------------------|
G|-----------------0-------------------|---------0-----------0-----------|-----------------0-------------------|
D|---------2---4-------4---2--4--2--0--|-----2-------2-----------2-------|---------2---4-------4---2--4--2--0--|
A|-----2-------------------------------|-4---------------------------5---|-----2-------------------------------|
E|-0-----------------------------------|-----------------------------3---|-0-----------------------------------|


E|---------------------------------|-------------------------------------|---------------------------------|
B|-----------------0---------------|-------------------------------------|-----------------0---------------|
G|---------0-----------0-----------|-----------------0-------------------|---------0-----------0-----------|
D|-----2-------2-------------------|---------2---4-------4---2--4--2--0--|-----2-------2-------------------|
A|-4-----------------------5---4---|-----2-------------------------------|-4-----------------------4---5---|
E|-------------------------3---2---|-0-----------------------------------|-------------------------2---3---|


E|-------------------------------------|--------------------|---------------------------------|
B|-------------------------------------|--------------------|-----------------0---------------|
G|-----------------0-------------------|--------------------|---------0-----------0-------0---|
D|---------2---4-------4---2--4--2--0--|-5------------------|-----2-------2-----------2-------|
A|-----2-------------------------------|-3------------------|-3-------------------------------|
E|-0-----------------------------------|--------------------|---------------------------------|


E|---------------------------------|---------------------------------|---------------------------------|
B|-----------------0---------------|---------------------------------|-----------------0---------------|
G|---------0-----------0-------0---|---------0-------3---0-------0---|---------0-----------0-----------|
D|-----2-------2-----------2-------|-----0-------0-----------0-------|-----2-------2-----------2-------|
A|-2-------------------------------|-1-------------------------------|-0---------------------------0---|
E|---------------------------------|---------------------------------|---------------------------------|


E|--------|--------|--------|---------------------------------|---------------------------------|
B|--------|--------|--------|---------------------------------|---------------------------------|
G|--------|--------|--------|---------------------------------|---------------------------------|
D|--------|--------|--------|---------------------------------|-----6---5---3-------------------|
A|--------|--------|--------|-3-----------2---5---2---6---3---|-5---------------6---5---3---2---|
E|--------|--------|--------|-1---4---3-----------------------|---------------------------------|


E|--------|--------------------|
B|--------|--------------------|
G|-5------|-5------------------|
D|-5------|-5------------------|
A|-3------|-3------------------|
E|-3------|-3------------------|





Track 4: Lead Guitar

E|--------|--------|--------|--------|--------|--------|--------|--------|--------|
B|--------|--------|--------|--------|--------|--------|--------|--------|--------|
G|--------|--------|--------|--------|--------|--------|--------|--------|--------|
D|--------|--------|--------|--------|--------|--------|--------|--------|--------|
A|--------|--------|--------|--------|--------|--------|--------|--------|--------|
E|--------|--------|--------|--------|--------|--------|--------|--------|--------|


E|--------|--------|--------|--------|--------|--------|--------|--------|--------|
B|--------|--------|--------|--------|--------|--------|--------|--------|--------|
G|--------|--------|--------|--------|--------|--------|--------|--------|--------|
D|--------|--------|--------|--------|--------|--------|--------|--------|--------|
A|--------|--------|--------|--------|--------|--------|--------|--------|--------|
E|--------|--------|--------|--------|--------|--------|--------|--------|--------|


E|--------|--------|--------|--------|--------|--------|--------|--------|--------|
B|--------|--------|--------|--------|--------|--------|--------|--------|--------|
G|--------|--------|--------|--------|--------|--------|--------|--------|--------|
D|--------|--------|--------|--------|--------|--------|--------|--------|--------|
A|--------|--------|--------|--------|--------|--------|--------|--------|--------|
E|--------|--------|--------|--------|--------|--------|--------|--------|--------|


E|--------|--------|--------|--------|--------|--------|--------|-12----------|--------|
B|--------|--------|--------|--------|--------|--------|--------|-------12----|-12-----|
G|--------|--------|--------|--------|--------|--------|--------|-------------|--------|
D|--------|--------|--------|--------|--------|--------|--------|-------------|--------|
A|--------|--------|--------|--------|--------|--------|--------|-------------|--------|
E|--------|--------|--------|--------|--------|--------|--------|-------------|--------|


E|-10----------|-------------------------------|-----------------------------|---------------------------|
B|-------10----|-15--15----15--15--15-15-15-15-|-15--15----15--15--15--------|-----------15---15-15--15--|
G|-------------|-------------------------------|--------------------------12-|-14----14--14---14-14--14--|
D|-------------|-------------------------------|-----------------------14----|---------------------------|
A|-------------|-------------------------------|-----------------------------|---------------------------|
E|-------------|-------------------------------|-----------------------------|---------------------------|


E|------------------|------------------|-15------------------------------|-----------------------------------|
B|-15-----15--------|------------------|------15-15----------------------|-----------------------------------|
G|-14-----14--------|-12--------12-14--|-------------14--12----------12--|-14--14-12-12------12--------------|
D|------------12-14-|--------14--------|----------------------14-14------|---------------14-------14-14--12--|
A|------------------|------------------|---------------------------------|-----------------------------------|
E|------------------|------------------|---------------------------------|-----------------------------------|


E|------------------------------------------------|--------------------|-------------------------------------------------|
B|------------------------------------------------|--------------------|-----------------------------------------12------|
G|------------------------------------------------|--------------------|-------------------------12------14--12------15--|
D|-12-14-12----12---------------------------------|--------------------|---------12------14--12------14------------------|
A|----------14----14-13-12-13-12----12------------|-----------------12-|-13--14------14----------------------------------|
E|-------------------------------15----12---12-12-|-12-----12-14-15----|-------------------------------------------------|


E|----------------------------------------15-17---17-|-17--17---17--17--17---17--|
B|-15-12----12-12-15-12----12-15-17-17-17------------|---------------------------|
G|-------15-------------15---------------------------|---------------------------|
D|---------------------------------------------------|---------------------------|
A|---------------------------------------------------|---------------------------|
E|---------------------------------------------------|---------------------------|


E|-------------------------------------------------|----------------------------------------------------------|
B|-15--12------12--15--12--17--15--12-----12-15-12-|----12-17-15-12----12-15-12----12-17-15-12----12-15-12----|
G|---------15--------------------------15----------|-15-------------15----------15-------------15----------15-|
D|-------------------------------------------------|----------------------------------------------------------|
A|-------------------------------------------------|----------------------------------------------------------|
E|-------------------------------------------------|----------------------------------------------------------|


E|-------------------------------------------------------------------------|-----------------------------------------------------------------------|
B|-12-17-15-12----12-15-12-12-12-17-15-12----12-17-15-12-12-12-15-17-17-12-|-17-15-12----12-17-15-12-15-12-----------------------------------------|
G|-------------15-------------------------15-------------------------------|----------15-------------------14-14-12----12-14-15-16-16-16-15-14-----|
D|-------------------------------------------------------------------------|----------------------------------------14-------------------------17--|
A|-------------------------------------------------------------------------|-----------------------------------------------------------------------|
E|-------------------------------------------------------------------------|-----------------------------------------------------------------------|


E|----------------|----------------|--------------------|--------|-----------------|
B|-17-----17--17--|-15-----15--15--|-18----18--20---18--|-17-----|-17--------------|
G|----------------|----------------|--------------------|--------|-----------------|
D|----------------|----------------|--------------------|--------|-----------------|
A|----------------|----------------|--------------------|--------|-----------------|
E|----------------|----------------|--------------------|--------|-----------------|


E|--------|--------|--------|-------------|-------------------------|----------------|
B|--------|--------|--------|-------------|-------------------------|----------------|
G|--------|--------|--------|-3------3----|-3---------3---3---3--3--|----3----3------|
D|--------|--------|--------|-------------|-------------------------|----------------|
A|--------|--------|--------|-------------|-------------------------|----------------|
E|--------|--------|--------|-------------|-------------------------|----------------|


E|------------------------------|------------------|---------------------------------------|
B|------------------------------|--------------7---|-8-108---7--7----7---7--7--8--7--------|
G|-3-----3---7---7--6--6--6--4--|-9------9--9------|---------------------------------9--7--|
D|------------------------------|------------------|---------------------------------------|
A|------------------------------|------------------|---------------------------------------|
E|------------------------------|------------------|---------------------------------------|


E|----------------------------|-------------------------------------------|------------------------------|
B|----------------------------|-------------------8-----------------------|------------------------------|
G|----------------------------|-------------------------------------------|------------------------------|
D|-9-----9---7--9--7--5---7---|-7---7---5---7--8-----8--7--5--7--8--7--5--|----------5-------------------|
A|----------------------------|-------------------------------------------|-7--5--7-----7----7-----7--9--|
E|----------------------------|-------------------------------------------|------------------------------|


E|-------------------------------------------------|-----------15171921----21--21--21--|
B|-------------------------------------------------|-----151619------------------------|
G|----------------------------------------------14-|-1618------------------------------|
D|-------------------------------------14-16-17----|-----------------------------------|
A|-9--10--12-12-14-14-16-16---14-16-17-------------|-----------------------------------|
E|-------------------------------------------------|-----------------------------------|


E|-21----21-----------|-15--15----15--15--12-14----12-|----------------------------15-12-14----12------------------|
B|-------21---0---12--|-------------------------15----|-15-12----12-------------------------15----15-12----1512----|
G|--------------------|-------------------------------|-------14----14-14-12----12----------------------14-----1414|
D|--------------------|-------------------------------|----------------------14------------------------------------|
A|--------------------|-------------------------------|------------------------------------------------------------|
E|--------------------|-------------------------------|------------------------------------------------------------|


E|----------------------15-12-------17-12----------------14-15-19-19-19-|-19--19152015---15-12-15-12----------------12-----15----|
B|-------------12-15-12-------15-12-------15-12-18-15-17----------------|-------------17-------------13----------13----15-----15-|
G|-12----12-14----------------------------------------------------------|-------------------------------12-----------------------|
D|----14----------------------------------------------------------------|----------------------------------14-12-----------------|
A|----------------------------------------------------------------------|--------------------------------------------------------|
E|----------------------------------------------------------------------|--------------------------------------------------------|


E|---------------------------|-----------------------------------|-20---20--20--20---20--20--|
B|-15----15--17------19--20--|-20----20-19-19--19--19--19--17-17-|---------------------------|
G|---------------------------|-----------------------------------|---------------------------|
D|---------------------------|-----------------------------------|---------------------------|
A|---------------------------|-----------------------------------|---------------------------|
E|---------------------------|-----------------------------------|---------------------------|


E|-20---20-20----17--------17--------------------|---------------------------------|
B|------------17----17-20-----20-17--------------|---------------------------------|
G|----------------------------------19-19-17-----|---------------------------------|
D|-------------------------------------------19--|---------0---1-------0---1-------|
A|-----------------------------------------------|-----3-----------3-----------3---|
E|-----------------------------------------------|-4-------------------------------|


E|---------------------------------|---------------------------------|--------|--------|
B|---------------------------------|---------------------------------|--------|--------|
G|---------------------------------|---------------------------------|--------|--------|
D|---------0---1-------0---1-------|---------0---1-------0---1-------|--------|--------|
A|-----3-----------3-----------3---|-----3-----------3-----------3---|--------|--------|
E|-3-------------------------------|-2-------------------------------|--------|--------|


E|--------|--------|
B|--------|--------|
G|--------|--------|
D|--------|--------|
A|--------|--------|
E|--------|--------|





Track 5: Lead Guitar

E|--------|--------|--------|--------|--------|--------|--------|--------|--------|
B|--------|--------|--------|--------|--------|--------|--------|--------|--------|
G|--------|--------|--------|--------|--------|--------|--------|--------|--------|
D|--------|--------|--------|--------|--------|--------|--------|--------|--------|
A|--------|--------|--------|--------|--------|--------|--------|--------|--------|
E|--------|--------|--------|--------|--------|--------|--------|--------|--------|


E|--------|--------|--------|--------|--------|--------|--------|--------|--------|
B|--------|--------|--------|--------|--------|--------|--------|--------|--------|
G|--------|--------|--------|--------|--------|--------|--------|--------|--------|
D|--------|--------|--------|--------|--------|--------|--------|--------|--------|
A|--------|--------|--------|--------|--------|--------|--------|--------|--------|
E|--------|--------|--------|--------|--------|--------|--------|--------|--------|


E|--------|--------|--------|--------|--------|--------|--------|--------|--------|
B|--------|--------|--------|--------|--------|--------|--------|--------|--------|
G|--------|--------|--------|--------|--------|--------|--------|--------|--------|
D|--------|--------|--------|--------|--------|--------|--------|--------|--------|
A|--------|--------|--------|--------|--------|--------|--------|--------|--------|
E|--------|--------|--------|--------|--------|--------|--------|--------|--------|


E|--------|--------|--------|--------|--------|--------|-12----------|--------|-10----------|
B|--------|--------|--------|--------|--------|--------|-------12----|-12-----|-------10----|
G|--------|--------|--------|--------|--------|--------|-------------|--------|-------------|
D|--------|--------|--------|--------|--------|--------|-------------|--------|-------------|
A|--------|--------|--------|--------|--------|--------|-------------|--------|-------------|
E|--------|--------|--------|--------|--------|--------|-------------|--------|-------------|


E|--------|--------|--------|--------|--------|--------|--------|--------|--------|
B|-10-----|--------|--------|--------|--------|--------|--------|--------|--------|
G|--------|--------|--------|--------|--------|--------|--------|--------|--------|
D|--------|--------|--------|--------|--------|--------|--------|--------|--------|
A|--------|--------|--------|--------|--------|--------|--------|--------|--------|
E|--------|--------|--------|--------|--------|--------|--------|--------|--------|


E|--------|--------|--------|--------|--------|--------|--------|--------|----------------|
B|--------|--------|--------|--------|--------|--------|--------|--------|----------------|
G|--------|--------|--------|--------|--------|--------|--------|--------|-17-----17--17--|
D|--------|--------|--------|--------|--------|--------|--------|--------|----------------|
A|--------|--------|--------|--------|--------|--------|--------|--------|----------------|
E|--------|--------|--------|--------|--------|--------|--------|--------|----------------|


E|----------------|--------------------|--------|-----------------|--------|--------|
B|----------------|--------------------|--------|-----------------|--------|--------|
G|-16-----16--16--|-19----19--21---19--|-18-----|-17--------------|--------|--------|
D|----------------|--------------------|--------|-----------------|--------|--------|
A|----------------|--------------------|--------|-----------------|--------|--------|
E|----------------|--------------------|--------|-----------------|--------|--------|


E|--------|--------|--------|--------|--------|--------|--------|--------|--------|
B|--------|--------|--------|--------|--------|--------|--------|--------|--------|
G|--------|--------|--------|--------|--------|--------|--------|--------|--------|
D|--------|--------|--------|--------|--------|--------|--------|--------|--------|
A|--------|--------|--------|--------|--------|--------|--------|--------|--------|
E|--------|--------|--------|--------|--------|--------|--------|--------|--------|


E|--------|--------|--------|--------|--------|--------|--------|--------|--------|
B|--------|--------|--------|--------|--------|--------|--------|--------|--------|
G|--------|--------|--------|--------|--------|--------|--------|--------|--------|
D|--------|--------|--------|--------|--------|--------|--------|--------|--------|
A|--------|--------|--------|--------|--------|--------|--------|--------|--------|
E|--------|--------|--------|--------|--------|--------|--------|--------|--------|


E|--------|--------|--------|--------|--------|--------|--------|--------|--------|
B|--------|--------|--------|--------|--------|--------|--------|--------|--------|
G|--------|--------|--------|--------|--------|--------|--------|--------|--------|
D|--------|--------|--------|--------|--------|--------|--------|--------|--------|
A|--------|--------|--------|--------|--------|--------|--------|--------|--------|
E|--------|--------|--------|--------|--------|--------|--------|--------|--------|


E|--------|
B|--------|
G|--------|
D|--------|
A|--------|
E|--------|





Track 6: Rhythm Guitar

E|--------|--------|--------|--------|--------|--------|--------|--------|--------|
B|--------|--------|--------|--------|--------|--------|--------|--------|--------|
G|--------|--------|--------|--------|--------|--------|--------|--------|--------|
D|--------|--------|--------|--------|--------|--------|--------|--------|--------|
A|--------|--------|--------|--------|--------|--------|--------|--------|--------|
E|--------|--------|--------|--------|--------|--------|--------|--------|--------|


E|--------|--------|--------|--------|--------|--------|--------|--------|--------|
B|--------|--------|--------|--------|--------|--------|--------|--------|--------|
G|--------|--------|--------|--------|--------|--------|--------|--------|--------|
D|--------|--------|--------|--------|--------|--------|--------|--------|--------|
A|--------|--------|--------|--------|--------|--------|--------|--------|--------|
E|--------|--------|--------|--------|--------|--------|--------|--------|--------|


E|--------|--------|--------|--------|--------|--------|--------|--------|--------|
B|--------|--------|--------|--------|--------|--------|--------|--------|--------|
G|--------|--------|--------|--------|--------|--------|--------|--------|--------|
D|--------|--------|--------|--------|--------|--------|--------|--------|--------|
A|--------|--------|--------|--------|--------|--------|--------|--------|--------|
E|--------|--------|--------|--------|--------|--------|--------|--------|--------|


E|--------|--------|--------|--------|--------|--------|--------|--------|--------|
B|--------|--------|--------|--------|--------|--------|--------|--------|--------|
G|--------|--------|--------|--------|--------|--------|--------|--------|--------|
D|--------|--------|--------|--------|--------|--------|--------|--------|--------|
A|--------|--------|--------|--------|--------|--------|--------|--------|--------|
E|--------|--------|--------|--------|--------|--------|--------|--------|--------|


E|--------|--------|--------|--------|--------|--------|--------|--------|--------|
B|--------|--------|--------|--------|--------|--------|--------|--------|--------|
G|--------|--------|--------|--------|--------|--------|--------|--------|--------|
D|--------|--------|--------|--------|--------|--------|--------|--------|--------|
A|--------|--------|--------|--------|--------|--------|--------|--------|--------|
E|--------|--------|--------|--------|--------|--------|--------|--------|--------|


E|--------|--------|--------|--------|--------|--------|--------|--------|--------|
B|--------|--------|--------|--------|--------|--------|--------|--------|--------|
G|--------|--------|--------|--------|--------|--------|--------|--------|--------|
D|--------|--------|--------|--------|--------|--------|--------|--------|--------|
A|--------|--------|--------|--------|--------|--------|--------|--------|--------|
E|--------|--------|--------|--------|--------|--------|--------|--------|--------|


E|--------|--------|--------|--------|--------|--------|--------|--------|--------|
B|--------|--------|--------|--------|--------|--------|--------|--------|--------|
G|--------|--------|--------|--------|--------|--------|--------|--------|--------|
D|--------|--------|--------|--------|--------|--------|--------|--------|--------|
A|--------|--------|--------|--------|--------|--------|--------|--------|--------|
E|--------|--------|--------|--------|--------|--------|--------|--------|--------|


E|--------|--------|--------|--------|--------|--------|--------|--------|--------|
B|--------|--------|--------|--------|--------|--------|--------|--------|--------|
G|--------|--------|--------|--------|--------|--------|--------|--------|--------|
D|--------|--------|--------|--------|--------|--------|--------|--------|--------|
A|--------|--------|--------|--------|--------|--------|--------|--------|--------|
E|--------|--------|--------|--------|--------|--------|--------|--------|--------|


E|--------|--------|--------|--------|--------|--------|--------|--------|--------|
B|--------|--------|--------|--------|--------|--------|--------|--------|--------|
G|--------|--------|--------|--------|--------|--------|--------|--------|--------|
D|--------|--------|--------|--------|--------|--------|--------|--------|--------|
A|--------|--------|--------|--------|--------|--------|--------|--------|--------|
E|--------|--------|--------|--------|--------|--------|--------|--------|--------|


E|--------|--------|--------|---------------------------------|---------------------------------|
B|--------|--------|--------|---------------------------------|---------------------------------|
G|--------|--------|--------|---------------------------------|-----5---4-----------------------|
D|--------|--------|--------|---------------------------------|-------------6---5---3-----------|
A|--------|--------|--------|-3-----------2---5---2---6---3---|-5-----------------------6---5---|
E|--------|--------|--------|-1---4---3-----------------------|---------------------------------|


E|--------|--------------------|
B|--------|--------------------|
G|-5------|-5------------------|
D|-5------|-5------------------|
A|-3------|-3------------------|
E|-3------|-3------------------|





Track 7: Untitled

G|--------|--------|--------|--------|--------|--------|--------|--------|--------|
D|--------|--------|--------|--------|--------|--------|--------|--------|--------|
A|--------|--------|--------|--------|--------|--------|--------|--------|--------|
E|--------|--------|--------|--------|--------|--------|--------|--------|--------|


G|--------|--------|--------|--------|--------|--------|--------|--------|--------|
D|--------|--------|--------|--------|--------|--------|--------|--------|--------|
A|--------|--------|--------|--------|--------|--------|--------|--------|--------|
E|--------|--------|--------|--------|--------|--------|--------|--------|--------|


G|--------|--------|--------|--------|--------|--------|--------|--------|--------|
D|--------|--------|--------|--------|--------|--------|--------|--------|--------|
A|--------|--------|--------|--------|--------|--------|--------|--------|--------|
E|--------|--------|--------|--------|--------|--------|--------|--------|--------|


G|--------|--------|--------|--------|--------|--------|--------|--------|--------|
D|--------|--------|--------|--------|--------|--------|--------|--------|--------|
A|--------|--------|--------|--------|--------|--------|--------|--------|--------|
E|--------|--------|--------|--------|--------|--------|--------|--------|--------|


G|--------|--------|--------|--------|--------|--------|--------|--------|--------|
D|--------|--------|--------|--------|--------|--------|--------|--------|--------|
A|--------|--------|--------|--------|--------|--------|--------|--------|--------|
E|--------|--------|--------|--------|--------|--------|--------|--------|--------|


G|--------|--------|--------|--------|--------|--------|--------|--------|--------|
D|--------|--------|--------|--------|--------|--------|--------|--------|--------|
A|--------|--------|--------|--------|--------|--------|--------|--------|--------|
E|--------|--------|--------|--------|--------|--------|--------|--------|--------|


G|--------|--------|--------|--------|--------|--------|--------|--------|--------|
D|--------|--------|--------|--------|--------|--------|--------|--------|--------|
A|--------|--------|--------|--------|--------|--------|--------|--------|--------|
E|--------|--------|--------|--------|--------|--------|--------|--------|--------|


G|--------|--------|--------|--------|--------|--------|--------|--------|--------|
D|--------|--------|--------|--------|--------|--------|--------|--------|--------|
A|--------|--------|--------|--------|--------|--------|--------|--------|--------|
E|--------|--------|--------|--------|--------|--------|--------|--------|--------|


G|--------|--------|--------|--------|--------|--------|--------|--------|--------|
D|--------|--------|--------|--------|--------|--------|--------|--------|--------|
A|--------|--------|--------|--------|--------|--------|--------|--------|--------|
E|--------|--------|--------|--------|--------|--------|--------|--------|--------|


G|--------|--------|--------|--------|--------|--------|--------|
D|--------|--------|--------|--------|--------|--------|--------|
A|--------|--------|--------|--------|--------|--------|--------|
E|--------|--------|--------|--------|--------|--------|--------|