Menu:

 

Search:

 

megadeth - 99 ways to die:

 



Title: 99 Ways To Die
Artist: 
Album: Hidden Treasures
Author: Mustaine


Track 1: Mustaine

E|---------------------|------------------------|-----------------------------|---------------------------------|
B|---------------------|------------------------|-----------------------------|---------------------------------|
G|---------------------|------------------------|------------------------9----|---------------------------------|
D|-9---8-----9---8-----|-9---8-----9---8--------|-5----------------------9----|-------------5-------------------|
A|-9---8-----9---8-----|-9---8-----9---8--------|-5------------2--2--2---7----|-------------5---7-----------5---|
E|-7---6-----7---6-----|-7---6-----7---6----3---|-3----0---0---0--0--0--------|---------------------5---7-------|


E|--------------------------------|---------------------------------|-----------------------------|
B|--------------------------------|---------------------------------|-----------------------------|
G|---------------------------9----|-------------6---7-------14--12--|------------------------9----|
D|-----5---------------------9----|-------------5---6-------14--12--|------------------------9----|
A|-7---5-----------2--2--2---7----|---------------------------------|--------------2--2--2---7----|
E|---------0---0---0--0--0--------|---------------------0-----------|------0---0---0--0--0--------|


E|---------------------------------|--------------------------------|---------------------------------|
B|---------------------------------|--------------------------------|---------------------------------|
G|---------------------------------|---------------------------9----|-------------6---7-------14--12--|
D|---------------------------------|---------------------------9----|-------------5---6-------14--12--|
A|-------------7---5---------------|-10--8-----------2--2--2---7----|---------------------------------|
E|---------------------7---6---5---|---------0---0---0--0--0--------|---------------------0-----------|


E|-----------------------------|---------------------------------|--------------------------------|
B|-----------------------------|---------------------------------|--------------------------------|
G|------------------------9----|---------------------------------|---------------------------9----|
D|------------------------9----|-------------5-------------------|-----5---------------------9----|
A|--------------2--2--2---7----|-------------5---7-----------5---|-7---5-----------2--2--2---7----|
E|------0---0---0--0--0--------|---------------------5---7-------|---------0---0---0--0--0--------|


E|---------------------------------|-----------------------------|---------------------------------|
B|---------------------------------|-----------------------------|---------------------------------|
G|-------------6---7-------14--12--|------------------------9----|---------------------------------|
D|-------------5---6-------14--12--|------------------------9----|---------------------------------|
A|---------------------------------|--------------2--2--2---7----|-------------7---5---------------|
E|---------------------0-----------|------0---0---0--0--0--------|---------------------7---6---5---|


E|--------------------------------|---------------------------------|--------|--------|
B|--------------------------------|---------------------------------|--------|--------|
G|---------------------------9----|-------------6---7-------14--12--|--------|--------|
D|---------------------------9----|-------------5---6-------14--12--|--------|--------|
A|-10--8-----------2--2--2---7----|---------------------------------|--------|--------|
E|---------0---0---0--0--0--------|---------------------0-----------|--------|--------|


E|--------|--------|------------------|------------------------|----------------|--------|
B|--------|--------|------------------|------------------------|----------------|--------|
G|--------|--------|------------------|----------2-------------|----------------|--------|
D|--------|--------|------2-----4-----|-5----5---------5---4---|----------------|--------|
A|--------|--------|------------------|------------------------|-5---0----------|--------|
E|--------|--------|------------------|------------------------|----------------|--------|


E|--------------------------------|-----------------------|--------------------------------|
B|--------------------------------|-----------------------|--------------------------------|
G|------------------------9-------|-----------------------|------------------------9-------|
D|------------------------9-------|-9---8---8-----8-------|-3----------------------9-------|
A|--------------2--2--2---7-------|-9---8---8-----8-------|-3----------------------7-------|
E|------0---0---0--0--0-------0---|-7---6---6-----6---0---|-1----0---0---0--0--0-------0---|


E|------------------------------|--------------------------------|-----------------------|
B|------------------------------|--------------------------------|-----------------------|
G|------------------------------|------------------------9-------|-----------------------|
D|-9---8---8----9---8---8---8---|-3----------------------9-------|-9---8---8-----8-------|
A|-9---8---8----9---8---8---8---|-3------------2--2--2---7-------|-9---8---8-----8-------|
E|-7---6---6----7---6---6---6---|-1----0---0---0--0--0-------0---|-7---6---6-----6---0---|


E|--------------------------------|------------------------------|------------------|
B|--------------------------------|------------------------------|------7-----5-----|
G|------------------------9-------|------------------------------|------6-----4-----|
D|-3----------------------9-------|-9---8---8----9---8---8---8---|-3----4-----2-----|
A|-3----------------------7-------|-9---8---8----9---8---8---8---|-3----4-----2-----|
E|-1----0---0---0--0--0-------0---|-7---6---6----7---6---6---6---|-1----2-----0-----|


E|---------------------|-----------------------------|---------------------------------|
B|-10---10--8-----7----|-6---------------------------|---------------------------------|
G|-9----9---4-----6----|-5----------------------9----|---------------------------------|
D|-7----7---5-----4----|-3----------------------9----|-------------5-------------------|
A|-7----7---5-----4----|-3------------2--2--2---7----|-------------5---7-----------5---|
E|-5----5---3-----2----|-1----0---0---0--0--0--------|---------------------5---7-------|


E|--------------------------------|---------------------------------|-----------------------------|
B|--------------------------------|---------------------------------|-----------------------------|
G|---------------------------9----|-------------6---7-------14--12--|------------------------9----|
D|-----5---------------------9----|-------------5---6-------14--12--|------------------------9----|
A|-7---5-----------2--2--2---7----|---------------------------------|--------------2--2--2---7----|
E|---------0---0---0--0--0--------|---------------------0-----------|------0---0---0--0--0--------|


E|---------------------------------|--------------------------------|---------------------------------|
B|---------------------------------|--------------------------------|---------------------------------|
G|---------------------------------|---------------------------9----|-------------6---7-------14--12--|
D|---------------------------------|---------------------------9----|-------------5---6-------14--12--|
A|-------------7---5---------------|-10--8-----------2--2--2---7----|---------------------------------|
E|---------------------7---6---5---|---------0---0---0--0--0--------|---------------------0-----------|


E|-----------------------------|---------------------------------|--------------------------------|
B|-----------------------------|---------------------------------|--------------------------------|
G|------------------------9----|---------------------------------|---------------------------9----|
D|------------------------9----|-------------5-------------------|-----5---------------------9----|
A|--------------2--2--2---7----|-------------5---7-----------5---|-7---5-----------2--2--2---7----|
E|------0---0---0--0--0--------|---------------------5---7-------|---------0---0---0--0--0--------|


E|---------------------------------|-----------------------------|---------------------------------|
B|---------------------------------|-----------------------------|---------------------------------|
G|-------------6---7-------14--12--|------------------------9----|---------------------------------|
D|-------------5---6-------14--12--|------------------------9----|---------------------------------|
A|---------------------------------|--------------2--2--2---7----|-------------7---5---------------|
E|---------------------0-----------|------0---0---0--0--0--------|---------------------7---6---5---|


E|--------------------------------|---------------------------------|--------|--------|
B|--------------------------------|---------------------------------|--------|--------|
G|---------------------------9----|-------------6---7-------14--12--|--------|--------|
D|---------------------------9----|-------------5---6-------14--12--|--------|--------|
A|-10--8-----------2--2--2---7----|---------------------------------|--------|--------|
E|---------0---0---0--0--0--------|---------------------0-----------|--------|--------|


E|--------|--------|------------------|------------------------|----------------|--------|
B|--------|--------|------------------|------------------------|----------------|--------|
G|--------|--------|------------------|----------2-------------|----------------|--------|
D|--------|--------|------2-----4-----|-5----5---------5---4---|----------------|--------|
A|--------|--------|------------------|------------------------|-5---0----------|--------|
E|--------|--------|------------------|------------------------|----------------|--------|


E|--------------------------------|-----------------------|--------------------------------|
B|--------------------------------|-----------------------|--------------------------------|
G|------------------------9-------|-----------------------|------------------------9-------|
D|------------------------9-------|-9---8---8-----8-------|-3----------------------9-------|
A|--------------2--2--2---7-------|-9---8---8-----8-------|-3----------------------7-------|
E|------0---0---0--0--0-------0---|-7---6---6-----6---0---|-1----0---0---0--0--0-------0---|


E|------------------------------|--------------------------------|-----------------------|
B|------------------------------|--------------------------------|-----------------------|
G|------------------------------|------------------------9-------|-----------------------|
D|-9---8---8----9---8---8---8---|-3----------------------9-------|-9---8---8-----8-------|
A|-9---8---8----9---8---8---8---|-3------------2--2--2---7-------|-9---8---8-----8-------|
E|-7---6---6----7---6---6---6---|-1----0---0---0--0--0-------0---|-7---6---6-----6---0---|


E|--------------------------------|------------------------------|--------------------------------|
B|--------------------------------|------------------------------|--------------------------------|
G|------------------------9-------|------------------------------|------------------------9-------|
D|-3----------------------9-------|-9---8---8----9---8---8---8---|-3----------------------9-------|
A|-3----------------------7-------|-9---8---8----9---8---8---8---|-3------------2--2--2---7-------|
E|-1----0---0---0--0--0-------0---|-7---6---6----7---6---6---6---|-1----0---0---0--0--0-------0---|


E|-----------------------|--------------------------------|------------------------------|
B|-----------------------|--------------------------------|------------------------------|
G|-----------------------|------------------------9-------|------------------------------|
D|-9---8---8-----8-------|-3----------------------9-------|-9---8---8----9---8---8---8---|
A|-9---8---8-----8-------|-3----------------------7-------|-9---8---8----9---8---8---8---|
E|-7---6---6-----6---0---|-1----0---0---0--0--0-------0---|-7---6---6----7---6---6---6---|


E|------------------|---------------------|---------------------|-3----3------------------------|
B|------7-----5-----|-10---10--8-----7----|-6----7--------------|-3----3------------------------|
G|------6-----4-----|-9----9---4-----6----|-5----6--------------|----------4-------6---7----6---|
D|-3----4-----2-----|-7----7---5-----4----|-3----4-----2----4---|-5----5---2-------4---5----4---|
A|-3----4-----2-----|-7----7---5-----4----|-3----4--------------|-5----5---2-------4---5----4---|
E|-1----2-----0-----|-5----5---3-----2----|-1----2-----0----2---|-3----3---0-------2---3----2---|


E|-------------------------|-3----3---------------------|-------------------------------|
B|----------7--------------|-3----3------------10---9---|-----7-------------------------|
G|-----4----6--------------|----------4----6---7----6---|-----4-------------------------|
D|-----2----4-----2----4---|-5----5---2----4---7----6---|-----4-------------------------|
A|-----2----4--------------|-5----5---2----4---5----4---|-----2------------4-------4----|
E|-----0----2-----0----2---|-3----3---0----2------------|----------2---2---2---2---2----|


E|------------------------------|------------------------------|------------------------------|
B|------------------------------|------------------------------|------------------------------|
G|------------------------------|------------------------------|------------------------------|
D|---------------------7----8---|-7---5------------------------|---------------------7----8---|
A|-----4---4-----------7----8---|-7---5-----------4-------4----|-----4---4-----------7----8---|
E|-2---2---2---2---2---5----6---|-5---3---2---2---2---2---2----|-2---2---2---2---2---5----6---|


E|------------------------------|------------------------------|------------------------------|
B|------------------------------|------------------------------|------------------------------|
G|------------------------------|------------------------------|------------------------------|
D|-7---5------------------------|---------------------7----8---|-7---5------------------------|
A|-7---5-----------4-------4----|-----4---4-----------7----8---|-7---5-----------4-------4----|
E|-5---3---2---2---2---2---2----|-2---2---2---2---2---5----6---|-5---3---2---2---2---2---2----|


E|------------------------------|---------------------------------|---------------------------------|
B|------------------------------|---------------------------------|---------------------------------|
G|------------------------------|---------------------------------|---------------------------------|
D|---------------------7----8---|-7---5-------------------5---5---|-----5---5-----------5---5-------|
A|-----4---4-----------7----8---|-7---5---5-------5-------5---5---|-----5---5---5---5---5---5-------|
E|-2---2---2---2---2---5----6---|-5---3---3---3---3---3---3---3---|-3---3---3---3---3---3---3---0---|


E|---------------------------------|---------------------------------|---------------------------------|
B|---------------------------------|---------------------------------|---------------------------------|
G|---------------------------------|---------------------------------|---------------------------------|
D|-------------------------5---5---|-----5---5-----------5---5-------|---------5---5---5---5---5---5---|
A|-3---4---5-------5-------5---5---|-----5---5---5---5---5---5-------|-3---4---5---5---5---5---5---5---|
E|-1---2---3---3---3---3---3---3---|-3---3---3---3---3---3---3---0---|-1---2---3---3---3---3---3---3---|


E|---------------------------------|---------------------------------|---------------------------------|
B|---------------------------------|---------------------------------|---------------------------------|
G|---------------------------------|---------------------------------|---------------------------------|
D|-5---5---5---5---5---5---5-------|---------2---2---2---2---2---2---|-2---3---3---3---3---3---3---2---|
A|-5---5---5---5---5---5---5-------|-3---4---0---0---0---0---0---0---|-0---1---1---1---1---1---1---0---|
E|-3---3---3---3---3---3---3---0---|-1---2---------------------------|---------------------------------|


E|---------------------------------|----------------|---------------------------|------------------------|
B|---------------------------------|----------------|---------------------------|------------------------|
G|---------------------------------|----------------|---------------------------|---------------7----8---|
D|-----------------2---------------|-2--------------|--------------2------------|-----2---------5----6---|
A|-5---3---2---2---2-------2---2---|-2--------------|------2---2---2--------2---|-2---2---------5----6---|
E|-3---1---0---0---0-------0---0---|-0--------------|------0---0---0--------0---|-0---0---------3----4---|


E|------------------------------|------------------------|---------------------------|
B|------------------------------|------------------------|---------------------------|
G|-7---5------------------------|---------------7----8---|-7---5------------7----8---|
D|-5---3-----------2------------|-----2---------5----6---|-5---3---2--------5----6---|
A|-5---3---2---2---2--------2---|-2---2---------5----6---|-5---3---2--------5----6---|
E|-3---1---0---0---0--------0---|-0---0---------3----4---|-3---1---0--------3----4---|


E|---------------------------|--------------------------------|---------------------------------|
B|---------------------------|--------------------------------|---------------------------------|
G|-7---5---4--------4--------|-4-------------------------9----|---------------------------------|
D|-5---3---2--------2--------|-2-------------------------9----|-------------5-------------------|
A|-5---3---2--------2--------|-2---------------2--2--2---7----|-------------5---7-----------5---|
E|-3---1---0--------0--------|-0-------0---0---0--0--0--------|---------------------5---7-------|


E|--------------------------------|---------------------------------|-----------------------------|
B|--------------------------------|---------------------------------|-----------------------------|
G|---------------------------9----|-------------6---7-------14--12--|------------------------9----|
D|-----5---------------------9----|-------------5---6-------14--12--|------------------------9----|
A|-7---5-----------2--2--2---7----|---------------------------------|--------------2--2--2---7----|
E|---------0---0---0--0--0--------|---------------------0-----------|------0---0---0--0--0--------|


E|---------------------------------|--------------------------------|---------------------------------|
B|---------------------------------|--------------------------------|---------------------------------|
G|---------------------------------|---------------------------9----|-------------6---7-------14--12--|
D|---------------------------------|---------------------------9----|-------------5---6-------14--12--|
A|-------------7---5---------------|-10--8-----------2--2--2---7----|---------------------------------|
E|---------------------7---6---5---|---------0---0---0--0--0--------|---------------------0-----------|


E|-----------------------------|---------------------------------|--------------------------------|
B|-----------------------------|---------------------------------|--------------------------------|
G|------------------------9----|---------------------------------|---------------------------9----|
D|------------------------9----|-------------5-------------------|-----5---------------------9----|
A|--------------2--2--2---7----|-------------5---7-----------5---|-7---5-----------2--2--2---7----|
E|------0---0---0--0--0--------|---------------------5---7-------|---------0---0---0--0--0--------|


E|---------------------------------|-----------------------------|---------------------------------|
B|---------------------------------|-----------------------------|---------------------------------|
G|-------------6---7-------14--12--|------------------------9----|---------------------------------|
D|-------------5---6-------14--12--|------------------------9----|---------------------------------|
A|---------------------------------|--------------2--2--2---7----|-------------7---5---------------|
E|---------------------0-----------|------0---0---0--0--0--------|---------------------7---6---5---|


E|--------------------------------|---------------------------------|--------|--------|
B|--------------------------------|---------------------------------|--------|--------|
G|---------------------------9----|-------------6---7-------14--12--|--------|--------|
D|---------------------------9----|-------------5---6-------14--12--|--------|--------|
A|-10--8-----------2--2--2---7----|---------------------------------|--------|--------|
E|---------0---0---0--0--0--------|---------------------0-----------|--------|--------|


E|--------|--------|------------------|------------------------|----------------|--------|
B|--------|--------|------------------|------------------------|----------------|--------|
G|--------|--------|------------------|----------2-------------|----------------|--------|
D|--------|--------|------2-----4-----|-5----5---------5---4---|----------------|--------|
A|--------|--------|------------------|------------------------|-5---0----------|--------|
E|--------|--------|------------------|------------------------|----------------|--------|


E|---------------------------|-----------------------|--------------------------------|
B|------10--8---10--11--12---|-----------12----------|--------------------------------|
G|------5---4---5---3---4----|-----------4-----------|-----------9--------------------|
D|------7---5---7---8---9----|-----------9-----------|-----------9-------9---8---8----|
A|---------------------------|-----------------------|-----------7-------9---8---8----|
E|---------------------------|---------------0---0---|-0--0--0-------0---7---6---6----|


E|---------------------------|--------------------------------|------------------------------|
B|---------------------------|--------------------------------|------------------------------|
G|---------------------------|-----------9--------------------|------------------------------|
D|------8-------3------------|-----------9-------9---8---8----|-9---8---8---8---3------------|
A|------8-------3------------|-----------7-------9---8---8----|-9---8---8---8---3------------|
E|------6---0---1----0---0---|-0--0--0-------0---7---6---6----|-7---6---6---6---1----0---0---|


E|--------------------------------|---------------------------|--------------------------------|
B|--------------------------------|---------------------------|--------------------------------|
G|-----------9--------------------|---------------------------|-----------9--------------------|
D|-----------9-------9---8---8----|------8-------3------------|-----------9-------9---8---8----|
A|-----------7-------9---8---8----|------8-------3------------|-----------7-------9---8---8----|
E|-0--0--0-------0---7---6---6----|------6---0---1----0---0---|-0--0--0-------0---7---6---6----|


E|------------------------------|--------------------------------|---------------------------|
B|------------------------------|--------------------------------|---------------------------|
G|------------------------------|-----------9--------------------|---------------------------|
D|-9---8---8---8---3------------|-----------9-------9---8---8----|------8-------3------------|
A|-9---8---8---8---3------------|-----------7-------9---8---8----|------8-------3------------|
E|-7---6---6---6---1----0---0---|-0--0--0-------0---7---6---6----|------6---0---1----0---0---|


E|--------------------------------|------------------------------|--------------------------------|
B|--------------------------------|------------------------------|--------------------------------|
G|-----------9--------------------|------------------------------|-----------9--------------------|
D|-----------9-------9---8---8----|-9---8---8---8---3------------|-----------9-------9---8---8----|
A|-----------7-------9---8---8----|-9---8---8---8---3------------|-----------7-------9---8---8----|
E|-0--0--0-------0---7---6---6----|-7---6---6---6---1----0---0---|-0--0--0-------0---7---6---6----|


E|---------------------------|--------------------------------|------------------------------|
B|---------------------------|--------------------------------|------------------------------|
G|---------------------------|-----------9--------------------|------------------------------|
D|------8-------3------------|-----------9-------9---8---8----|-9---8---8---8---3------------|
A|------8-------3------------|-----------7-------9---8---8----|-9---8---8---8---3------------|
E|------6---0---1----0---0---|-0--0--0-------0---7---6---6----|-7---6---6---6---1----0---0---|


E|--------------------------------|---------------------------|--------------------------------|
B|--------------------------------|---------------------------|--------------------------------|
G|-----------9--------------------|---------------------------|-----------9--------------------|
D|-----------9-------9---8---8----|-9---8---8----3------------|-----------9-------9---8---8----|
A|-----------7-------9---8---8----|-9---8---8----3------------|-----------7-------9---8---8----|
E|-0--0--0-------0---7---6---6----|-7---6---6----1----0---0---|-0--0--0-------0---7---6---6----|


E|---------------------------|--------------------------------|---------------------------|
B|---------------------------|--------------------------------|---------------------------|
G|---------------------------|-----------9--------------------|---------------------------|
D|-9---8---8----3------------|-----------9-------9---8---8----|-9---8---8----3------------|
A|-9---8---8----3------------|-----------7-------9---8---8----|-9---8---8----3------------|
E|-7---6---6----1----0---0---|-0--0--0-------0---7---6---6----|-7---6---6----1----0---0---|


E|--------------------------------|---------------------------|---------------------------|
B|--------------------------------|---------------------------|---------------------------|
G|-----------9--------------------|---------------------------|---------------------------|
D|-----------9-------9---8---8----|-9---8---8----9---8---8----|-9---8---8----9---2--------|
A|-----------7-------9---8---8----|-9---8---8----9---8---8----|-9---8---8----9---2--------|
E|-0--0--0-------0---7---6---6----|-7---6---6----7---6---6----|-7---6---6----7---0--------|





Track 2: Nylon 1

E|--------|--------|--------|--------|--------|--------|--------|--------|--------|
B|--------|--------|--------|--------|--------|--------|--------|--------|--------|
G|--------|--------|--------|--------|--------|--------|--------|--------|--------|
D|--------|--------|--------|--------|--------|--------|--------|--------|--------|
A|--------|--------|--------|--------|--------|--------|--------|--------|--------|
E|--------|--------|--------|--------|--------|--------|--------|--------|--------|


E|--------|--------|--------|--------|--------|--------|--------|--------|--------|
B|--------|--------|--------|--------|--------|--------|--------|--------|--------|
G|--------|--------|--------|--------|--------|--------|--------|--------|--------|
D|--------|--------|--------|--------|--------|--------|--------|--------|--------|
A|--------|--------|--------|--------|--------|--------|--------|--------|--------|
E|--------|--------|--------|--------|--------|--------|--------|--------|--------|


E|------------------------------|------------------------------|------------------------------|
B|--------------0-----------0---|---------0-----------0---0----|--------------0-----------0---|
G|----------0-----------0-------|-----0-----------0------------|----------0-----------0-------|
D|------2-----------4-----------|-5-----------7----------------|------2-----------4-----------|
A|------------------------------|------------------------------|------------------------------|
E|------------------------------|------------------------------|------------------------------|


E|------------------------------|------------------------------|------------------------------|
B|---------0-----------0---0----|--------------0-----------0---|---------0-----------0---0----|
G|-----0-----------0------------|----------0-----------0-------|-----0-----------0------------|
D|-5-----------7----------------|------2-----------4-----------|-5-----------7----------------|
A|------------------------------|------------------------------|------------------------------|
E|------------------------------|------------------------------|------------------------------|


E|--------|--------|--------|--------|--------|--------|--------|--------|--------|
B|--------|--------|--------|--------|--------|--------|--------|--------|--------|
G|--------|--------|--------|--------|--------|--------|--------|--------|--------|
D|--------|--------|--------|--------|--------|--------|--------|--------|--------|
A|--------|--------|--------|--------|--------|--------|--------|--------|--------|
E|--------|--------|--------|--------|--------|--------|--------|--------|--------|


E|--------|--------|--------|--------|--------|--------|--------|--------|--------|
B|--------|--------|--------|--------|--------|--------|--------|--------|--------|
G|--------|--------|--------|--------|--------|--------|--------|--------|--------|
D|--------|--------|--------|--------|--------|--------|--------|--------|--------|
A|--------|--------|--------|--------|--------|--------|--------|--------|--------|
E|--------|--------|--------|--------|--------|--------|--------|--------|--------|


E|--------|--------|--------|--------|--------|--------|--------|--------|--------|
B|--------|--------|--------|--------|--------|--------|--------|--------|--------|
G|--------|--------|--------|--------|--------|--------|--------|--------|--------|
D|--------|--------|--------|--------|--------|--------|--------|--------|--------|
A|--------|--------|--------|--------|--------|--------|--------|--------|--------|
E|--------|--------|--------|--------|--------|--------|--------|--------|--------|


E|--------|------------------------------|------------------------------|------------------------------|
B|--------|--------------0-----------0---|---------0-----------0---0----|--------------0-----------0---|
G|--------|----------0-----------0-------|-----0-----------0------------|----------0-----------0-------|
D|--------|------2-----------4-----------|-5-----------7----------------|------2-----------4-----------|
A|--------|------------------------------|------------------------------|------------------------------|
E|--------|------------------------------|------------------------------|------------------------------|


E|------------------------------|------------------------------|------------------------------|
B|---------0-----------0---0----|--------------0-----------0---|---------0-----------0---0----|
G|-----0-----------0------------|----------0-----------0-------|-----0-----------0------------|
D|-5-----------7----------------|------2-----------4-----------|-5-----------7----------------|
A|------------------------------|------------------------------|------------------------------|
E|------------------------------|------------------------------|------------------------------|


E|--------|--------|--------|--------|--------|--------|--------|--------|--------|
B|--------|--------|--------|--------|--------|--------|--------|--------|--------|
G|--------|--------|--------|--------|--------|--------|--------|--------|--------|
D|--------|--------|--------|--------|--------|--------|--------|--------|--------|
A|--------|--------|--------|--------|--------|--------|--------|--------|--------|
E|--------|--------|--------|--------|--------|--------|--------|--------|--------|


E|--------|--------|--------|--------|--------|--------|--------|--------|--------|
B|--------|--------|--------|--------|--------|--------|--------|--------|--------|
G|--------|--------|--------|--------|--------|--------|--------|--------|--------|
D|--------|--------|--------|--------|--------|--------|--------|--------|--------|
A|--------|--------|--------|--------|--------|--------|--------|--------|--------|
E|--------|--------|--------|--------|--------|--------|--------|--------|--------|


E|--------|--------|--------|--------|--------|--------|--------|--------|--------|
B|--------|--------|--------|--------|--------|--------|--------|--------|--------|
G|--------|--------|--------|--------|--------|--------|--------|--------|--------|
D|--------|--------|--------|--------|--------|--------|--------|--------|--------|
A|--------|--------|--------|--------|--------|--------|--------|--------|--------|
E|--------|--------|--------|--------|--------|--------|--------|--------|--------|


E|--------|--------|--------|--------|--------|--------|--------|--------|--------|
B|--------|--------|--------|--------|--------|--------|--------|--------|--------|
G|--------|--------|--------|--------|--------|--------|--------|--------|--------|
D|--------|--------|--------|--------|--------|--------|--------|--------|--------|
A|--------|--------|--------|--------|--------|--------|--------|--------|--------|
E|--------|--------|--------|--------|--------|--------|--------|--------|--------|


E|--------|--------|--------|--------|--------|--------|--------|--------|--------|
B|--------|--------|--------|--------|--------|--------|--------|--------|--------|
G|--------|--------|--------|--------|--------|--------|--------|--------|--------|
D|--------|--------|--------|--------|--------|--------|--------|--------|--------|
A|--------|--------|--------|--------|--------|--------|--------|--------|--------|
E|--------|--------|--------|--------|--------|--------|--------|--------|--------|


E|--------|--------|--------|--------|--------|--------|--------|--------|--------|
B|--------|--------|--------|--------|--------|--------|--------|--------|--------|
G|--------|--------|--------|--------|--------|--------|--------|--------|--------|
D|--------|--------|--------|--------|--------|--------|--------|--------|--------|
A|--------|--------|--------|--------|--------|--------|--------|--------|--------|
E|--------|--------|--------|--------|--------|--------|--------|--------|--------|


E|--------|--------|--------|--------|--------|--------|------------------------------|
B|--------|--------|--------|--------|--------|--------|--------------0-----------0---|
G|--------|--------|--------|--------|--------|--------|----------0-----------0-------|
D|--------|--------|--------|--------|--------|--------|------2-----------4-----------|
A|--------|--------|--------|--------|--------|--------|------------------------------|
E|--------|--------|--------|--------|--------|--------|------------------------------|


E|------------------------------|------------------------------|------------------------------|
B|---------0-----------0---0----|--------------0-----------0---|---------0-----------0---0----|
G|-----0-----------0------------|----------0-----------0-------|-----0-----------0------------|
D|-5-----------7----------------|------2-----------4-----------|-5-----------7----------------|
A|------------------------------|------------------------------|------------------------------|
E|------------------------------|------------------------------|------------------------------|


E|------------------------------|------------------------------|--------|--------|
B|--------------0-----------0---|---------0-----------0---0----|--------|--------|
G|----------0-----------0-------|-----0-----------0------------|--------|--------|
D|------2-----------4-----------|-5-----------7----------------|--------|--------|
A|------------------------------|------------------------------|--------|--------|
E|------------------------------|------------------------------|--------|--------|


E|--------|--------|--------|--------|--------|--------|--------|--------|--------|
B|--------|--------|--------|--------|--------|--------|--------|--------|--------|
G|--------|--------|--------|--------|--------|--------|--------|--------|--------|
D|--------|--------|--------|--------|--------|--------|--------|--------|--------|
A|--------|--------|--------|--------|--------|--------|--------|--------|--------|
E|--------|--------|--------|--------|--------|--------|--------|--------|--------|


E|--------|--------|--------|--------|--------|--------|--------|--------|--------|
B|--------|--------|--------|--------|--------|--------|--------|--------|--------|
G|--------|--------|--------|--------|--------|--------|--------|--------|--------|
D|--------|--------|--------|--------|--------|--------|--------|--------|--------|
A|--------|--------|--------|--------|--------|--------|--------|--------|--------|
E|--------|--------|--------|--------|--------|--------|--------|--------|--------|


E|--------|--------|--------|--------|--------|--------|--------|--------|--------|
B|--------|--------|--------|--------|--------|--------|--------|--------|--------|
G|--------|--------|--------|--------|--------|--------|--------|--------|--------|
D|--------|--------|--------|--------|--------|--------|--------|--------|--------|
A|--------|--------|--------|--------|--------|--------|--------|--------|--------|
E|--------|--------|--------|--------|--------|--------|--------|--------|--------|





Track 3: Nylon 2

E|--------|--------|--------|--------|--------|--------|--------|--------|--------|
B|--------|--------|--------|--------|--------|--------|--------|--------|--------|
G|--------|--------|--------|--------|--------|--------|--------|--------|--------|
D|--------|--------|--------|--------|--------|--------|--------|--------|--------|
A|--------|--------|--------|--------|--------|--------|--------|--------|--------|
E|--------|--------|--------|--------|--------|--------|--------|--------|--------|


E|--------|--------|--------|--------|--------|--------|--------|--------|--------|
B|--------|--------|--------|--------|--------|--------|--------|--------|--------|
G|--------|--------|--------|--------|--------|--------|--------|--------|--------|
D|--------|--------|--------|--------|--------|--------|--------|--------|--------|
A|--------|--------|--------|--------|--------|--------|--------|--------|--------|
E|--------|--------|--------|--------|--------|--------|--------|--------|--------|


E|-------------|------------------------------|--------------------|-------------|
B|-------------|----------7---8-------7---8---|--------------------|-------------|
G|-------------|------------------------------|-9---7---9----------|-------------|
D|-------------|------------------------------|--------------------|-------------|
A|-------------|------------------------------|--------------------|-------------|
E|-------------|------------------------------|--------------------|-------------|


E|--------|--------|--------|--------|--------|--------|--------|--------|--------|
B|--------|--------|--------|--------|--------|--------|--------|--------|--------|
G|--------|--------|--------|--------|--------|--------|--------|--------|--------|
D|--------|--------|--------|--------|--------|--------|--------|--------|--------|
A|--------|--------|--------|--------|--------|--------|--------|--------|--------|
E|--------|--------|--------|--------|--------|--------|--------|--------|--------|


E|--------|--------|--------|--------|--------|--------|--------|--------|--------|
B|--------|--------|--------|--------|--------|--------|--------|--------|--------|
G|--------|--------|--------|--------|--------|--------|--------|--------|--------|
D|--------|--------|--------|--------|--------|--------|--------|--------|--------|
A|--------|--------|--------|--------|--------|--------|--------|--------|--------|
E|--------|--------|--------|--------|--------|--------|--------|--------|--------|


E|--------|--------|--------|--------|--------|--------|--------|--------|--------|
B|--------|--------|--------|--------|--------|--------|--------|--------|--------|
G|--------|--------|--------|--------|--------|--------|--------|--------|--------|
D|--------|--------|--------|--------|--------|--------|--------|--------|--------|
A|--------|--------|--------|--------|--------|--------|--------|--------|--------|
E|--------|--------|--------|--------|--------|--------|--------|--------|--------|


E|--------|--------|--------|-------------|----------5---7---8-------7---|-5---7---7-----3---3----|
B|--------|--------|--------|-------------|----------7---8---10------8---|-7---8---8-----5---5----|
G|--------|--------|--------|-------------|------------------------------|------------------------|
D|--------|--------|--------|-------------|------------------------------|------------------------|
A|--------|--------|--------|-------------|------------------------------|------------------------|
E|--------|--------|--------|-------------|------------------------------|------------------------|


E|------3------|--------|--------|--------|--------|--------|--------|--------|--------|
B|------5------|--------|--------|--------|--------|--------|--------|--------|--------|
G|-------------|--------|--------|--------|--------|--------|--------|--------|--------|
D|-------------|--------|--------|--------|--------|--------|--------|--------|--------|
A|-------------|--------|--------|--------|--------|--------|--------|--------|--------|
E|-------------|--------|--------|--------|--------|--------|--------|--------|--------|


E|--------|--------|--------|--------|--------|--------|--------|--------|--------|
B|--------|--------|--------|--------|--------|--------|--------|--------|--------|
G|--------|--------|--------|--------|--------|--------|--------|--------|--------|
D|--------|--------|--------|--------|--------|--------|--------|--------|--------|
A|--------|--------|--------|--------|--------|--------|--------|--------|--------|
E|--------|--------|--------|--------|--------|--------|--------|--------|--------|


E|--------|--------|--------|--------|--------|--------|--------|--------|--------|
B|--------|--------|--------|--------|--------|--------|--------|--------|--------|
G|--------|--------|--------|--------|--------|--------|--------|--------|--------|
D|--------|--------|--------|--------|--------|--------|--------|--------|--------|
A|--------|--------|--------|--------|--------|--------|--------|--------|--------|
E|--------|--------|--------|--------|--------|--------|--------|--------|--------|


E|--------|--------|--------|--------|--------|--------|--------|--------|--------|
B|--------|--------|--------|--------|--------|--------|--------|--------|--------|
G|--------|--------|--------|--------|--------|--------|--------|--------|--------|
D|--------|--------|--------|--------|--------|--------|--------|--------|--------|
A|--------|--------|--------|--------|--------|--------|--------|--------|--------|
E|--------|--------|--------|--------|--------|--------|--------|--------|--------|


E|--------|--------|--------|--------|--------|--------|--------|--------|--------|
B|--------|--------|--------|--------|--------|--------|--------|--------|--------|
G|--------|--------|--------|--------|--------|--------|--------|--------|--------|
D|--------|--------|--------|--------|--------|--------|--------|--------|--------|
A|--------|--------|--------|--------|--------|--------|--------|--------|--------|
E|--------|--------|--------|--------|--------|--------|--------|--------|--------|


E|--------|--------|--------|--------|--------|--------|--------|--------|--------|
B|--------|--------|--------|--------|--------|--------|--------|--------|--------|
G|--------|--------|--------|--------|--------|--------|--------|--------|--------|
D|--------|--------|--------|--------|--------|--------|--------|--------|--------|
A|--------|--------|--------|--------|--------|--------|--------|--------|--------|
E|--------|--------|--------|--------|--------|--------|--------|--------|--------|


E|--------|--------|--------|--------|--------|--------|--------|--------|--------|
B|--------|--------|--------|--------|--------|--------|--------|--------|--------|
G|--------|--------|--------|--------|--------|--------|--------|--------|--------|
D|--------|--------|--------|--------|--------|--------|--------|--------|--------|
A|--------|--------|--------|--------|--------|--------|--------|--------|--------|
E|--------|--------|--------|--------|--------|--------|--------|--------|--------|


E|--------|--------|--------|--------|--------|--------|--------|--------|--------|
B|--------|--------|--------|--------|--------|--------|--------|--------|--------|
G|--------|--------|--------|--------|--------|--------|--------|--------|--------|
D|--------|--------|--------|--------|--------|--------|--------|--------|--------|
A|--------|--------|--------|--------|--------|--------|--------|--------|--------|
E|--------|--------|--------|--------|--------|--------|--------|--------|--------|


E|--------|--------|--------|--------|--------|--------|--------|--------|--------|
B|--------|--------|--------|--------|--------|--------|--------|--------|--------|
G|--------|--------|--------|--------|--------|--------|--------|--------|--------|
D|--------|--------|--------|--------|--------|--------|--------|--------|--------|
A|--------|--------|--------|--------|--------|--------|--------|--------|--------|
E|--------|--------|--------|--------|--------|--------|--------|--------|--------|


E|--------|--------|--------|--------|--------|--------|--------|--------|--------|
B|--------|--------|--------|--------|--------|--------|--------|--------|--------|
G|--------|--------|--------|--------|--------|--------|--------|--------|--------|
D|--------|--------|--------|--------|--------|--------|--------|--------|--------|
A|--------|--------|--------|--------|--------|--------|--------|--------|--------|
E|--------|--------|--------|--------|--------|--------|--------|--------|--------|


E|--------|--------|--------|--------|--------|--------|--------|--------|
B|--------|--------|--------|--------|--------|--------|--------|--------|
G|--------|--------|--------|--------|--------|--------|--------|--------|
D|--------|--------|--------|--------|--------|--------|--------|--------|
A|--------|--------|--------|--------|--------|--------|--------|--------|
E|--------|--------|--------|--------|--------|--------|--------|--------|





Track 4: Friedman

E|--------|--------|--------|--------|--------|--------|--------|--------|--------|
B|--------|--------|--------|--------|--------|--------|--------|--------|--------|
G|--------|--------|--------|--------|--------|--------|--------|--------|--------|
D|--------|--------|--------|--------|--------|--------|--------|--------|--------|
A|--------|--------|--------|--------|--------|--------|--------|--------|--------|
E|--------|--------|--------|--------|--------|--------|--------|--------|--------|


E|--------|--------|--------|--------|--------|--------|--------|--------|--------|
B|--------|--------|--------|--------|--------|--------|--------|--------|--------|
G|--------|--------|--------|--------|--------|--------|--------|--------|--------|
D|--------|--------|--------|--------|--------|--------|--------|--------|--------|
A|--------|--------|--------|--------|--------|--------|--------|--------|--------|
E|--------|--------|--------|--------|--------|--------|--------|--------|--------|


E|------------------|----------5-------------|---------------------|----------5-------------|
B|------5-----7-----|-8----8---------8---7---|---------5-----7-----|-8----8---------8---7---|
G|------------------|------------------------|-7---4---------------|------------------------|
D|------------------|------------------------|---------------------|------------------------|
A|------------------|------------------------|---------------------|------------------------|
E|------------------|------------------------|---------------------|------------------------|


E|---------------------|----------5-------------|----------------|--------|--------|
B|---------5-----7-----|-8----8---------8---7---|----------------|--------|--------|
G|-7---4---------------|------------------------|-7---2----------|--------|--------|
D|---------------------|------------------------|----------------|--------|--------|
A|---------------------|------------------------|----------------|--------|--------|
E|---------------------|------------------------|----------------|--------|--------|


E|--------|--------|--------|--------|--------|--------|--------|--------|--------|
B|--------|--------|--------|--------|--------|--------|--------|--------|--------|
G|--------|--------|--------|--------|--------|--------|--------|--------|--------|
D|--------|--------|--------|--------|--------|--------|--------|--------|--------|
A|--------|--------|--------|--------|--------|--------|--------|--------|--------|
E|--------|--------|--------|--------|--------|--------|--------|--------|--------|


E|--------|--------|--------|--------|--------|--------|--------|--------|--------|
B|--------|--------|--------|--------|--------|--------|--------|--------|--------|
G|--------|--------|--------|--------|--------|--------|--------|--------|--------|
D|--------|--------|--------|--------|--------|--------|--------|--------|--------|
A|--------|--------|--------|--------|--------|--------|--------|--------|--------|
E|--------|--------|--------|--------|--------|--------|--------|--------|--------|


E|--------|--------|--------|--------|--------|--------|--------|------------------|
B|--------|--------|--------|--------|--------|--------|--------|------5-----7-----|
G|--------|--------|--------|--------|--------|--------|--------|------------------|
D|--------|--------|--------|--------|--------|--------|--------|------------------|
A|--------|--------|--------|--------|--------|--------|--------|------------------|
E|--------|--------|--------|--------|--------|--------|--------|------------------|


E|----------5-------------|---------------------|----------5-------------|---------------------|
B|-8----8---------8---7---|---------5-----7-----|-8----8---------8---7---|---------5-----7-----|
G|------------------------|-7---4---------------|------------------------|-7---4---------------|
D|------------------------|---------------------|------------------------|---------------------|
A|------------------------|---------------------|------------------------|---------------------|
E|------------------------|---------------------|------------------------|---------------------|


E|----------5-------------|----------------|--------|--------|--------|--------|--------|
B|-8----8---------8---7---|----------------|--------|--------|--------|--------|--------|
G|------------------------|-7---2----------|--------|--------|--------|--------|--------|
D|------------------------|----------------|--------|--------|--------|--------|--------|
A|------------------------|----------------|--------|--------|--------|--------|--------|
E|------------------------|----------------|--------|--------|--------|--------|--------|


E|--------|--------|--------|--------|--------|--------|--------|--------|--------|
B|--------|--------|--------|--------|--------|--------|--------|--------|--------|
G|--------|--------|--------|--------|--------|--------|--------|--------|--------|
D|--------|--------|--------|--------|--------|--------|--------|--------|--------|
A|--------|--------|--------|--------|--------|--------|--------|--------|--------|
E|--------|--------|--------|--------|--------|--------|--------|--------|--------|


E|--------|--------|--------|---------------------|-3----3---------------------|-----------------|
B|--------|--------|--------|------7--------------|-3----3------------10---9---|-----7-----------|
G|--------|--------|--------|------6--------------|----------4----6---7----6---|-----4-----------|
D|--------|--------|--------|------4-----2----4---|-5----5---2----4---7----6---|-----4-----------|
A|--------|--------|--------|------4--------------|-5----5---2----4---5----4---|-----2-----------|
E|--------|--------|--------|------2-----0----2---|-3----3---0----2------------|-----------------|


E|--------|--------|--------|--------|--------|--------|--------|--------|--------|
B|--------|--------|--------|--------|--------|--------|--------|--------|--------|
G|--------|--------|--------|--------|--------|--------|--------|--------|--------|
D|--------|--------|--------|--------|--------|--------|--------|--------|--------|
A|--------|--------|--------|--------|--------|--------|--------|--------|--------|
E|--------|--------|--------|--------|--------|--------|--------|--------|--------|


E|--------|--------|--------|--------|--------|--------|--------|--------|--------|
B|--------|--------|--------|--------|--------|--------|--------|--------|--------|
G|--------|--------|--------|--------|--------|--------|--------|--------|--------|
D|--------|--------|--------|--------|--------|--------|--------|--------|--------|
A|--------|--------|--------|--------|--------|--------|--------|--------|--------|
E|--------|--------|--------|--------|--------|--------|--------|--------|--------|


E|--------|--------|--------|--------|--------|--------|--------|--------|--------|
B|--------|--------|--------|--------|--------|--------|--------|--------|--------|
G|--------|--------|--------|--------|--------|--------|--------|--------|--------|
D|--------|--------|--------|--------|--------|--------|--------|--------|--------|
A|--------|--------|--------|--------|--------|--------|--------|--------|--------|
E|--------|--------|--------|--------|--------|--------|--------|--------|--------|


E|--------|--------|--------|--------|--------|--------|--------|--------|--------|
B|--------|--------|--------|--------|--------|--------|--------|--------|--------|
G|--------|--------|--------|--------|--------|--------|--------|--------|--------|
D|--------|--------|--------|--------|--------|--------|--------|--------|--------|
A|--------|--------|--------|--------|--------|--------|--------|--------|--------|
E|--------|--------|--------|--------|--------|--------|--------|--------|--------|


E|--------|--------|--------|------------------|----------5-------------|---------------------|
B|--------|--------|--------|------5-----7-----|-8----8---------8---7---|---------5-----7-----|
G|--------|--------|--------|------------------|------------------------|-7---4---------------|
D|--------|--------|--------|------------------|------------------------|---------------------|
A|--------|--------|--------|------------------|------------------------|---------------------|
E|--------|--------|--------|------------------|------------------------|---------------------|


E|----------5-------------|---------------------|----------5-------------|----------------|
B|-8----8---------8---7---|---------5-----7-----|-8----8---------8---7---|----------------|
G|------------------------|-7---4---------------|------------------------|-7---2----------|
D|------------------------|---------------------|------------------------|----------------|
A|------------------------|---------------------|------------------------|----------------|
E|------------------------|---------------------|------------------------|----------------|


E|--------|--------|--------|--------|--------|--------|--------|--------|--------|
B|--------|--------|--------|--------|--------|--------|--------|--------|--------|
G|--------|--------|--------|--------|--------|--------|--------|--------|--------|
D|--------|--------|--------|--------|--------|--------|--------|--------|--------|
A|--------|--------|--------|--------|--------|--------|--------|--------|--------|
E|--------|--------|--------|--------|--------|--------|--------|--------|--------|


E|--------|--------|--------|--------|--------|--------|--------|--------|--------|
B|--------|--------|--------|--------|--------|--------|--------|--------|--------|
G|--------|--------|--------|--------|--------|--------|--------|--------|--------|
D|--------|--------|--------|--------|--------|--------|--------|--------|--------|
A|--------|--------|--------|--------|--------|--------|--------|--------|--------|
E|--------|--------|--------|--------|--------|--------|--------|--------|--------|


E|--------|--------|--------|--------|--------|--------|--------|--------|--------|
B|--------|--------|--------|--------|--------|--------|--------|--------|--------|
G|--------|--------|--------|--------|--------|--------|--------|--------|--------|
D|--------|--------|--------|--------|--------|--------|--------|--------|--------|
A|--------|--------|--------|--------|--------|--------|--------|--------|--------|
E|--------|--------|--------|--------|--------|--------|--------|--------|--------|


E|--------|
B|--------|
G|--------|
D|--------|
A|--------|
E|--------|





Track 5: Friedman Solo Gtr.

E|--------|--------|--------|--------|--------|--------|--------|--------|--------|
B|--------|--------|--------|--------|--------|--------|--------|--------|--------|
G|--------|--------|--------|--------|--------|--------|--------|--------|--------|
D|--------|--------|--------|--------|--------|--------|--------|--------|--------|
A|--------|--------|--------|--------|--------|--------|--------|--------|--------|
E|--------|--------|--------|--------|--------|--------|--------|--------|--------|


E|--------|--------|--------|--------|--------|--------|--------|--------|--------|
B|--------|--------|--------|--------|--------|--------|--------|--------|--------|
G|--------|--------|--------|--------|--------|--------|--------|--------|--------|
D|--------|--------|--------|--------|--------|--------|--------|--------|--------|
A|--------|--------|--------|--------|--------|--------|--------|--------|--------|
E|--------|--------|--------|--------|--------|--------|--------|--------|--------|


E|--------|--------|--------|--------|--------|--------|------------------------|---------------------------|
B|--------|--------|--------|--------|--------|--------|------------------------|---------------------------|
G|--------|--------|--------|--------|--------|--------|------------------------|---------------------------|
D|--------|--------|--------|--------|--------|--------|------------------------|-1--------5----4---7---5---|
A|--------|--------|--------|--------|--------|--------|------2----0---3----2---|---------------------------|
E|--------|--------|--------|--------|--------|--------|------------------------|---------------------------|


E|----------------|--------|--------|--------|--------|--------|--------|--------|
B|----------------|--------|--------|--------|--------|--------|--------|--------|
G|-----4----------|--------|--------|--------|--------|--------|--------|--------|
D|-7--------------|--------|--------|--------|--------|--------|--------|--------|
A|----------------|--------|--------|--------|--------|--------|--------|--------|
E|----------------|--------|--------|--------|--------|--------|--------|--------|


E|--------|--------|--------|--------|--------|--------|--------|--------|--------|
B|--------|--------|--------|--------|--------|--------|--------|--------|--------|
G|--------|--------|--------|--------|--------|--------|--------|--------|--------|
D|--------|--------|--------|--------|--------|--------|--------|--------|--------|
A|--------|--------|--------|--------|--------|--------|--------|--------|--------|
E|--------|--------|--------|--------|--------|--------|--------|--------|--------|


E|--------|--------|--------|--------|--------|--------|--------|--------|--------|
B|--------|--------|--------|--------|--------|--------|--------|--------|--------|
G|--------|--------|--------|--------|--------|--------|--------|--------|--------|
D|--------|--------|--------|--------|--------|--------|--------|--------|--------|
A|--------|--------|--------|--------|--------|--------|--------|--------|--------|
E|--------|--------|--------|--------|--------|--------|--------|--------|--------|


E|--------|--------|--------|--------|--------|--------|------------------------|---------------------------|
B|--------|--------|--------|--------|--------|--------|------------------------|---------------------------|
G|--------|--------|--------|--------|--------|--------|------------------------|---------------------------|
D|--------|--------|--------|--------|--------|--------|------------------------|-1--------5----4---7---5---|
A|--------|--------|--------|--------|--------|--------|------2----0---3----2---|---------------------------|
E|--------|--------|--------|--------|--------|--------|------------------------|---------------------------|


E|----------------|--------|--------|--------|--------|--------|--------|--------|
B|----------------|--------|--------|--------|--------|--------|--------|--------|
G|-----4----------|--------|--------|--------|--------|--------|--------|--------|
D|-7--------------|--------|--------|--------|--------|--------|--------|--------|
A|----------------|--------|--------|--------|--------|--------|--------|--------|
E|----------------|--------|--------|--------|--------|--------|--------|--------|


E|--------|--------|--------|--------|--------|--------|--------|--------|--------|
B|--------|--------|--------|--------|--------|--------|--------|--------|--------|
G|--------|--------|--------|--------|--------|--------|--------|--------|--------|
D|--------|--------|--------|--------|--------|--------|--------|--------|--------|
A|--------|--------|--------|--------|--------|--------|--------|--------|--------|
E|--------|--------|--------|--------|--------|--------|--------|--------|--------|


E|--------|--------------------------|---------------------------------|---------19--14--------------17--14----------|
B|--------|------24--24---24-24-24---|----------24-24-24-24-24-21------|-----------------17--14--------------17--14--|
G|--------|--------------------------|----------------------------23---|-23----------------------16------------------|
D|--------|--------------------------|-12---12-------------------------|---------------------------------------------|
A|--------|--------------------------|---------------------------------|---------------------------------------------|
E|--------|--------------------------|---------------------------------|---------------------------------------------|


E|-----------14--12------------------------------|-------------------------------------|
B|-------------------14--13--12----------17------|---------16--16--16---14-------------|
G|-16--14-14---------------------14--11------14--|-----14--15--15--15---15-16-16-15----|
D|-----------------------------------------------|---------16--16-------------------16-|
A|-----------------------------------------------|-------------------------------------|
E|-----------------------------------------------|-------------------------------------|


E|-----------------------------------------|---------------------------------------|
B|-----16--16--16-----------14-15-16-15-14-|-------------14---14-------------------|
G|-15--16--16--16--14-16-17----------------|-17-16-14----14---14----14-------------|
D|-----------------------------------------|----------17---------16--------16--14--|
A|-----------------------------------------|---------------------------16----------|
E|-----------------------------------------|---------------------------------------|


E|-------------------------14-17--19--19--|-----19----------------------------------------|
B|---------------------16-----------------|-----------------------------------------------|
G|---------------14-17--------------------|-----------------------------------------------|
D|-----------16---------------------------|--------------------------15----------15-16-17-|
A|-16-14----------------------------------|-----------------15-16-17----17-16-17----------|
E|-------17-------------------------------|-----------15-18-------------------------------|


E|-------------------------------------------------|-15----------20-15-17----15----------15----------|
B|----------------------15----------------15-17-18-|----18-17-15----------18----18-17-18----18-17-15-|
G|-15----------15-17-18----18-17-15-17-18----------|-------------------------------------------------|
D|----17-16-17-------------------------------------|-------------------------------------------------|
A|-------------------------------------------------|-------------------------------------------------|
E|-------------------------------------------------|-------------------------------------------------|


E|----------------------------------------15----15-|----15-------18----18--18-18-18--|
B|-20-15-17----15----------15----------------18-15-|-------18-15---------------------|
G|----------18----18-17-18----18-17-15-17----------|-17------------------------------|
D|-------------------------------------------------|---------------------------------|
A|-------------------------------------------------|---------------------------------|
E|-------------------------------------------------|---------------------------------|


E|-----18--18--18--15-------------------|-------------17--17-22-17------------|-------------------------------18---20--|
B|---------------------18-15------------|-----20--20----------------20-17-----|---------------------17-20-17-----------|
G|---------------------------18-17--15--|---------------------------------20--|-19-17------------19--------------------|
D|--------------------------------------|-------------------------------------|-------19--20--20-----------------------|
A|--------------------------------------|-------------------------------------|----------------------------------------|
E|--------------------------------------|-------------------------------------|----------------------------------------|


E|-----22---22---22--------|-------------|--------|--------|--------|--------|--------|
B|-------------------------|-------------|--------|--------|--------|--------|--------|
G|-------------------------|-------------|--------|--------|--------|--------|--------|
D|-------------------------|-------------|--------|--------|--------|--------|--------|
A|-------------------------|-------------|--------|--------|--------|--------|--------|
E|-------------------------|-------------|--------|--------|--------|--------|--------|


E|--------|--------|--------|--------|--------|--------|--------|--------|--------|
B|--------|--------|--------|--------|--------|--------|--------|--------|--------|
G|--------|--------|--------|--------|--------|--------|--------|--------|--------|
D|--------|--------|--------|--------|--------|--------|--------|--------|--------|
A|--------|--------|--------|--------|--------|--------|--------|--------|--------|
E|--------|--------|--------|--------|--------|--------|--------|--------|--------|


E|--------|--------|--------|--------|--------|--------|--------|--------|-----------------|
B|--------|--------|--------|--------|--------|--------|--------|--------|-----------------|
G|--------|--------|--------|--------|--------|--------|--------|--------|-----------------|
D|--------|--------|--------|--------|--------|--------|--------|--------|------------14---|
A|--------|--------|--------|--------|--------|--------|--------|--------|-----------------|
E|--------|--------|--------|--------|--------|--------|--------|--------|-----------------|


E|----------------12-------|---------------------------------|--------------------------|
B|---------------------15--|-----13---15--15------12-10-12---|------10-------8--7--8----|
G|-------------------------|---------------------------------|--------------------------|
D|------14-----------------|---------------------------------|--------------------------|
A|-------------------------|---------------------------------|--------------------------|
E|-------------------------|---------------------------------|--------------------------|


E|-------------|--------|------------------------|---------------------------|----------------|
B|-8-----------|--------|------------------------|---------------------------|----------------|
G|-------------|--------|------------------------|---------------------------|-----4----------|
D|-------------|--------|------------------------|-1--------5----4---7---5---|-7--------------|
A|-------------|--------|------2----0---3----2---|---------------------------|----------------|
E|-------------|--------|------------------------|---------------------------|----------------|


E|--------|--------|--------|--------|--------|--------|--------|--------|--------|
B|--------|--------|--------|--------|--------|--------|--------|--------|--------|
G|--------|--------|--------|--------|--------|--------|--------|--------|--------|
D|--------|--------|--------|--------|--------|--------|--------|--------|--------|
A|--------|--------|--------|--------|--------|--------|--------|--------|--------|
E|--------|--------|--------|--------|--------|--------|--------|--------|--------|


E|--------|--------|--------|--------|--------|--------|--------|--------|--------|
B|--------|--------|--------|--------|--------|--------|--------|--------|--------|
G|--------|--------|--------|--------|--------|--------|--------|--------|--------|
D|--------|--------|--------|--------|--------|--------|--------|--------|--------|
A|--------|--------|--------|--------|--------|--------|--------|--------|--------|
E|--------|--------|--------|--------|--------|--------|--------|--------|--------|


E|--------|--------|--------|--------|--------|--------|--------|--------|
B|--------|--------|--------|--------|--------|--------|--------|--------|
G|--------|--------|--------|--------|--------|--------|--------|--------|
D|--------|--------|--------|--------|--------|--------|--------|--------|
A|--------|--------|--------|--------|--------|--------|--------|--------|
E|--------|--------|--------|--------|--------|--------|--------|--------|





Track 6: Mustaine

E|--------|--------|--------|--------|--------|--------|--------|--------|--------|
B|--------|--------|--------|--------|--------|--------|--------|--------|--------|
G|--------|--------|--------|--------|--------|--------|--------|--------|--------|
D|--------|--------|--------|--------|--------|--------|--------|--------|--------|
A|--------|--------|--------|--------|--------|--------|--------|--------|--------|
E|--------|--------|--------|--------|--------|--------|--------|--------|--------|


E|--------|--------|--------|--------|--------|--------|--------|--------|--------|
B|--------|--------|--------|--------|--------|--------|--------|--------|--------|
G|--------|--------|--------|--------|--------|--------|--------|--------|--------|
D|--------|--------|--------|--------|--------|--------|--------|--------|--------|
A|--------|--------|--------|--------|--------|--------|--------|--------|--------|
E|--------|--------|--------|--------|--------|--------|--------|--------|--------|


E|--------|--------|--------|--------|--------|--------|------------------------|---------------------------|
B|--------|--------|--------|--------|--------|--------|------------------------|---------------------------|
G|--------|--------|--------|--------|--------|--------|------------------------|---------------------------|
D|--------|--------|--------|--------|--------|--------|------------------------|-1--------2----1---4---2---|
A|--------|--------|--------|--------|--------|--------|------2----0---3----2---|------3--------------------|
E|--------|--------|--------|--------|--------|--------|------------------------|---------------------------|


E|----------------|--------|--------|--------|--------|--------|--------|--------|
B|----------------|--------|--------|--------|--------|--------|--------|--------|
G|----------------|--------|--------|--------|--------|--------|--------|--------|
D|-4---5----------|--------|--------|--------|--------|--------|--------|--------|
A|----------------|--------|--------|--------|--------|--------|--------|--------|
E|----------------|--------|--------|--------|--------|--------|--------|--------|


E|--------|--------|--------|--------|--------|--------|--------|--------|--------|
B|--------|--------|--------|--------|--------|--------|--------|--------|--------|
G|--------|--------|--------|--------|--------|--------|--------|--------|--------|
D|--------|--------|--------|--------|--------|--------|--------|--------|--------|
A|--------|--------|--------|--------|--------|--------|--------|--------|--------|
E|--------|--------|--------|--------|--------|--------|--------|--------|--------|


E|--------|--------|--------|--------|--------|--------|--------|--------|--------|
B|--------|--------|--------|--------|--------|--------|--------|--------|--------|
G|--------|--------|--------|--------|--------|--------|--------|--------|--------|
D|--------|--------|--------|--------|--------|--------|--------|--------|--------|
A|--------|--------|--------|--------|--------|--------|--------|--------|--------|
E|--------|--------|--------|--------|--------|--------|--------|--------|--------|


E|--------|--------|--------|--------|--------|--------|--------|--------|--------|
B|--------|--------|--------|--------|--------|--------|--------|--------|--------|
G|--------|--------|--------|--------|--------|--------|--------|--------|--------|
D|--------|--------|--------|--------|--------|--------|--------|--------|--------|
A|--------|--------|--------|--------|--------|--------|--------|--------|--------|
E|--------|--------|--------|--------|--------|--------|--------|--------|--------|


E|--------|--------|--------|--------|--------|--------|--------|--------|--------|
B|--------|--------|--------|--------|--------|--------|--------|--------|--------|
G|--------|--------|--------|--------|--------|--------|--------|--------|--------|
D|--------|--------|--------|--------|--------|--------|--------|--------|--------|
A|--------|--------|--------|--------|--------|--------|--------|--------|--------|
E|--------|--------|--------|--------|--------|--------|--------|--------|--------|


E|--------|--------|--------|--------|--------|--------|--------|--------|--------|
B|--------|--------|--------|--------|--------|--------|--------|--------|--------|
G|--------|--------|--------|--------|--------|--------|--------|--------|--------|
D|--------|--------|--------|--------|--------|--------|--------|--------|--------|
A|--------|--------|--------|--------|--------|--------|--------|--------|--------|
E|--------|--------|--------|--------|--------|--------|--------|--------|--------|


E|--------|--------|--------|--------|--------|--------|--------|--------|--------|
B|--------|--------|--------|--------|--------|--------|--------|--------|--------|
G|--------|--------|--------|--------|--------|--------|--------|--------|--------|
D|--------|--------|--------|--------|--------|--------|--------|--------|--------|
A|--------|--------|--------|--------|--------|--------|--------|--------|--------|
E|--------|--------|--------|--------|--------|--------|--------|--------|--------|


E|--------|--------|--------|--------|--------|--------|--------|--------|--------|
B|--------|--------|--------|--------|--------|--------|--------|--------|--------|
G|--------|--------|--------|--------|--------|--------|--------|--------|--------|
D|--------|--------|--------|--------|--------|--------|--------|--------|--------|
A|--------|--------|--------|--------|--------|--------|--------|--------|--------|
E|--------|--------|--------|--------|--------|--------|--------|--------|--------|


E|--------|--------|--------|--------|--------|--------|--------|--------|--------|
B|--------|--------|--------|--------|--------|--------|--------|--------|--------|
G|--------|--------|--------|--------|--------|--------|--------|--------|--------|
D|--------|--------|--------|--------|--------|--------|--------|--------|--------|
A|--------|--------|--------|--------|--------|--------|--------|--------|--------|
E|--------|--------|--------|--------|--------|--------|--------|--------|--------|


E|--------|--------|--------|--------|--------|--------|--------|--------|--------|
B|--------|--------|--------|--------|--------|--------|--------|--------|--------|
G|--------|--------|--------|--------|--------|--------|--------|--------|--------|
D|--------|--------|--------|--------|--------|--------|--------|--------|--------|
A|--------|--------|--------|--------|--------|--------|--------|--------|--------|
E|--------|--------|--------|--------|--------|--------|--------|--------|--------|


E|--------|--------|--------|--------|--------|--------|--------|--------|--------|
B|--------|--------|--------|--------|--------|--------|--------|--------|--------|
G|--------|--------|--------|--------|--------|--------|--------|--------|--------|
D|--------|--------|--------|--------|--------|--------|--------|--------|--------|
A|--------|--------|--------|--------|--------|--------|--------|--------|--------|
E|--------|--------|--------|--------|--------|--------|--------|--------|--------|


E|--------|--------|--------|--------|--------|--------|--------|--------|--------|
B|--------|--------|--------|--------|--------|--------|--------|--------|--------|
G|--------|--------|--------|--------|--------|--------|--------|--------|--------|
D|--------|--------|--------|--------|--------|--------|--------|--------|--------|
A|--------|--------|--------|--------|--------|--------|--------|--------|--------|
E|--------|--------|--------|--------|--------|--------|--------|--------|--------|


E|--------|--------|--------|--------|--------|--------|--------|--------|--------|
B|--------|--------|--------|--------|--------|--------|--------|--------|--------|
G|--------|--------|--------|--------|--------|--------|--------|--------|--------|
D|--------|--------|--------|--------|--------|--------|--------|--------|--------|
A|--------|--------|--------|--------|--------|--------|--------|--------|--------|
E|--------|--------|--------|--------|--------|--------|--------|--------|--------|


E|--------|--------|--------|--------|--------|--------|--------|--------|--------|
B|--------|--------|--------|--------|--------|--------|--------|--------|--------|
G|--------|--------|--------|--------|--------|--------|--------|--------|--------|
D|--------|--------|--------|--------|--------|--------|--------|--------|--------|
A|--------|--------|--------|--------|--------|--------|--------|--------|--------|
E|--------|--------|--------|--------|--------|--------|--------|--------|--------|


E|--------|--------|
B|--------|--------|
G|--------|--------|
D|--------|--------|
A|--------|--------|
E|--------|--------|





Track 7: Mustaine

E|--------|--------|--------|--------|--------|--------|--------|--------|--------|
B|--------|--------|--------|--------|--------|--------|--------|--------|--------|
G|--------|--------|--------|--------|--------|--------|--------|--------|--------|
D|--------|--------|--------|--------|--------|--------|--------|--------|--------|
A|--------|--------|--------|--------|--------|--------|--------|--------|--------|
E|--------|--------|--------|--------|--------|--------|--------|--------|--------|


E|--------|--------|--------|--------|--------|--------|--------|--------|--------|
B|--------|--------|--------|--------|--------|--------|--------|--------|--------|
G|--------|--------|--------|--------|--------|--------|--------|--------|--------|
D|--------|--------|--------|--------|--------|--------|--------|--------|--------|
A|--------|--------|--------|--------|--------|--------|--------|--------|--------|
E|--------|--------|--------|--------|--------|--------|--------|--------|--------|


E|--------|--------|--------|--------|--------|--------|------------------------|---------------------------|
B|--------|--------|--------|--------|--------|--------|------------------------|-4--------5----4---7---5---|
G|--------|--------|--------|--------|--------|--------|------4----2---5----4---|------5--------------------|
D|--------|--------|--------|--------|--------|--------|------------------------|---------------------------|
A|--------|--------|--------|--------|--------|--------|------------------------|---------------------------|
E|--------|--------|--------|--------|--------|--------|------------------------|---------------------------|


E|----------------|--------|--------|--------|--------|--------|--------|--------|
B|-7---8----------|--------|--------|--------|--------|--------|--------|--------|
G|----------------|--------|--------|--------|--------|--------|--------|--------|
D|----------------|--------|--------|--------|--------|--------|--------|--------|
A|----------------|--------|--------|--------|--------|--------|--------|--------|
E|----------------|--------|--------|--------|--------|--------|--------|--------|


E|--------|--------|--------|--------|--------|--------|--------|--------|--------|
B|--------|--------|--------|--------|--------|--------|--------|--------|--------|
G|--------|--------|--------|--------|--------|--------|--------|--------|--------|
D|--------|--------|--------|--------|--------|--------|--------|--------|--------|
A|--------|--------|--------|--------|--------|--------|--------|--------|--------|
E|--------|--------|--------|--------|--------|--------|--------|--------|--------|


E|--------|--------|--------|--------|--------|--------|--------|--------|--------|
B|--------|--------|--------|--------|--------|--------|--------|--------|--------|
G|--------|--------|--------|--------|--------|--------|--------|--------|--------|
D|--------|--------|--------|--------|--------|--------|--------|--------|--------|
A|--------|--------|--------|--------|--------|--------|--------|--------|--------|
E|--------|--------|--------|--------|--------|--------|--------|--------|--------|


E|--------|--------|--------|--------|--------|--------|--------|--------|--------|
B|--------|--------|--------|--------|--------|--------|--------|--------|--------|
G|--------|--------|--------|--------|--------|--------|--------|--------|--------|
D|--------|--------|--------|--------|--------|--------|--------|--------|--------|
A|--------|--------|--------|--------|--------|--------|--------|--------|--------|
E|--------|--------|--------|--------|--------|--------|--------|--------|--------|


E|--------|--------|--------|--------|--------|--------|--------|--------|--------|
B|--------|--------|--------|--------|--------|--------|--------|--------|--------|
G|--------|--------|--------|--------|--------|--------|--------|--------|--------|
D|--------|--------|--------|--------|--------|--------|--------|--------|--------|
A|--------|--------|--------|--------|--------|--------|--------|--------|--------|
E|--------|--------|--------|--------|--------|--------|--------|--------|--------|


E|--------|--------|--------|--------|--------|--------|--------|--------|--------|
B|--------|--------|--------|--------|--------|--------|--------|--------|--------|
G|--------|--------|--------|--------|--------|--------|--------|--------|--------|
D|--------|--------|--------|--------|--------|--------|--------|--------|--------|
A|--------|--------|--------|--------|--------|--------|--------|--------|--------|
E|--------|--------|--------|--------|--------|--------|--------|--------|--------|


E|--------|--------|--------|--------|--------|--------|--------|--------|--------|
B|--------|--------|--------|--------|--------|--------|--------|--------|--------|
G|--------|--------|--------|--------|--------|--------|--------|--------|--------|
D|--------|--------|--------|--------|--------|--------|--------|--------|--------|
A|--------|--------|--------|--------|--------|--------|--------|--------|--------|
E|--------|--------|--------|--------|--------|--------|--------|--------|--------|


E|--------|--------|--------|--------|--------|--------|--------|--------|--------|
B|--------|--------|--------|--------|--------|--------|--------|--------|--------|
G|--------|--------|--------|--------|--------|--------|--------|--------|--------|
D|--------|--------|--------|--------|--------|--------|--------|--------|--------|
A|--------|--------|--------|--------|--------|--------|--------|--------|--------|
E|--------|--------|--------|--------|--------|--------|--------|--------|--------|


E|--------|--------|--------|--------|--------|--------|--------|--------|--------|
B|--------|--------|--------|--------|--------|--------|--------|--------|--------|
G|--------|--------|--------|--------|--------|--------|--------|--------|--------|
D|--------|--------|--------|--------|--------|--------|--------|--------|--------|
A|--------|--------|--------|--------|--------|--------|--------|--------|--------|
E|--------|--------|--------|--------|--------|--------|--------|--------|--------|


E|--------|--------|--------|--------|--------|--------|--------|--------|--------|
B|--------|--------|--------|--------|--------|--------|--------|--------|--------|
G|--------|--------|--------|--------|--------|--------|--------|--------|--------|
D|--------|--------|--------|--------|--------|--------|--------|--------|--------|
A|--------|--------|--------|--------|--------|--------|--------|--------|--------|
E|--------|--------|--------|--------|--------|--------|--------|--------|--------|


E|--------|--------|--------|--------|--------|--------|--------|--------|--------|
B|--------|--------|--------|--------|--------|--------|--------|--------|--------|
G|--------|--------|--------|--------|--------|--------|--------|--------|--------|
D|--------|--------|--------|--------|--------|--------|--------|--------|--------|
A|--------|--------|--------|--------|--------|--------|--------|--------|--------|
E|--------|--------|--------|--------|--------|--------|--------|--------|--------|


E|--------|--------|--------|--------|--------|--------|--------|--------|--------|
B|--------|--------|--------|--------|--------|--------|--------|--------|--------|
G|--------|--------|--------|--------|--------|--------|--------|--------|--------|
D|--------|--------|--------|--------|--------|--------|--------|--------|--------|
A|--------|--------|--------|--------|--------|--------|--------|--------|--------|
E|--------|--------|--------|--------|--------|--------|--------|--------|--------|


E|--------|--------|--------|--------|--------|--------|--------|--------|--------|
B|--------|--------|--------|--------|--------|--------|--------|--------|--------|
G|--------|--------|--------|--------|--------|--------|--------|--------|--------|
D|--------|--------|--------|--------|--------|--------|--------|--------|--------|
A|--------|--------|--------|--------|--------|--------|--------|--------|--------|
E|--------|--------|--------|--------|--------|--------|--------|--------|--------|


E|--------|--------|--------|--------|--------|--------|--------|--------|--------|
B|--------|--------|--------|--------|--------|--------|--------|--------|--------|
G|--------|--------|--------|--------|--------|--------|--------|--------|--------|
D|--------|--------|--------|--------|--------|--------|--------|--------|--------|
A|--------|--------|--------|--------|--------|--------|--------|--------|--------|
E|--------|--------|--------|--------|--------|--------|--------|--------|--------|


E|--------|--------|
B|--------|--------|
G|--------|--------|
D|--------|--------|
A|--------|--------|
E|--------|--------|





Track 8: Mustaine

E|--------|--------|--------|--------|--------|--------|--------|--------|--------|
B|--------|--------|--------|--------|--------|--------|--------|--------|--------|
G|--------|--------|--------|--------|--------|--------|--------|--------|--------|
D|--------|--------|--------|--------|--------|--------|--------|--------|--------|
A|--------|--------|--------|--------|--------|--------|--------|--------|--------|
E|--------|--------|--------|--------|--------|--------|--------|--------|--------|


E|--------|--------|--------|--------|--------|--------|--------|--------|--------|
B|--------|--------|--------|--------|--------|--------|--------|--------|--------|
G|--------|--------|--------|--------|--------|--------|--------|--------|--------|
D|--------|--------|--------|--------|--------|--------|--------|--------|--------|
A|--------|--------|--------|--------|--------|--------|--------|--------|--------|
E|--------|--------|--------|--------|--------|--------|--------|--------|--------|


E|--------|--------|--------|--------|--------|--------|--------|--------|--------|
B|--------|--------|--------|--------|--------|--------|--------|--------|--------|
G|--------|--------|--------|--------|--------|--------|--------|--------|--------|
D|--------|--------|--------|--------|--------|--------|--------|--------|--------|
A|--------|--------|--------|--------|--------|--------|--------|--------|--------|
E|--------|--------|--------|--------|--------|--------|--------|--------|--------|


E|--------|--------|--------|--------|--------|--------|--------|--------|--------|
B|--------|--------|--------|--------|--------|--------|--------|--------|--------|
G|--------|--------|--------|--------|--------|--------|--------|--------|--------|
D|--------|--------|--------|--------|--------|--------|--------|--------|--------|
A|--------|--------|--------|--------|--------|--------|--------|--------|--------|
E|--------|--------|--------|--------|--------|--------|--------|--------|--------|


E|--------|--------|--------|--------|--------|--------|--------|--------|--------|
B|--------|--------|--------|--------|--------|--------|--------|--------|--------|
G|--------|--------|--------|--------|--------|--------|--------|--------|--------|
D|--------|--------|--------|--------|--------|--------|--------|--------|--------|
A|--------|--------|--------|--------|--------|--------|--------|--------|--------|
E|--------|--------|--------|--------|--------|--------|--------|--------|--------|


E|--------|--------|--------|--------|--------|--------|--------|--------|--------|
B|--------|--------|--------|--------|--------|--------|--------|--------|--------|
G|--------|--------|--------|--------|--------|--------|--------|--------|--------|
D|--------|--------|--------|--------|--------|--------|--------|--------|--------|
A|--------|--------|--------|--------|--------|--------|--------|--------|--------|
E|--------|--------|--------|--------|--------|--------|--------|--------|--------|


E|--------|--------|--------|--------|------------------------|---------------------------|
B|--------|--------|--------|--------|------------------------|---------------------------|
G|--------|--------|--------|--------|------------------------|---------------------------|
D|--------|--------|--------|--------|------------------------|-1--------2----1---4---2---|
A|--------|--------|--------|--------|------2----0---3----2---|------3--------------------|
E|--------|--------|--------|--------|------------------------|---------------------------|


E|----------------|--------|--------|--------|--------|--------|--------|--------|
B|----------------|--------|--------|--------|--------|--------|--------|--------|
G|----------------|--------|--------|--------|--------|--------|--------|--------|
D|-4---5----------|--------|--------|--------|--------|--------|--------|--------|
A|----------------|--------|--------|--------|--------|--------|--------|--------|
E|----------------|--------|--------|--------|--------|--------|--------|--------|


E|--------|--------|--------|--------|--------|--------|--------|--------|--------|
B|--------|--------|--------|--------|--------|--------|--------|--------|--------|
G|--------|--------|--------|--------|--------|--------|--------|--------|--------|
D|--------|--------|--------|--------|--------|--------|--------|--------|--------|
A|--------|--------|--------|--------|--------|--------|--------|--------|--------|
E|--------|--------|--------|--------|--------|--------|--------|--------|--------|


E|--------|--------|--------|--------|--------|--------|--------|--------|--------|
B|--------|--------|--------|--------|--------|--------|--------|--------|--------|
G|--------|--------|--------|--------|--------|--------|--------|--------|--------|
D|--------|--------|--------|--------|--------|--------|--------|--------|--------|
A|--------|--------|--------|--------|--------|--------|--------|--------|--------|
E|--------|--------|--------|--------|--------|--------|--------|--------|--------|


E|--------|--------|--------|--------|--------|--------|--------|--------|--------|
B|--------|--------|--------|--------|--------|--------|--------|--------|--------|
G|--------|--------|--------|--------|--------|--------|--------|--------|--------|
D|--------|--------|--------|--------|--------|--------|--------|--------|--------|
A|--------|--------|--------|--------|--------|--------|--------|--------|--------|
E|--------|--------|--------|--------|--------|--------|--------|--------|--------|


E|--------|--------|--------|--------|--------|--------|--------|--------|--------|
B|--------|--------|--------|--------|--------|--------|--------|--------|--------|
G|--------|--------|--------|--------|--------|--------|--------|--------|--------|
D|--------|--------|--------|--------|--------|--------|--------|--------|--------|
A|--------|--------|--------|--------|--------|--------|--------|--------|--------|
E|--------|--------|--------|--------|--------|--------|--------|--------|--------|


E|--------|--------|--------|--------|--------|--------|--------|--------|--------|
B|--------|--------|--------|--------|--------|--------|--------|--------|--------|
G|--------|--------|--------|--------|--------|--------|--------|--------|--------|
D|--------|--------|--------|--------|--------|--------|--------|--------|--------|
A|--------|--------|--------|--------|--------|--------|--------|--------|--------|
E|--------|--------|--------|--------|--------|--------|--------|--------|--------|


E|--------|--------|--------|--------|--------|--------|--------|--------|--------|
B|--------|--------|--------|--------|--------|--------|--------|--------|--------|
G|--------|--------|--------|--------|--------|--------|--------|--------|--------|
D|--------|--------|--------|--------|--------|--------|--------|--------|--------|
A|--------|--------|--------|--------|--------|--------|--------|--------|--------|
E|--------|--------|--------|--------|--------|--------|--------|--------|--------|


E|--------|--------|--------|--------|--------|--------|--------|--------|--------|
B|--------|--------|--------|--------|--------|--------|--------|--------|--------|
G|--------|--------|--------|--------|--------|--------|--------|--------|--------|
D|--------|--------|--------|--------|--------|--------|--------|--------|--------|
A|--------|--------|--------|--------|--------|--------|--------|--------|--------|
E|--------|--------|--------|--------|--------|--------|--------|--------|--------|


E|--------|--------|--------|--------|--------|--------|--------|--------|--------|
B|--------|--------|--------|--------|--------|--------|--------|--------|--------|
G|--------|--------|--------|--------|--------|--------|--------|--------|--------|
D|--------|--------|--------|--------|--------|--------|--------|--------|--------|
A|--------|--------|--------|--------|--------|--------|--------|--------|--------|
E|--------|--------|--------|--------|--------|--------|--------|--------|--------|


E|--------|--------|--------|--------|--------|--------|--------|--------|--------|
B|--------|--------|--------|--------|--------|--------|--------|--------|--------|
G|--------|--------|--------|--------|--------|--------|--------|--------|--------|
D|--------|--------|--------|--------|--------|--------|--------|--------|--------|
A|--------|--------|--------|--------|--------|--------|--------|--------|--------|
E|--------|--------|--------|--------|--------|--------|--------|--------|--------|


E|--------|--------|--------|--------|
B|--------|--------|--------|--------|
G|--------|--------|--------|--------|
D|--------|--------|--------|--------|
A|--------|--------|--------|--------|
E|--------|--------|--------|--------|





Track 9: Mustaine

E|--------|--------|--------|--------|--------|--------|--------|--------|--------|
B|--------|--------|--------|--------|--------|--------|--------|--------|--------|
G|--------|--------|--------|--------|--------|--------|--------|--------|--------|
D|--------|--------|--------|--------|--------|--------|--------|--------|--------|
A|--------|--------|--------|--------|--------|--------|--------|--------|--------|
E|--------|--------|--------|--------|--------|--------|--------|--------|--------|


E|--------|--------|--------|--------|--------|--------|--------|--------|--------|
B|--------|--------|--------|--------|--------|--------|--------|--------|--------|
G|--------|--------|--------|--------|--------|--------|--------|--------|--------|
D|--------|--------|--------|--------|--------|--------|--------|--------|--------|
A|--------|--------|--------|--------|--------|--------|--------|--------|--------|
E|--------|--------|--------|--------|--------|--------|--------|--------|--------|


E|--------|--------|--------|--------|--------|--------|--------|--------|--------|
B|--------|--------|--------|--------|--------|--------|--------|--------|--------|
G|--------|--------|--------|--------|--------|--------|--------|--------|--------|
D|--------|--------|--------|--------|--------|--------|--------|--------|--------|
A|--------|--------|--------|--------|--------|--------|--------|--------|--------|
E|--------|--------|--------|--------|--------|--------|--------|--------|--------|


E|--------|--------|--------|--------|--------|--------|--------|--------|--------|
B|--------|--------|--------|--------|--------|--------|--------|--------|--------|
G|--------|--------|--------|--------|--------|--------|--------|--------|--------|
D|--------|--------|--------|--------|--------|--------|--------|--------|--------|
A|--------|--------|--------|--------|--------|--------|--------|--------|--------|
E|--------|--------|--------|--------|--------|--------|--------|--------|--------|


E|--------|--------|--------|--------|--------|--------|--------|--------|--------|
B|--------|--------|--------|--------|--------|--------|--------|--------|--------|
G|--------|--------|--------|--------|--------|--------|--------|--------|--------|
D|--------|--------|--------|--------|--------|--------|--------|--------|--------|
A|--------|--------|--------|--------|--------|--------|--------|--------|--------|
E|--------|--------|--------|--------|--------|--------|--------|--------|--------|


E|--------|--------|--------|--------|--------|--------|--------|--------|--------|
B|--------|--------|--------|--------|--------|--------|--------|--------|--------|
G|--------|--------|--------|--------|--------|--------|--------|--------|--------|
D|--------|--------|--------|--------|--------|--------|--------|--------|--------|
A|--------|--------|--------|--------|--------|--------|--------|--------|--------|
E|--------|--------|--------|--------|--------|--------|--------|--------|--------|


E|--------|--------|--------|--------|------------------------|---------------------------|
B|--------|--------|--------|--------|------------------------|-4--------5----4---7---5---|
G|--------|--------|--------|--------|------4----2---5----4---|------5--------------------|
D|--------|--------|--------|--------|------------------------|---------------------------|
A|--------|--------|--------|--------|------------------------|---------------------------|
E|--------|--------|--------|--------|------------------------|---------------------------|


E|----------------|--------|--------|--------|--------|--------|--------|--------|
B|-7---8----------|--------|--------|--------|--------|--------|--------|--------|
G|----------------|--------|--------|--------|--------|--------|--------|--------|
D|----------------|--------|--------|--------|--------|--------|--------|--------|
A|----------------|--------|--------|--------|--------|--------|--------|--------|
E|----------------|--------|--------|--------|--------|--------|--------|--------|


E|--------|--------|--------|--------|--------|--------|--------|--------|--------|
B|--------|--------|--------|--------|--------|--------|--------|--------|--------|
G|--------|--------|--------|--------|--------|--------|--------|--------|--------|
D|--------|--------|--------|--------|--------|--------|--------|--------|--------|
A|--------|--------|--------|--------|--------|--------|--------|--------|--------|
E|--------|--------|--------|--------|--------|--------|--------|--------|--------|


E|--------|--------|--------|--------|--------|--------|--------|--------|--------|
B|--------|--------|--------|--------|--------|--------|--------|--------|--------|
G|--------|--------|--------|--------|--------|--------|--------|--------|--------|
D|--------|--------|--------|--------|--------|--------|--------|--------|--------|
A|--------|--------|--------|--------|--------|--------|--------|--------|--------|
E|--------|--------|--------|--------|--------|--------|--------|--------|--------|


E|--------|--------|--------|--------|--------|--------|--------|--------|--------|
B|--------|--------|--------|--------|--------|--------|--------|--------|--------|
G|--------|--------|--------|--------|--------|--------|--------|--------|--------|
D|--------|--------|--------|--------|--------|--------|--------|--------|--------|
A|--------|--------|--------|--------|--------|--------|--------|--------|--------|
E|--------|--------|--------|--------|--------|--------|--------|--------|--------|


E|--------|--------|--------|--------|--------|--------|--------|--------|--------|
B|--------|--------|--------|--------|--------|--------|--------|--------|--------|
G|--------|--------|--------|--------|--------|--------|--------|--------|--------|
D|--------|--------|--------|--------|--------|--------|--------|--------|--------|
A|--------|--------|--------|--------|--------|--------|--------|--------|--------|
E|--------|--------|--------|--------|--------|--------|--------|--------|--------|


E|--------|--------|--------|--------|--------|--------|--------|--------|--------|
B|--------|--------|--------|--------|--------|--------|--------|--------|--------|
G|--------|--------|--------|--------|--------|--------|--------|--------|--------|
D|--------|--------|--------|--------|--------|--------|--------|--------|--------|
A|--------|--------|--------|--------|--------|--------|--------|--------|--------|
E|--------|--------|--------|--------|--------|--------|--------|--------|--------|


E|--------|--------|--------|--------|--------|--------|--------|--------|--------|
B|--------|--------|--------|--------|--------|--------|--------|--------|--------|
G|--------|--------|--------|--------|--------|--------|--------|--------|--------|
D|--------|--------|--------|--------|--------|--------|--------|--------|--------|
A|--------|--------|--------|--------|--------|--------|--------|--------|--------|
E|--------|--------|--------|--------|--------|--------|--------|--------|--------|


E|--------|--------|--------|--------|--------|--------|--------|--------|--------|
B|--------|--------|--------|--------|--------|--------|--------|--------|--------|
G|--------|--------|--------|--------|--------|--------|--------|--------|--------|
D|--------|--------|--------|--------|--------|--------|--------|--------|--------|
A|--------|--------|--------|--------|--------|--------|--------|--------|--------|
E|--------|--------|--------|--------|--------|--------|--------|--------|--------|


E|--------|--------|--------|--------|--------|--------|--------|--------|--------|
B|--------|--------|--------|--------|--------|--------|--------|--------|--------|
G|--------|--------|--------|--------|--------|--------|--------|--------|--------|
D|--------|--------|--------|--------|--------|--------|--------|--------|--------|
A|--------|--------|--------|--------|--------|--------|--------|--------|--------|
E|--------|--------|--------|--------|--------|--------|--------|--------|--------|


E|--------|--------|--------|--------|--------|--------|--------|--------|--------|
B|--------|--------|--------|--------|--------|--------|--------|--------|--------|
G|--------|--------|--------|--------|--------|--------|--------|--------|--------|
D|--------|--------|--------|--------|--------|--------|--------|--------|--------|
A|--------|--------|--------|--------|--------|--------|--------|--------|--------|
E|--------|--------|--------|--------|--------|--------|--------|--------|--------|


E|--------|--------|--------|--------|
B|--------|--------|--------|--------|
G|--------|--------|--------|--------|
D|--------|--------|--------|--------|
A|--------|--------|--------|--------|
E|--------|--------|--------|--------|





Track 10: Mustaine

E|--------|--------|--------|--------|--------|--------|--------|--------|--------|
B|--------|--------|--------|--------|--------|--------|--------|--------|--------|
G|--------|--------|--------|--------|--------|--------|--------|--------|--------|
D|--------|--------|--------|--------|--------|--------|--------|--------|--------|
A|--------|--------|--------|--------|--------|--------|--------|--------|--------|
E|--------|--------|--------|--------|--------|--------|--------|--------|--------|


E|--------|--------|--------|--------|--------|--------|--------|--------|--------|
B|--------|--------|--------|--------|--------|--------|--------|--------|--------|
G|--------|--------|--------|--------|--------|--------|--------|--------|--------|
D|--------|--------|--------|--------|--------|--------|--------|--------|--------|
A|--------|--------|--------|--------|--------|--------|--------|--------|--------|
E|--------|--------|--------|--------|--------|--------|--------|--------|--------|


E|--------|--------|--------|--------|--------|--------|--------|--------|--------|
B|--------|--------|--------|--------|--------|--------|--------|--------|--------|
G|--------|--------|--------|--------|--------|--------|--------|--------|--------|
D|--------|--------|--------|--------|--------|--------|--------|--------|--------|
A|--------|--------|--------|--------|--------|--------|--------|--------|--------|
E|--------|--------|--------|--------|--------|--------|--------|--------|--------|


E|--------|--------|--------|--------|--------|--------|--------|--------|--------|
B|--------|--------|--------|--------|--------|--------|--------|--------|--------|
G|--------|--------|--------|--------|--------|--------|--------|--------|--------|
D|--------|--------|--------|--------|--------|--------|--------|--------|--------|
A|--------|--------|--------|--------|--------|--------|--------|--------|--------|
E|--------|--------|--------|--------|--------|--------|--------|--------|--------|


E|--------|--------|--------|--------|--------|--------|--------|--------|--------|
B|--------|--------|--------|--------|--------|--------|--------|--------|--------|
G|--------|--------|--------|--------|--------|--------|--------|--------|--------|
D|--------|--------|--------|--------|--------|--------|--------|--------|--------|
A|--------|--------|--------|--------|--------|--------|--------|--------|--------|
E|--------|--------|--------|--------|--------|--------|--------|--------|--------|


E|--------|--------|--------|--------|--------|--------|--------|--------|--------|
B|--------|--------|--------|--------|--------|--------|--------|--------|--------|
G|--------|--------|--------|--------|--------|--------|--------|--------|--------|
D|--------|--------|--------|--------|--------|--------|--------|--------|--------|
A|--------|--------|--------|--------|--------|--------|--------|--------|--------|
E|--------|--------|--------|--------|--------|--------|--------|--------|--------|


E|--------|--------|--------|--------|--------|--------|--------|--------|--------|
B|--------|--------|--------|--------|--------|--------|--------|--------|--------|
G|--------|--------|--------|--------|--------|--------|--------|--------|--------|
D|--------|--------|--------|--------|--------|--------|--------|--------|--------|
A|--------|--------|--------|--------|--------|--------|--------|--------|--------|
E|--------|--------|--------|--------|--------|--------|--------|--------|--------|


E|--------|--------|--------|--------|--------|--------|--------|--------|--------|
B|--------|--------|--------|--------|--------|--------|--------|--------|--------|
G|--------|--------|--------|--------|--------|--------|--------|--------|--------|
D|--------|--------|--------|--------|--------|--------|--------|--------|--------|
A|--------|--------|--------|--------|--------|--------|--------|--------|--------|
E|--------|--------|--------|--------|--------|--------|--------|--------|--------|


E|--------|--------|--------|--------|--------|--------|--------|--------|--------|
B|--------|--------|--------|--------|--------|--------|--------|--------|--------|
G|--------|--------|--------|--------|--------|--------|--------|--------|--------|
D|--------|--------|--------|--------|--------|--------|--------|--------|--------|
A|--------|--------|--------|--------|--------|--------|--------|--------|--------|
E|--------|--------|--------|--------|--------|--------|--------|--------|--------|


E|--------|--------|--------|--------|--------|--------|--------|--------|--------|
B|--------|--------|--------|--------|--------|--------|--------|--------|--------|
G|--------|--------|--------|--------|--------|--------|--------|--------|--------|
D|--------|--------|--------|--------|--------|--------|--------|--------|--------|
A|--------|--------|--------|--------|--------|--------|--------|--------|--------|
E|--------|--------|--------|--------|--------|--------|--------|--------|--------|


E|--------|--------|--------|--------|--------|--------|--------|--------|--------|
B|--------|--------|--------|--------|--------|--------|--------|--------|--------|
G|--------|--------|--------|--------|--------|--------|--------|--------|--------|
D|--------|--------|--------|--------|--------|--------|--------|--------|--------|
A|--------|--------|--------|--------|--------|--------|--------|--------|--------|
E|--------|--------|--------|--------|--------|--------|--------|--------|--------|


E|--------|--------|--------|--------|--------|--------|--------|--------|--------|
B|--------|--------|--------|--------|--------|--------|--------|--------|--------|
G|--------|--------|--------|--------|--------|--------|--------|--------|--------|
D|--------|--------|--------|--------|--------|--------|--------|--------|--------|
A|--------|--------|--------|--------|--------|--------|--------|--------|--------|
E|--------|--------|--------|--------|--------|--------|--------|--------|--------|


E|--------|--------|--------|--------|--------|--------|--------|--------|--------|
B|--------|--------|--------|--------|--------|--------|--------|--------|--------|
G|--------|--------|--------|--------|--------|--------|--------|--------|--------|
D|--------|--------|--------|--------|--------|--------|--------|--------|--------|
A|--------|--------|--------|--------|--------|--------|--------|--------|--------|
E|--------|--------|--------|--------|--------|--------|--------|--------|--------|


E|--------|--------|--------|--------|--------|--------|--------|------------------------|
B|--------|--------|--------|--------|--------|--------|--------|------------------------|
G|--------|--------|--------|--------|--------|--------|--------|------------------------|
D|--------|--------|--------|--------|--------|--------|--------|------------------------|
A|--------|--------|--------|--------|--------|--------|--------|------2----0---3----2---|
E|--------|--------|--------|--------|--------|--------|--------|------------------------|


E|---------------------------|----------------|--------|--------|--------|--------|
B|---------------------------|----------------|--------|--------|--------|--------|
G|---------------------------|----------------|--------|--------|--------|--------|
D|-1--------2----1---4---2---|-4---5----------|--------|--------|--------|--------|
A|------3--------------------|----------------|--------|--------|--------|--------|
E|---------------------------|----------------|--------|--------|--------|--------|


E|--------|--------|--------|--------|--------|--------|--------|--------|--------|
B|--------|--------|--------|--------|--------|--------|--------|--------|--------|
G|--------|--------|--------|--------|--------|--------|--------|--------|--------|
D|--------|--------|--------|--------|--------|--------|--------|--------|--------|
A|--------|--------|--------|--------|--------|--------|--------|--------|--------|
E|--------|--------|--------|--------|--------|--------|--------|--------|--------|


E|--------|--------|--------|--------|--------|--------|--------|--------|--------|
B|--------|--------|--------|--------|--------|--------|--------|--------|--------|
G|--------|--------|--------|--------|--------|--------|--------|--------|--------|
D|--------|--------|--------|--------|--------|--------|--------|--------|--------|
A|--------|--------|--------|--------|--------|--------|--------|--------|--------|
E|--------|--------|--------|--------|--------|--------|--------|--------|--------|


E|--------|--------|--------|--------|
B|--------|--------|--------|--------|
G|--------|--------|--------|--------|
D|--------|--------|--------|--------|
A|--------|--------|--------|--------|
E|--------|--------|--------|--------|





Track 11: Mustaine

E|--------|--------|--------|--------|--------|--------|--------|--------|--------|
B|--------|--------|--------|--------|--------|--------|--------|--------|--------|
G|--------|--------|--------|--------|--------|--------|--------|--------|--------|
D|--------|--------|--------|--------|--------|--------|--------|--------|--------|
A|--------|--------|--------|--------|--------|--------|--------|--------|--------|
E|--------|--------|--------|--------|--------|--------|--------|--------|--------|


E|--------|--------|--------|--------|--------|--------|--------|--------|--------|
B|--------|--------|--------|--------|--------|--------|--------|--------|--------|
G|--------|--------|--------|--------|--------|--------|--------|--------|--------|
D|--------|--------|--------|--------|--------|--------|--------|--------|--------|
A|--------|--------|--------|--------|--------|--------|--------|--------|--------|
E|--------|--------|--------|--------|--------|--------|--------|--------|--------|


E|--------|--------|--------|--------|--------|--------|--------|--------|--------|
B|--------|--------|--------|--------|--------|--------|--------|--------|--------|
G|--------|--------|--------|--------|--------|--------|--------|--------|--------|
D|--------|--------|--------|--------|--------|--------|--------|--------|--------|
A|--------|--------|--------|--------|--------|--------|--------|--------|--------|
E|--------|--------|--------|--------|--------|--------|--------|--------|--------|


E|--------|--------|--------|--------|--------|--------|--------|--------|--------|
B|--------|--------|--------|--------|--------|--------|--------|--------|--------|
G|--------|--------|--------|--------|--------|--------|--------|--------|--------|
D|--------|--------|--------|--------|--------|--------|--------|--------|--------|
A|--------|--------|--------|--------|--------|--------|--------|--------|--------|
E|--------|--------|--------|--------|--------|--------|--------|--------|--------|


E|--------|--------|--------|--------|--------|--------|--------|--------|--------|
B|--------|--------|--------|--------|--------|--------|--------|--------|--------|
G|--------|--------|--------|--------|--------|--------|--------|--------|--------|
D|--------|--------|--------|--------|--------|--------|--------|--------|--------|
A|--------|--------|--------|--------|--------|--------|--------|--------|--------|
E|--------|--------|--------|--------|--------|--------|--------|--------|--------|


E|--------|--------|--------|--------|--------|--------|--------|--------|--------|
B|--------|--------|--------|--------|--------|--------|--------|--------|--------|
G|--------|--------|--------|--------|--------|--------|--------|--------|--------|
D|--------|--------|--------|--------|--------|--------|--------|--------|--------|
A|--------|--------|--------|--------|--------|--------|--------|--------|--------|
E|--------|--------|--------|--------|--------|--------|--------|--------|--------|


E|--------|--------|--------|--------|--------|--------|--------|--------|--------|
B|--------|--------|--------|--------|--------|--------|--------|--------|--------|
G|--------|--------|--------|--------|--------|--------|--------|--------|--------|
D|--------|--------|--------|--------|--------|--------|--------|--------|--------|
A|--------|--------|--------|--------|--------|--------|--------|--------|--------|
E|--------|--------|--------|--------|--------|--------|--------|--------|--------|


E|--------|--------|--------|--------|--------|--------|--------|--------|--------|
B|--------|--------|--------|--------|--------|--------|--------|--------|--------|
G|--------|--------|--------|--------|--------|--------|--------|--------|--------|
D|--------|--------|--------|--------|--------|--------|--------|--------|--------|
A|--------|--------|--------|--------|--------|--------|--------|--------|--------|
E|--------|--------|--------|--------|--------|--------|--------|--------|--------|


E|--------|--------|--------|--------|--------|--------|--------|--------|--------|
B|--------|--------|--------|--------|--------|--------|--------|--------|--------|
G|--------|--------|--------|--------|--------|--------|--------|--------|--------|
D|--------|--------|--------|--------|--------|--------|--------|--------|--------|
A|--------|--------|--------|--------|--------|--------|--------|--------|--------|
E|--------|--------|--------|--------|--------|--------|--------|--------|--------|


E|--------|--------|--------|--------|--------|--------|--------|--------|--------|
B|--------|--------|--------|--------|--------|--------|--------|--------|--------|
G|--------|--------|--------|--------|--------|--------|--------|--------|--------|
D|--------|--------|--------|--------|--------|--------|--------|--------|--------|
A|--------|--------|--------|--------|--------|--------|--------|--------|--------|
E|--------|--------|--------|--------|--------|--------|--------|--------|--------|


E|--------|--------|--------|--------|--------|--------|--------|--------|--------|
B|--------|--------|--------|--------|--------|--------|--------|--------|--------|
G|--------|--------|--------|--------|--------|--------|--------|--------|--------|
D|--------|--------|--------|--------|--------|--------|--------|--------|--------|
A|--------|--------|--------|--------|--------|--------|--------|--------|--------|
E|--------|--------|--------|--------|--------|--------|--------|--------|--------|


E|--------|--------|--------|--------|--------|--------|--------|--------|--------|
B|--------|--------|--------|--------|--------|--------|--------|--------|--------|
G|--------|--------|--------|--------|--------|--------|--------|--------|--------|
D|--------|--------|--------|--------|--------|--------|--------|--------|--------|
A|--------|--------|--------|--------|--------|--------|--------|--------|--------|
E|--------|--------|--------|--------|--------|--------|--------|--------|--------|


E|--------|--------|--------|--------|--------|--------|--------|--------|--------|
B|--------|--------|--------|--------|--------|--------|--------|--------|--------|
G|--------|--------|--------|--------|--------|--------|--------|--------|--------|
D|--------|--------|--------|--------|--------|--------|--------|--------|--------|
A|--------|--------|--------|--------|--------|--------|--------|--------|--------|
E|--------|--------|--------|--------|--------|--------|--------|--------|--------|


E|--------|--------|--------|--------|--------|--------|--------|------------------------|
B|--------|--------|--------|--------|--------|--------|--------|------------------------|
G|--------|--------|--------|--------|--------|--------|--------|------4----2---5----4---|
D|--------|--------|--------|--------|--------|--------|--------|------------------------|
A|--------|--------|--------|--------|--------|--------|--------|------------------------|
E|--------|--------|--------|--------|--------|--------|--------|------------------------|


E|---------------------------|----------------|--------|--------|--------|--------|
B|-4--------5----4---7---5---|-7---8----------|--------|--------|--------|--------|
G|------5--------------------|----------------|--------|--------|--------|--------|
D|---------------------------|----------------|--------|--------|--------|--------|
A|---------------------------|----------------|--------|--------|--------|--------|
E|---------------------------|----------------|--------|--------|--------|--------|


E|--------|--------|--------|--------|--------|--------|--------|--------|--------|
B|--------|--------|--------|--------|--------|--------|--------|--------|--------|
G|--------|--------|--------|--------|--------|--------|--------|--------|--------|
D|--------|--------|--------|--------|--------|--------|--------|--------|--------|
A|--------|--------|--------|--------|--------|--------|--------|--------|--------|
E|--------|--------|--------|--------|--------|--------|--------|--------|--------|


E|--------|--------|--------|--------|--------|--------|--------|--------|--------|
B|--------|--------|--------|--------|--------|--------|--------|--------|--------|
G|--------|--------|--------|--------|--------|--------|--------|--------|--------|
D|--------|--------|--------|--------|--------|--------|--------|--------|--------|
A|--------|--------|--------|--------|--------|--------|--------|--------|--------|
E|--------|--------|--------|--------|--------|--------|--------|--------|--------|


E|--------|--------|--------|--------|
B|--------|--------|--------|--------|
G|--------|--------|--------|--------|
D|--------|--------|--------|--------|
A|--------|--------|--------|--------|
E|--------|--------|--------|--------|





Track 12: Ellefson

G|---------------------|------------------------|---------------------------|---------------------------------|
D|---------------------|------------------------|---------------------------|---------------------------------|
A|-2---1-----2---1-----|-2---1-----2---1--------|----------------------7----|---------------------------------|
E|---------------------|--------------------3---|-3----0---0---0---0--------|-0---0---0---0---0---0---0---0---|


G|------------------------------|---------------------------------|---------------------------|
D|------------------------------|---------------------------------|---------------------------|
A|-------------------------7----|---------------------------------|----------------------7----|
E|-0---0---0---0---0---0--------|-0---0---0---3---4---0---5---3---|------0---0---0---0--------|


G|---------------------------------|------------------------------|---------------------------------|
D|---------------------------------|------------------------------|---------------------------------|
A|---------------------------------|-------------------------7----|---------------------------------|
E|-0---0---0---0---0---0---0---0---|-0---1---0---0---0---0--------|-0---0---0---3---4---0---5---3---|


G|---------------------------|---------------------------------|------------------------------|
D|---------------------------|---------------------------------|------------------------------|
A|----------------------7----|---------------------------------|-------------------------7----|
E|------0---0---0---0--------|-0---0---0---0---0---0---0---0---|-0---0---0---0---0---0--------|


G|---------------------------------|---------------------------|---------------------------------|
D|---------------------------------|---------------------------|---------------------------------|
A|---------------------------------|----------------------7----|---------------------------------|
E|-0---0---0---3---4---0---5---3---|------0---0---0---0--------|-0---0---0---0---0---0---0---0---|


G|------------------------------|---------------------------------|------------------|
D|------------------------------|---------------------------------|------------------|
A|-------------------------7----|---------------------------------|------------------|
E|-0---1---0---0---0---0--------|-0---0---0---3---4---0---5---3---|------0-----2-----|


G|------------------------|---------------------|------------------------|---------------------|
D|------------------------|---------------------|------------------------|---------------------|
A|----------------5---4---|-5---7---------------|----------------5---4---|-5---7---7-----5-----|
E|-3----3---5-------------|---------0-----2-----|-3----3---5-------------|---------------------|


G|------------------------|---------------------------|---------------------------|
D|------------------------|---------------------------|-1--------2----1---4---2---|
A|-3----3---2-----2---0---|-5---0---2--------3----2---|------3--------------------|
E|------------------------|--------------5------------|---------------------------|


G|-----------------------------------|---------------------------------|------------------------------|
D|-4---5-----------------------------|---------------------------------|------------------------------|
A|---------------------------7-------|---------------------------------|------------------7---7-------|
E|---------0---0---0--0--0-------0---|-7---6---6---6---6---6---6---0---|-1----0---0---0---------------|


G|------------------------------|------------------------------|---------------------------------|
D|------------------------------|------------------------------|---------------------------------|
A|------------------------------|----------------------7-------|---------------------------------|
E|-7---6---6----7---6---6---6---|-1----0---0---0---0-------0---|-7---6---6---6---6---6---6---0---|


G|--------------------------------|------------------------------|------------------|
D|--------------------------------|------------------------------|------------------|
A|------------------------7-------|------------------------------|------------------|
E|-1----0---0---0--0--0-------0---|-7---6---6----7---6---6---6---|-1----2-----0-----|


G|---------------------|---------------------------|---------------------------------|
D|---------------------|---------------------------|---------------------------------|
A|---------------------|----------------------7----|---------------------------------|
E|-5----5---3-----2----|-1----0---0---0---0--------|-0---0---0---0---0---0---0---0---|


G|------------------------------|---------------------------------|---------------------------|
D|------------------------------|---------------------------------|---------------------------|
A|-------------------------7----|---------------------------------|----------------------7----|
E|-0---0---0---0---0---0--------|-0---0---0---3---4---0---5---3---|------0---0---0---0--------|


G|---------------------------------|------------------------------|---------------------------------|
D|---------------------------------|------------------------------|---------------------------------|
A|---------------------------------|-------------------------7----|---------------------------------|
E|-0---0---0---0---0---0---0---0---|-0---1---0---0---0---0--------|-0---0---0---3---4---0---5---3---|


G|---------------------------|---------------------------------|------------------------------|
D|---------------------------|---------------------------------|------------------------------|
A|----------------------7----|---------------------------------|-------------------------7----|
E|------0---0---0---0--------|-0---0---0---0---0---0---0---0---|-0---0---0---0---0---0--------|


G|---------------------------------|---------------------------|---------------------------------|
D|---------------------------------|---------------------------|---------------------------------|
A|---------------------------------|----------------------7----|---------------------------------|
E|-0---0---0---3---4---0---5---3---|------0---0---0---0--------|-0---0---0---0---0---0---0---0---|


G|------------------------------|---------------------------------|------------------|
D|------------------------------|---------------------------------|------------------|
A|-------------------------7----|---------------------------------|------------------|
E|-0---1---0---0---0---0--------|-0---0---0---3---4---0---5---3---|------0-----2-----|


G|------------------------|---------------------|------------------------|---------------------|
D|------------------------|---------------------|------------------------|---------------------|
A|----------------5---4---|-5---7---------------|----------------5---4---|-5---7---7-----5-----|
E|-3----3---5-------------|---------0-----2-----|-3----3---5-------------|---------------------|


G|------------------------|---------------------------|---------------------------|
D|------------------------|---------------------------|-1--------2----1---4---2---|
A|-3----3---2-----2---0---|-5---0---2--------3----2---|------3--------------------|
E|------------------------|--------------5------------|---------------------------|


G|-----------------------------------|---------------------------------|------------------------------|
D|-4---5-----------------------------|---------------------------------|------------------------------|
A|---------------------------7-------|---------------------------------|------------------7---7-------|
E|---------0---0---0--0--0-------0---|-7---6---6---6---6---6---6---0---|-1----0---0---0---------------|


G|------------------------------|------------------------------|---------------------------------|
D|------------------------------|------------------------------|---------------------------------|
A|------------------------------|----------------------7-------|---------------------------------|
E|-7---6---6----7---6---6---6---|-1----0---0---0---0-------0---|-7---6---6---6---6---6---6---0---|


G|--------------------------------|------------------------------|--------------------------------|
D|--------------------------------|------------------------------|--------------------------------|
A|------------------------7-------|------------------------------|------------------------7-------|
E|-1----0---0---0--0--0-------0---|-7---6---6----7---6---6---6---|-1----0---0---0--0--0-------0---|


G|---------------------------------|------------------------------|------------------------------|
D|---------------------------------|------------------------------|------------------------------|
A|---------------------------------|----------------------7-------|------------------------------|
E|-7---6---6---6---6---6---6---0---|-1----0---0---0---0-------0---|-7---6---6----7---6---6---6---|


G|------------------|---------------------|---------------------|-------------------------------|
D|------------------|---------------------|---------------------|-------------------------------|
A|------------------|---------------------|---------------------|-------------------------------|
E|-1----2-----0-----|-5----5---3-----2----|-1----2-----0----2---|-3----3---0-------2---3----2---|


G|-------------------------|-------------------------------|----------------------------------|
D|-------------------------|-------------------------------|----------------------------------|
A|-------------------------|----------------------5----4---|-----2----------------------------|
E|-----1----2-----0----2---|-3----3---0-------2------------|----------2---2---2---2---2---2---|


G|------------------------------|---------------------------------|------------------------------|
D|------------------------------|---------------------------------|------------------------------|
A|------------------------------|---------------------------------|------------------------------|
E|-2---2---2---2---2---5----6---|-5---4---2---2---2---2---2---2---|-2---2---2---2---2---5----6---|


G|---------------------------------|------------------------------|---------------------------------|
D|---------------------------------|------------------------------|---------------------------------|
A|---------------------------------|------------------------------|---------------------------------|
E|-5---4---2---2---2---2---2---2---|-2---2---2---2---2---5----6---|-5---4---2---2---2---2---2---2---|


G|------------------------------|---------------------------------|---------------------------------|
D|------------------------------|---------------------------------|---------------------------------|
A|------------------------------|---------------------------------|---------------------------------|
E|-2---2---2---2---2---5----6---|-5---4---3---3---3---3---3---3---|-3---3---3---3---3---3---3---0---|


G|---------------------------------|---------------------------------|---------------------------------|
D|---------------------------------|---------------------------------|---------------------------------|
A|---------------------------------|---------------------------------|---------------------------------|
E|-1---2---3---3---3---3---3---3---|-3---3---3---3---3---3---3---0---|-1---2---3---3---3---3---3---3---|


G|---------------------------------|---------------------------------|---------------------------------|
D|---------------------------------|---------------------------------|---------------------------------|
A|---------------------------------|---------------------------------|---------------------------------|
E|-3---3---3---3---3---3---3---0---|-1---2---5---5---5---5---5---5---|-5---6---6---6---6---6---6---5---|


G|---------------------------------|----------------|---------------------------|------------------------|
D|---------------------------------|----------------|---------------------------|------------------------|
A|---------------------------------|----------------|---------------------------|------------------------|
E|-3---1---0---0---0-------0---0---|-0--------------|------0---0---0--------0---|-0---0---------3----4---|


G|------------------------------|------------------------|---------------------------|
D|------------------------------|------------------------|---------------------------|
A|------------------------------|------------------------|---------------------------|
E|-3---1---0---0---0--------0---|-0---0---------3----4---|-3---1---0--------3----4---|


G|---------------------------|------------------------------|---------------------------------|
D|---------------------------|------------------------------|---------------------------------|
A|---------------------------|-------------------------7----|---------------------------------|
E|-3---1---0--------0--------|-0-------0---0---0---0--------|-0---0---0---0---0---0---0---0---|


G|------------------------------|---------------------------------|---------------------------|
D|------------------------------|---------------------------------|---------------------------|
A|-------------------------7----|---------------------------------|----------------------7----|
E|-0---0---0---0---0---0--------|-0---0---0---3---4---0---5---3---|------0---0---0---0--------|


G|---------------------------------|------------------------------|---------------------------------|
D|---------------------------------|------------------------------|---------------------------------|
A|---------------------------------|-------------------------7----|---------------------------------|
E|-0---0---0---0---0---0---0---0---|-0---1---0---0---0---0--------|-0---0---0---3---4---0---5---3---|


G|---------------------------|---------------------------------|------------------------------|
D|---------------------------|---------------------------------|------------------------------|
A|----------------------7----|---------------------------------|-------------------------7----|
E|------0---0---0---0--------|-0---0---0---0---0---0---0---0---|-0---0---0---0---0---0--------|


G|---------------------------------|---------------------------|---------------------------------|
D|---------------------------------|---------------------------|---------------------------------|
A|---------------------------------|----------------------7----|---------------------------------|
E|-0---0---0---3---4---0---5---3---|------0---0---0---0--------|-0---0---0---0---0---0---0---0---|


G|------------------------------|---------------------------------|------------------|
D|------------------------------|---------------------------------|------------------|
A|-------------------------7----|---------------------------------|------------------|
E|-0---1---0---0---0---0--------|-0---0---0---3---4---0---5---3---|------0-----2-----|


G|------------------------|---------------------|------------------------|---------------------|
D|------------------------|---------------------|------------------------|---------------------|
A|----------------5---4---|-5---7---------------|----------------5---4---|-5---7---7-----5-----|
E|-3----3---5-------------|---------0-----2-----|-3----3---5-------------|---------------------|


G|------------------------|---------------------------|---------------------------|
D|------------------------|---------------------------|-1--------2----1---4---2---|
A|-3----3---2-----2---0---|-5---0---2--------3----2---|------3--------------------|
E|------------------------|--------------5------------|---------------------------|


G|------------------------------|----------------|-----------------------------------|
D|-4---5---7---5---7---8---9----|----------------|-----------------------------------|
A|------------------------------|----------------|-----------7-----------------------|
E|------------------------------|--------0---0---|-0--0--0-------0---7---6---6---6---|


G|------------------------------|------------------------------|------------------------------|
D|------------------------------|------------------------------|------------------------------|
A|------------------------------|-----7---7--------------------|------------------------------|
E|-6---6---6---0---1----0---0---|-0---------------7---6---6----|-7---6---6---6---1----0---0---|


G|-----------------------------------|------------------------------|------------------------------|
D|-----------------------------------|------------------------------|------------------------------|
A|-----------7-----------------------|------------------------------|-----7---7--------------------|
E|-0--0--0-------0---7---6---6---6---|-6---6---6---0---1----0---0---|-0---------------7---6---6----|


G|------------------------------|-----------------------------------|------------------------------|
D|------------------------------|-----------------------------------|------------------------------|
A|------------------------------|-----------7-----------------------|------------------------------|
E|-7---6---6---6---1----0---0---|-0--0--0-------0---7---6---6---6---|-6---6---6---0---1----0---0---|


G|------------------------------|------------------------------|-----------------------------------|
D|------------------------------|------------------------------|-----------------------------------|
A|-----7---7--------------------|------------------------------|-----------7-----------------------|
E|-0---------------7---6---6----|-7---6---6---6---1----0---0---|-0--0--0-------0---7---6---6---6---|


G|------------------------------|------------------------------|------------------------------|
D|------------------------------|------------------------------|------------------------------|
A|------------------------------|-----7---7--------------------|------------------------------|
E|-6---6---6---0---1----0---0---|-0---------------7---6---6----|-7---6---6---6---1----0---0---|


G|--------------------------------|---------------------------|--------------------------------|
D|--------------------------------|---------------------------|--------------------------------|
A|-----------7--------------------|---------------------------|-----------7--------------------|
E|-0--0--0-----------7---6---6----|-7---6---6----1----0---0---|-0--0--0-----------7---6---6----|


G|---------------------------|--------------------------------|---------------------------|
D|---------------------------|--------------------------------|---------------------------|
A|---------------------------|-----------7--------------------|---------------------------|
E|-7---6---6----1----0---0---|-0--0--0-----------7---6---6----|-7---6---6----1----0---0---|


G|--------------------------------|---------------------------|---------------------------|
D|--------------------------------|---------------------------|---------------------------|
A|-----------7--------------------|---------------------------|---------------------------|
E|-0--0--0-------0---7---6---6----|-7---6---6----7---6---6----|-7---6---6----7---0--------|