Menu:

 

Search:

 

mario gangi - suite italiana i allegro vivo:

 



Title: Suite Italiana - I.Allegro vivo
Artist: 
Album: 
Author: Mario Gangi


Track 1: Guitar I

E|---------------------------|------------------------------|---------------------------|
B|---------------------------|------------------------------|-10------8-----8-------8---|
G|-------------------7-------|----------7---7-------7---9---|-----9-------------9-------|
D|-7-----7---9---10------10--|-9---10-----------10----------|---------------------------|
A|---------------------------|------------------------------|---------------------------|
E|---------------------------|------------------------------|---------------------------|


E|-----------------10--12--12--8---|---------0-------------------5---|-----3---1---0-------3----1---|
B|-10--8---10--11------------------|-11--9-------11--10----------5---|-----------------3---3--------|
G|---------------------------------|---------------------------------|------------------------------|
D|---------------------------------|---------------------------------|---------0--------------------|
A|---------------------------------|-----------------------------4---|---------------------2--------|
E|---------------------------------|---------------------------------|------------------------------|


E|-0-----------1---0-------0----|------------------------|-------------0---1---------------|
B|-----3---1-----------4--------|-0----------------------|-0---2---3-------------------0---|
G|------------------------------|-----5----1---2-----2---|---------------------0---2-------|
D|------------------------------|------------------------|---------0-----------------------|
A|-3-----------0----------------|--------------0-----0---|---------------------------------|
E|-------------------------4----|-----0------------------|---------------------3-----------|


E|---------0-----------------------|-----0---2---4---5---------------|-----------------1-----------0---|
B|-1---3-------------------0---1---|-3-------------------5-----------|-------------0-----------3-------|
G|-----------------0---2-----------|-------------------------5-------|---------2-----------1-----------|
D|-------------3-------------------|-----------------------------7---|---------------------------------|
A|-3-----------------------2-------|---------------------------------|---------------------------------|
E|-------------1-------------------|-----0-----------5---------------|---------------------------------|


E|---------0-----------0-----------|-0-----------0---5---------------|-----------------13----------13--|
B|-----1-----------1-----------3---|---------3-----------5-----------|-------------13----------12------|
G|-2-------------------------------|-------------------------5-------|---------------------------------|
D|-------------------------2-------|-----------------------------7---|---------12----------------------|
A|-------------0-------------------|---------------------------------|---------------------10----------|
E|---------------------------------|-----0-----------5---------------|---------------------------------|


E|---------12----------12----------|-10----------7---5-----5---|-----3---1---0-------3----1---|
B|-----12----------10----------10--|---------9-------5-----5---|-----5-----------3---3--------|
G|---------------------------------|-----7-----------5---------|------------------------------|
D|-10----------------------9-------|---------------------------|---------0--------------------|
A|-------------8-------------------|-----7-----------------4---|---------------------2--------|
E|---------------------------------|-----------------5---------|------------------------------|


E|-0-----------1---0-------0----|------------------------|-------------0---1---------------|
B|-----3---1-----------4--------|-0----------------------|-0---2---3-------------------0---|
G|------------------------------|-----5----1---2-----2---|---------------------0---2-------|
D|------------------------------|------------------------|---------0-----------------------|
A|-3-----------0----------------|--------------0-----0---|---------------------------------|
E|-------------------------4----|-----0------------------|---------------------3-----------|


E|---------0-----------------------|-----0---2---4---5---------------|-----------------1-----------0---|
B|-1---3-------------------0---1---|-3-------------------5-----------|-------------0-----------3-------|
G|-----------------0---2-----------|-------------------------5-------|---------2-----------1-----------|
D|-------------3-------------------|-----------------------------7---|---------------------------------|
A|-3-----------------------2-------|---------------------------------|---------------------------------|
E|-------------1-------------------|-----0-----------5---------------|---------------------------------|


E|---------0-----------0-----------|-0-----------0---5---------------|-----------------13----------13--|
B|-----1-----------1-----------3---|---------3-----------5-----------|-------------13----------12------|
G|-2-------------------------------|-------------------------5-------|---------------------------------|
D|-------------------------2-------|-----------------------------7---|---------12----------------------|
A|-------------0-------------------|---------------------------------|---------------------10----------|
E|---------------------------------|-----0-----------5---------------|---------------------------------|


E|---------12----------12----------|-10----------7---5---------|---------------------|
B|-----12----------10----------10--|---------9-------5---------|---------3-----1-----|
G|---------------------------------|-----7-----------5---------|---------2-----2-----|
D|-10----------------------9-------|---------------------------|---------4-----1-----|
A|-------------8-------------------|-----7---------------------|---------0-----0-----|
E|---------------------------------|-----------------5---------|---------------------|


E|-------------|-----------------|--------------10----------10--|---------9-----------9-----------|
B|-2------3----|-----1-----2-----|----------10----------9-------|-----8-----------7-----------6---|
G|-2------2----|-----2-----2-----|------------------------------|---------------------------------|
D|-2------4----|-----1-----2-----|------9-----------------------|-7-----------0-----------0-------|
A|-0------0----|-----0-----0-----|------------------7-----------|---------------------------------|
E|-------------|-----------------|------------------------------|---------------------------------|


E|-7---------------5----0---0---|-----0---2----2---2---0-------|-2----0---0-------0---2---2---|
B|-------------9---5------------|-4-------3--------1-------4---|-2------------4-------3-------|
G|---------7-------6------------|------------------------------|------------------------------|
D|------------------------------|------------------------------|------------------------------|
A|-----7-----------0------------|---------0--------0-----------|-0--------------------0-------|
E|------------------------------|------------------------------|------------------------------|


E|-2---2---0-------2----0-------|---------------------------------|---------------------------------|
B|-----1-------4---2--------5---|-----5-------5---7---7---5-------|---------5---5-------------------|
G|------------------------------|-8-------7-------------------7---|-6---7-----------7---6---4---6---|
D|------------------------------|---------------------------------|---------------------------------|
A|-----0-----------0------------|---------------------------------|---------------------------------|
E|------------------------------|---------------------------------|---------------------------------|


E|-------------4---5---------|-----------------------------10--|-----10--12--10--12--13--12--10--|
B|-----5---7-------5---------|---------10--12--13--12--13------|-13------------------------------|
G|-7---------------6---------|---------------------------------|---------------------------------|
D|---------------------------|---------------------------------|---------------------------------|
A|-----------------0---------|---------------------------------|---------------------------------|
E|---------------------------|---------------------------------|---------------------------------|


E|-----10--------------------------|-----------------------------10--|-----10--12--10--12--13--12--10--|
B|-13------13--12--11--13--11------|-10--11--10--12--13--12--13------|-13------------------------------|
G|-----------------------------13--|---------------------------------|---------------------------------|
D|---------------------------------|---------------------------------|---------------------------------|
A|---------------------------------|---------------------------------|---------------------------------|
E|---------------------------------|---------------------------------|---------------------------------|


E|-----10--------------8---10------|-----------------------------8---|-----8---10--8---10--11--10--8---|
B|-13------13--12--11--------------|---------8---10--11--10--11------|-11------------------------------|
G|-----------------------------9---|-10--11--------------------------|---------------------------------|
D|---------------------------------|---------------------------------|---------------------------------|
A|---------------------------------|---------------------------------|---------------------------------|
E|---------------------------------|---------------------------------|---------------------------------|


E|-----8---------------------------|-----------------------------8---|-----8---10--8---10--11--10--8---|
B|-11------11--10--9---11--9-------|-8---9---8---10--11--10--11------|-11------------------------------|
G|-----------------------------11--|---------------------------------|---------------------------------|
D|---------------------------------|---------------------------------|---------------------------------|
A|---------------------------------|---------------------------------|---------------------------------|
E|---------------------------------|---------------------------------|---------------------------------|


E|-----8---------------------------|-----2---3-----0-----|-3-----0-----3----|-----0-----3-----0---|
B|-11------11--10--9---11--9---3---|-5-------3-----1-----|-3-----1-----3----|-----1-----3-----1---|
G|---------------------------------|---------3-----0-----|-3-----0-----3----|-----0-----3-----0---|
D|---------------------------------|---------------------|------------------|---------------------|
A|---------------------------------|---------------3-----|-------3----------|-----3-----------3---|
E|---------------------------------|---------3-----------|-3-----------3----|-----------3---------|


E|------------------------------|---------------------------------|-----14---14--9-----|
B|----------9---10--12--10--9---|-----9---10--12--10--9-----------|--------------------|
G|------11----------------------|-11----------------------11--11--|-11-----------------|
D|------------------------------|---------------------------------|--------------------|
A|------------------------------|---------------------------------|--------------------|
E|------------------------------|---------------------------------|--------------------|


E|------14--12--10--12--10--9---|-10--9-------9-----------14--14--|-14--9---9---9-------------------|
B|------------------------------|---------12------12--10--11------|-----------------11--11--11------|
G|------------------------------|-------------------------0-------|-----------------------------12--|
D|------------------------------|-------------------------0-------|---------------------------------|
A|------------------------------|-------------------------0-------|---------------------------------|
E|------------------------------|---------------------------------|---------------------------------|


E|----------------|--------13--13--|-13--9---9---9-------------------|----------------|
B|---------0------|-0------11------|-----------------11--11--11------|-10--11--10-----|
G|-12--12--0------|-0------0-------|-----------------------------12--|----------------|
D|---------0------|-0------0-------|---------------------------------|----------------|
A|---------0------|-0------0-------|---------------------------------|----------------|
E|---------0------|-0--------------|---------------------------------|----------------|


E|--------10--8---|-10--10--8---10--12--10--12--12--|------13--12--13--13--12--13--|
B|-10-------------|---------------------------------|------------------------------|
G|----------------|---------------------------------|------------------------------|
D|----------------|---------------------------------|------------------------------|
A|----------------|---------------------------------|------------------------------|
E|----------------|---------------------------------|------------------------------|


E|-15--13--15--15---------|------------------------------|---------15--12--------------12--|
B|-------------------8----|---------5---8---6------------|-3---6-----------13------13------|
G|------------------------|-----5--------------------3---|---------------------14----------|
D|------------------------|-7--------------------5-------|---------------------------------|
A|------------------------|------------------------------|---------------------------------|
E|------------------------|------------------------------|---------------------------------|


E|-13--10--------------10--12---|-12--12--12--12--0----0---0---|-0---0---0-----------------|
B|---------11------11-----------|------------------------------|---------------------------|
G|-------------12----------9----|-----9------------------------|---------------------------|
D|------------------------------|-----------------2--------2---|---------2-----------2-----|
A|------------------------------|------------------------------|---------------------------|
E|------------------------------|------------------------------|---------------------0-----|


E|---------------------------|-5-------5--------------------|------------------------------|
B|-5-----------5-------------|-----8-------8---6--------6---|-8---6---5--------5---6---5---|
G|-------------------2-------|----------------------7-------|--------------5---------------|
D|-2-----------2-------------|------------------------------|------------------------------|
A|-------------------0-------|------------------------------|------------------------------|
E|---------------------------|------------------------------|------------------------------|


E|------------------------|---------------------------------|---------------------------------|
B|----------5----5--------|-------------2-----------3-------|-----0-----------1-----------1---|
G|-8----8-----------------|---------2-----------2-----------|-0-----------0-----------2-------|
D|-------------------7----|-----------------0---------------|---------------------2-----------|
A|------------------------|-----4-----------------------2---|---------3-----------0-----------|
E|------------------------|---------------------------------|---------------------------------|


E|------------------------------|-----12---12--13---14--15--|-----16--17-------------------|
B|---------0-----------0--------|---------------------------|------------------------------|
G|-----2-----------1-------2----|-----9----9---10---11--12--|-----13--14----------2----3---|
D|-1-----------0-----------2----|---------------------------|------------------------------|
A|-------------------------0----|---------------------------|---------------------0----1---|
E|-1-----------0----------------|---------------------------|------------------------------|


E|------------------------|-----12---12--13---14--15--|-----16--17-------------------|
B|------------------------|---------------------------|------------------------------|
G|-4----4--------1---2----|-----9----9---10---11--12--|-----13--14----------2----3---|
D|----------2-------------|---------------------------|------------------------------|
A|-2----2------------0----|---------------------------|---------------------0----1---|
E|----------0----4--------|---------------------------|------------------------------|


E|---------------------------|--------------------|-------------|------------------------|
B|---------------------------|--------------------|-------------|-------------------10---|
G|-4----4--------1---2-------|--------------------|-------------|---------------9--------|
D|----------2----------------|--------------------|-------------|-------------------7----|
A|-2-----------------0-------|--------------------|-------------|---------------7--------|
E|----------0----4-----------|--------------------|-------------|------------------------|


E|--------------------|------------10--12--10--|-----10-----------------------|-----12---15--14----|
B|--------------------|------------------------|-13------13--11--13--11--10---|-13-----------------|
G|-9---9----7---9-----|------9-----------------|------------------------------|--------------------|
D|--------------------|------------------------|------------------------------|--------------------|
A|-7---7----5---7-----|------7-----------------|------------------------------|--------------------|
E|--------------------|------------------------|------------------------------|--------------------|


E|------14---10--12---14--|-12---------------------|--------------------|------------8---10--8---|
B|------------------------|-------------------8----|--------------------|------------------------|
G|------------------------|---------------7--------|-7---7----5---7-----|------7-----------------|
D|------------------------|-------------------5----|--------------------|------------------------|
A|------------------------|---------------5--------|-5---5----3---5-----|------5-----------------|
E|------------------------|------------------------|--------------------|------------------------|


E|-----8------------------------|-----10---13--12----|------12---8---10---12--|-10-----7-------|
B|-11------11--9---11--9---8----|-11-----------------|------------------------|------------10--|
G|------------------------------|--------------------|------------------------|----------------|
D|------------------------------|--------------------|------------------------|----------------|
A|------------------------------|--------------------|------------------------|----------------|
E|------------------------------|--------------------|------------------------|----------------|


E|-----8---10--8---5-----------6---|-8---6---4---5---6-----------4---|-5------5----|
B|-8-------------------8---6-------|---------------------5---7-------|-------------|
G|---------------------------------|---------------------------------|-------------|
D|---------------------------------|---------------------------------|-------------|
A|---------------------------------|---------------------------------|-------------|
E|---------------------------------|---------------------------------|-------------|


E|-------10--8---10--10--|-8---10--12--10--12--12----|-13--12--13--13--12--13--15--13--|
B|-----------------------|---------------------------|---------------------------------|
G|-----------------------|---------------------------|---------------------------------|
D|-----------------------|---------------------------|---------------------------------|
A|-----------------------|---------------------------|---------------------------------|
E|-----------------------|---------------------------|---------------------------------|


E|-15--15-----------------|------------------------------|-15--12--------------12--13--10--|
B|-----------8------------|-5---8---6------------3---6---|---------13------13--------------|
G|--------------------5---|------------------3-----------|-------------14------------------|
D|----------------7-------|--------------5---------------|---------------------------------|
A|------------------------|------------------------------|---------------------------------|
E|------------------------|------------------------------|---------------------------------|


E|-------------10--12---12--12--|-12--12--0----0---0---0---0---|-0-------------------------|
B|-11------11-------------------|------------------------------|-------------------5-------|
G|-----12----------9--------9---|------------------------------|---------------------------|
D|------------------------------|---------2--------2-----------|-2-----------2-----2-------|
A|------------------------------|------------------------------|---------------------------|
E|------------------------------|------------------------------|-------------0-------------|


E|-------------------5-------|-5----------------------------|---------------------------|
B|-----5-----------------8---|-----8---6--------6---8---6---|-5--------5---6---5--------|
G|-----------2---------------|--------------7---------------|------5---------------8----|
D|-----2---------------------|------------------------------|---------------------------|
A|-----------0---------------|------------------------------|---------------------------|
E|---------------------------|------------------------------|---------------------------|


E|---------------------------|---------------------------------|---------------------------------|
B|-----5----5----------------|-----2-----------3-----------0---|---------1-----------1-----------|
G|-8-------------------------|-2-----------2-----------0-------|-----0-----------2-----------2---|
D|--------------7------------|---------0-----------------------|-------------2-----------1-------|
A|-----------------------4---|---------------------2-----------|-3-----------0-------------------|
E|---------------------------|---------------------------------|-------------------------1-------|


E|--------------------------12--|-----12--13---14--15---16--|-17------------------------|
B|-0-----------0----------------|---------------------------|---------------------------|
G|---------1-------2--------9---|-----9---10---11--12---13--|-14----------2----3---4----|
D|-----0-----------2------------|---------------------------|---------------------------|
A|-----------------0------------|---------------------------|-------------0----1---2----|
E|-----0------------------------|---------------------------|---------------------------|


E|-----------------------12--|-----12--13---14--15---16--|-17------------------------|
B|---------------------------|---------------------------|---------------------------|
G|-4--------1---2--------9---|-----9---10---11--12---13--|-14----------2----3---4----|
D|-----2---------------------|---------------------------|---------------------------|
A|-2------------0------------|---------------------------|-------------0----1---2----|
E|-----0----4----------------|---------------------------|---------------------------|


E|---------------------------|-----0-----------1-----------0---|---------0-----------0-----------|
B|---------------------------|-1-----------3-----------3-------|-----1-----------1-----------3---|
G|-4--------1---2--------2---|---------4-----------1-----------|-2-----------2-----------3-------|
D|-----2---------------------|---------------------------------|-------------------------0-------|
A|--------------0--------0---|---------0-----------0-----------|-0-----------3-------------------|
E|-----0----4----------------|---------------------------------|---------------------------------|


E|-1-----------0------------10--|-12--13--15--13--12--12--13--15--|-13--12--10--10--12--13--11--13--|
B|---------3--------------------|---------------------------------|---------------------------------|
G|-----1-----------2------------|---------------------------------|---------------------------------|
D|------------------------------|---------------------------------|---------------------------------|
A|-----------------0------------|---------------------------------|---------------------------------|
E|-----0------------------------|---------------------------------|---------------------------------|


E|-11--9---12--9---10--------------|---------------------------------|----------12---12--13---|
B|---------------------13--11--10--|-----------------9---9---10--12--|-10---------------------|
G|---------------------------------|-12--10--9---11------------------|----------9----9---10---|
D|---------------------------------|---------------------------------|------------------------|
A|---------------------------------|---------------------------------|------------------------|
E|---------------------------------|---------------------------------|------------------------|


E|-14--15---16--17--------------|---------------------------|----------12---12--13---|
B|------------------------------|---------------------------|------------------------|
G|-11--12---13--14----------2---|-----3---4----4--------1---|-2--------9----9---10---|
D|------------------------------|------------------2--------|------------------------|
A|--------------------------0---|-----1---2-----------------|-0----------------------|
E|------------------------------|------------------0----4---|------------------------|


E|-14--15---16--17-----------|---------------------------|------5---------------5----|
B|---------------------------|---------------------------|----------8---6---5--------|
G|-11--12---13--14---9---10--|-----9---8----8---9----9---|---------------------------|
D|---------------------------|---------------------------|-7-------------------------|
A|-------------------7---8---|-----7---6----6---7----7---|-0-------------------------|
E|---------------------------|---------------------------|---------------------------|


E|----------------------5-------|---------------------------|------5---------------5----|
B|-6---6---5----------------8---|-6---5------------5----5---|----------8---6---5--------|
G|-------------7---5------------|---------8----8------------|---------------------------|
D|------------------------------|---------------------------|-7-------------------------|
A|------------------------------|---------------------------|---------------------------|
E|------------------------------|---------------------------|---------------------------|


E|----------------------5-------|------------------0----0---|---------------------------------|
B|-6---6---5----------------8---|-6---5---------------------|---------------------------------|
G|-------------7---5------------|---------8----8------------|-------------7---7---7---7-------|
D|------------------------------|---------------------------|-7---9---10------------------10--|
A|------------------------------|---------------------------|-0-------------------------------|
E|------------------------------|---------------------------|---------------------------------|


E|---------------------------------|---------------------10--10--10--|-10------10--12--14--15--17--17--|
B|---------7---8---10--10--10--10--|-10--10--10--12--13--------------|-----13--------------------------|
G|-7---9---------------------------|---------------------------------|---------------------------------|
D|---------------------------------|---------------------------------|---------------------------------|
A|---------------------------------|---------------------------------|---------------------------------|
E|---------------------------------|---------------------------------|---------------------------------|


E|-17--17--17--17--12----6---|------0-----------|----------0-----5----|-----12--12--12--5-----0---|
B|---------------------------|------------------|----------3-----5----|---------------------------|
G|-----------------9-----3---|------------3-----|----------3-----5----|-----9-----------2---------|
D|---------------------------|------2-----------|-2--------------7----|-----------------------2---|
A|---------------------------|------------1-----|----------------7----|---------------------------|
E|---------------------------|------------------|-0--------0-----5----|---------------------------|


E|-0---0---5-----------------|-------------------5-------|--------------------|
B|---------------------------|-------5---5---5---5-------|--------------------|
G|---------2-----------------|-2-----------------5-------|--------------------|
D|---------------2---2---2---|-------------------7-------|--------------------|
A|---------------------------|-0-----7-----------7-------|--------------------|
E|---------------0-----------|-------------------5-------|--------------------|





Track 2: Guitar II

E|-0------0----|-----0-----0-----0---|----------0----0-----|-0----------0---0----|
B|-5------3----|-----1-----1-----3---|----------6----6-----|-8----------9---9----|
G|-5------4----|-----2-----2-----4---|----------7----7-----|-9----------7---7----|
D|-------------|---------------------|---------------------|---------------------|
A|-0-----------|---------------------|---------------------|---------------------|
E|--------3----|-----1-----1-----3---|----------6----6-----|-8----------6---6----|


E|-------5---------------|----------------|-------------|----------------5---|------------------------------|
B|-------5---------------|----------------|-------------|--------------------|-----8---6---5-------8----6---|
G|-----------------------|----------------|-------------|--------------------|-----------------7------------|
D|-----------------------|----------------|-------------|--------------------|------------------------------|
A|-----------------------|----------------|-------------|--------------------|------------------------------|
E|-------5---------------|----------------|-------------|--------------------|------------------------------|


E|------------------------------|------------------------|---------10---10--13-------|
B|-5-----------6---5-------5----|------------------------|-12--13----------------12--|
G|-----7---5-----------8--------|-4---5------------------|---------10-------13-------|
D|------------------------------|----------6---7---------|---------------------------|
A|------------------------------|------------------------|---------------------------|
E|------------------------------|------------------------|---------------------------|


E|-8----8---12---11--12---|-7---8------------------|---------------------------|------------------------|
B|----------10-------9----|----------9---10--------|------------------6--------|----------5----4---5----|
G|-9----------------------|-----9------------------|-4---5---7----7--------4---|-5----5-----------------|
D|------------------------|--------------10--------|---------------------------|------------------------|
A|------------------------|------------------------|---------------------------|------------------------|
E|------------------------|------------------------|---------------------------|------------------------|


E|------------------------|----------------|-------------|----------------5---|------------------------------|
B|------------------------|----------------|-------------|--------------------|-----8---6---5-------8----6---|
G|-4---5------------------|----------------|-------------|--------------------|-----------------7------------|
D|----------6---7---------|----------------|-------------|--------------------|------------------------------|
A|------------------------|----------------|-------------|--------------------|------------------------------|
E|------------------------|----------------|-------------|--------------------|------------------------------|


E|------------------------------|------------------------|---------10---10--13-------|
B|-5-----------6---5-------5----|------------------------|-12--13----------------12--|
G|-----7---5-----------8--------|-4---5------------------|---------10-------13-------|
D|------------------------------|----------6---7---------|---------------------------|
A|------------------------------|------------------------|---------------------------|
E|------------------------------|------------------------|---------------------------|


E|-8----8---12---11--12---|-7---8------------------|---------------------------|------------------------|
B|----------10-------9----|----------9---10--------|------------------6--------|----------5----4---5----|
G|-9----------------------|-----9------------------|-4---5---7----7--------4---|-5----5-----------------|
D|------------------------|--------------10--------|---------------------------|------------------------|
A|------------------------|------------------------|---------------------------|------------------------|
E|------------------------|------------------------|---------------------------|------------------------|


E|-------------------12--12--|-11--12--14---14--14--12--11--|-14---12--12--11--12--14--14--|
B|---------------------------|------------------------------|------------------------------|
G|-4---5---------------------|------------------------------|------------------------------|
D|----------6---7------------|------------------------------|------------------------------|
A|---------------------------|------------------------------|------------------------------|
E|---------------------------|------------------------------|------------------------------|


E|-14--14--12--11--14---12--12--|-11--12--10--12--14--14--12--10--|-9---10--12--12--10--9-------9---|
B|------------------------------|---------------------------------|-------------------------12------|
G|------------------------------|---------------------------------|---------------------------------|
D|------------------------------|---------------------------------|---------------------------------|
A|------------------------------|---------------------------------|---------------------------------|
E|------------------------------|---------------------------------|---------------------------------|


E|-10---------------------------|---------------------|-------------|-----------------|
B|-------------9---10-----------|---------3-----1-----|-2------3----|-----1-----2-----|
G|-----9---11-------------------|---------2-----2-----|-2------2----|-----2-----2-----|
D|------------------------------|---------4-----1-----|-2------4----|-----1-----2-----|
A|------------------------------|---------0-----0-----|-0------0----|-----0-----0-----|
E|------------------------------|---------------------|-------------|-----------------|


E|--------------10------7-------|---------5-------5---------------|-5-------4-------5---------|
B|----------10--------------5---|-----2---------------3-------0---|-------------3---2---------|
G|------------------------------|-0-------------------------------|---------------------------|
D|------------------6-----------|-------------4-----------3-------|-----2---------------------|
A|------9-----------------------|---------------------------------|-----------------0---------|
E|------------------------------|---------------------------------|---------------------------|


E|--------------0---0---0---0---|------0---0---0---0--------|-0---0---0---0-------0---0-------|
B|------------------------------|-3--------------------1----|---------------------------------|
G|---------2--------------------|---------------------------|-----------------3---------------|
D|-----2------------------------|---------------------------|-----------------------------2---|
A|---------0--------------------|---------------------------|---------------------------------|
E|-----0------------------------|---------------------------|---------------------------------|


E|-0---0--------0---0---0---0---|------0---0---0---0--------|-0---0---0---0-------0---0-------|
B|------------------------------|-3--------------------1----|---------------------------------|
G|------------------------------|---------------------------|-----------------3---------------|
D|------------------------------|---------------------------|-----------------------------2---|
A|---------0--------------------|---------------------------|---------------------------------|
E|------------------------------|---------------------------|---------------------------------|


E|-0---0------------------------|---------------------------|---------------------------------|
B|--------------3---3---3---3---|------3---3---3---3--------|-3---3---3---3-------3---3-------|
G|------------------------------|-5--------------------3----|---------------------------------|
D|------------------------------|---------------------------|-----------------6---------------|
A|------------------------------|---------------------------|-----------------------------5---|
E|---------3--------------------|---------------------------|---------------------------------|


E|------------------------------|---------------------------|---------------------------------|
B|-3---3--------3---3---3---3---|------3---3---3---3--------|-3---3---3---3-------3---3-------|
G|------------------------------|-5--------------------3----|---------------------------------|
D|------------------------------|---------------------------|-----------------6-----------0---|
A|------------------------------|---------------------------|---------------------------------|
E|---------3--------------------|---------------------------|---------------------------------|


E|---------------------------------|---------------------------------|-----15---15--10----|
B|-------------10--11--13--11--10--|-----10--11--13--11--10----------|--------------------|
G|-7---7---12----------------------|-12----------------------12--12--|-12-----------------|
D|---------------------------------|---------------------------------|--------------------|
A|---------------------------------|---------------------------------|--------------------|
E|---------------------------------|---------------------------------|--------------------|


E|------------------------|------------------------|---------------------------|---------7------|
B|-----------2--------1---|------0--------1--------|-2--------1--------0-------|-----2---0------|
G|-----------2--------1---|------0--------1--------|-2--------1--------0-------|-----2---0------|
D|------------------------|------------------------|---------------------------|---------0------|
A|------------------------|------------------------|---------------------------|---------0------|
E|------2--------2--------|-2--------2--------2----|-----2--------2--------2---|---------0------|


E|-7-----------|-----------------14--|------2-----------------------|------------------------------|
B|-0------8----|-----11----14--------|----------5---3---5---3---2---|-3---2-------2----------------|
G|-0-----------|-----------------11--|------------------------------|---------4-------4---2---0----|
D|-0------5----|-----8-----11--------|------------------------------|------------------------------|
A|-0-----------|---------------------|------------------------------|------------------------------|
E|-0-----------|---------------------|------------------------------|-------------------------3----|


E|-----------------0---|-----------0--------0---|------0--------0--------|-0--------0--------0-------|
B|-----------2---------|-----------4--------4---|------4--------4--------|-3--------3--------1-------|
G|-----3---------------|-----------4--------4---|------4--------4--------|-3--------3--------0-------|
D|-----------------2---|------------------------|------------------------|---------------------------|
A|-----1-----4---------|------0--------0--------|-0--------0--------0----|-----0--------0--------0---|
E|---------------------|------------------------|------------------------|---------------------------|


E|-----0--------1--------1---|------3--------3--------|-------------|------5------|
B|-----1--------3--------3---|------5--------5---1----|-------3-----|------5------|
G|-----0--------3--------3---|------5--------5---2----|-------2-----|------5------|
D|---------------------------|-------------------2----|-------3-----|-------------|
A|---------0--------0--------|-0--------0-------------|-------1-----|------8------|
E|---------------------------|-------------------1----|-------------|-------------|


E|-10-----12---|-12--12--12--12--12---12--12--|-12--12--12----------12----|-------------12----5-------|
B|-10-----10---|-10--10--10--10--10---10--10--|-10--10--10----------------|---------------------------|
G|-10-----11---|-11--11--11--11--11---11--11--|-11--11--11----------9-----|-9-----------9-----2-------|
D|-8------9----|-9---9---9---9---9----9---9---|-9---9---9-----------------|---------------------------|
A|--------9----|-9---9---9---9---9----9---9---|-9---9---9-----------------|-7-------------------------|
E|--------0----|-0---0---0---0---0----0---0---|-0---0---0-----------------|---------------------------|


E|------------------------|---------------------|------------------------|-5-------5--------------------|
B|-----2-----3--------0---|------1--------------|-0--------0-------------|-----8-------8---6--------6---|
G|-----2-----2--------0---|------0--------2-----|-2--------1-------------|----------------------7-------|
D|-----------0------------|---------------2-----|-1--------0--------7----|------------------------------|
A|-----4--------------2---|------3--------0-----|-------------------7----|------------------------------|
E|------------------------|---------------------|-1--------0--------5----|------------------------------|


E|------------------------------|------------------------|-----8----8---10-----------|
B|-8---6---5--------5---6---5---|----------5----5--------|-------------------13--12--|
G|--------------5---------------|-8----8-----------------|---------------------------|
D|------------------------------|-------------------7----|---------------------------|
A|------------------------------|------------------------|---------------------------|
E|------------------------------|------------------------|---------------------------|


E|-----12-----------------------|------------------------|-----8----8---10-----------|
B|---------13-------------------|------------------------|-------------------13--12--|
G|-----------------9---10---9---|-8----8---9----7---5----|---------------------------|
D|------------------------------|------------------------|-7-------------------------|
A|-----------------7---8----7---|-6----6---7----5--------|---------------------------|
E|------------------------------|-------------------8----|-5-------------------------|


E|-----12-----------------------|------------------------|-0---0---0---0--------0---0---|
B|---------13-------------------|------------------------|-----------------3------------|
G|-----------------9---10---9---|-8----8---9----9--------|------------------------------|
D|------------------------------|-------------------7----|------------------------------|
A|-----------------7---8----7---|-6----6---7----7---0----|------------------------------|
E|------------------------------|------------------------|------------------------------|


E|-0---0--------0---0---0---0---|-----0---0-------0---0--------|-0---0---0---0--------0---0---|
B|---------1--------------------|------------------------------|-----------------3------------|
G|------------------------------|-3----------------------------|------------------------------|
D|------------------------------|-------------2----------------|------------------------------|
A|------------------------------|-------------------------0----|------------------------------|
E|------------------------------|------------------------------|------------------------------|


E|-0---0--------0---0---0---0---|-----0---0-------0---0--------|-0---0---0---0--------0---0---|
B|---------1--------------------|------------------------------|-----------------3------------|
G|------------------------------|-3----------------------------|------------------------------|
D|------------------------------|-------------2----------------|------------------------------|
A|------------------------------|-------------------------0----|------------------------------|
E|------------------------------|------------------------------|------------------------------|


E|-0---0--------0---0---0---0---|-----0---0-------0---0--------|------------------------------|
B|---------1--------------------|------------------------------|-3---3---3---3--------3---3---|
G|------------------------------|-3----------------------------|-----------------5------------|
D|------------------------------|-------------2----------------|------------------------------|
A|------------------------------|------------------------------|------------------------------|
E|------------------------------|-------------------------3----|------------------------------|


E|------------------------------|------------------------------|------------------------------|
B|-3---3--------3---3---3---3---|-----3---3-------3---3--------|-3---3---3---3--------3---3---|
G|---------3--------------------|------------------------------|-----------------5------------|
D|------------------------------|-6----------------------------|------------------------------|
A|------------------------------|-------------5----------------|------------------------------|
E|------------------------------|-------------------------3----|------------------------------|


E|------------------------------|------------------------------|-----0---------------|
B|-3---3--------3---3---3---3---|-----3---3-------3---3---3----|-----1-----1-----3---|
G|---------3--------------------|-------------------------4----|-----0-----2-----3---|
D|------------------------------|-6-----------------------3----|-----------1-----3---|
A|------------------------------|-------------5----------------|-----3-----------1---|
E|------------------------------|-------------------------3----|-----------1---------|


E|------4-----0-----|------0--------0--------|-0--------0--------0-------|-----0--------0--------0---|
B|------3-----3-----|------4--------4--------|-4--------4--------3-------|-----3--------1--------1---|
G|------3-----1-----|------4--------4--------|-4--------4--------3-------|-----3--------0--------0---|
D|------2-----------|------------------------|---------------------------|---------------------------|
A|------------------|-0--------0--------0----|-----0--------0--------0---|---------0--------0--------|
E|------------0-----|------------------------|---------------------------|---------------------------|


E|------1--------1--------|-3--------3---------|-------------|-5------10---|-------12---12--12--|
B|------3--------3--------|-5--------5---1-----|------3------|-5------10---|-------10---10--10--|
G|------3--------3--------|-5--------5---2-----|------2------|-5------10---|-------11---11--11--|
D|------------------------|--------------2-----|------3------|--------8----|-------9----9---9---|
A|-0--------0--------0----|-----0--------------|------1------|-8-----------|-------9----9---9---|
E|------------------------|--------------1-----|-------------|-------------|-------0----0---0---|


E|-12--12--12---12--12--12--12--|-12----------12------------|-----12----5---------------|
B|-10--10--10---10--10--10--10--|-10------------------------|-----------------------2---|
G|-11--11--11---11--11--11--11--|-11----------9-----9-------|-----9-----2-----------2---|
D|-9---9---9----9---9---9---9---|-9-------------------------|---------------------------|
A|-9---9---9----9---9---9---9---|-9-----------------7-------|-----------------------4---|
E|-0---0---0----0---0---0---0---|-0-------------------------|---------------------------|


E|---------------------|---------------------|-------------------5-------|-5----------------------------|
B|------3--------0-----|-1--------------0----|-----0-----------------8---|-----8---6--------6---8---6---|
G|------2--------0-----|-0--------2-----2----|-----1---------------------|--------------7---------------|
D|------0--------------|----------2-----1----|-----0--------7------------|------------------------------|
A|---------------2-----|-3--------0----------|--------------7------------|------------------------------|
E|---------------------|----------------1----|-----0--------5------------|------------------------------|


E|---------------------------|-----------------------8---|-----8---10------------12--|
B|-5--------5---6---5--------|-----5----5----------------|--------------13--12-------|
G|------5---------------8----|-8-------------------------|---------------------------|
D|---------------------------|--------------7------------|---------------------------|
A|---------------------------|---------------------------|---------------------------|
E|---------------------------|---------------------------|---------------------------|


E|---------------------------|-----------------------8---|-----8---10------------12--|
B|-13------------------------|---------------------------|--------------13--12-------|
G|---------9---10---9---8----|-8---9----7---5------------|---------------------------|
D|---------------------------|-------------------7-------|---------------------------|
A|---------7---8----7---6----|-6---7----5----------------|---------------------------|
E|---------------------------|--------------8----5-------|---------------------------|


E|---------------------------|---------------------------|-7---8---10--8---7---7---8---10--|
B|-13------------------------|-----------------------10--|---------------------------------|
G|---------9---10---9---8----|-8---9----9---2------------|---------------------------------|
D|---------------------------|---------------------------|---------------------------------|
A|---------7---8----7---6----|-6---7----7---0------------|---------------------------------|
E|---------------------------|---------------------------|---------------------------------|


E|-8---7---5---5---7---8---6---8---|-6---4---7---4---5--------5---|------7-----7-----|
B|---------------------------------|--------------------------6---|------8-----8-----|
G|---------------------------------|--------------------------5---|------7-----7-----|
D|---------------------------------|--------------------------0---|------0-----0-----|
A|---------------------------------|------------------------------|------------------|
E|---------------------------------|------------------------------|------------------|


E|-5-----5-----3----|--------------------1---|---------0--------4--------|-5--------8----8---10---|
B|-6-----6-----4----|-----2-----3--------3---|---------3--------3--------|-5----------------------|
G|-5-----5-----3----|-----3-----2--------2---|---------4--------4--------|-5----------------------|
D|-0-----0-----0----|-----2-----0--------0---|---------2-----------------|------------------------|
A|------------------|-----0------------------|---------------------------|-0----------------------|
E|------------------|------------------------|------------------0--------|------------------------|


E|----------12------------------|---------------------------|----------8----8---10---|
B|-13--12-------13--------------|---------------------------|------------------------|
G|----------------------9---10--|-----9---8----8---9----7---|-5----------------------|
D|------------------------------|---------------------------|------7-----------------|
A|----------------------7---8---|-----7---6----6---7----5---|------------------------|
E|------------------------------|---------------------------|-8----5-----------------|


E|----------12---------------|---------------------------|------------------------|
B|-13--12-------13-----------|---------------------------|---------------1--------|
G|-----------------------2---|-----3---4----4--------1---|-2-------------2--------|
D|---------------------------|------------------2--------|---------------2--------|
A|-----------------------0---|-----1---2-----------------|-0--------0--------0----|
E|---------------------------|------------------0----4---|------------------------|


E|-------------------0-------|-----0--------1--------0---|---------0-----------0-----------|
B|-3--------3--------1-------|-----1--------4--------3---|-----1-----------1---------------|
G|-3--------3--------0-------|-----0--------2--------1---|-2-----------2---------------3---|
D|-3--------3----------------|---------------------------|-------------------------3-------|
A|-----0--------0--------0---|---------0--------0--------|-0-----------0-----------0-------|
E|---------------------------|---------------------------|---------------------------------|


E|-------------------------0-------|-----0-----------1-----------0---|------------------------|
B|-3-----------3-------1-----------|-1-----------4-----------3-------|-1-----------3-----3----|
G|---------3-------0-----------0---|---------2-----------1-----------|-0-----------4-----4----|
D|-----3---------------------------|---------------------------------|-2-----------5-----5----|
A|-----0-----------0-----------0---|---------0-----------0-----------|-0-----------0-----0----|
E|---------------------------------|---------------------------------|------------------------|


E|-----0-----2-----|------5-----------7-----|-7-----8-----10---|-------12--12--12--12--|
B|-----1-----3-----|------5-----------8-----|-8-----8-----10---|-------11--11--11--11--|
G|-----0-----2-----|------5-----------7-----|-7-----9-----11---|-------10--10--10--10--|
D|-----------------|------------------------|------------------|-------12--12--12--12--|
A|-----0-----0-----|------0-----------0-----|-0-----0-----0----|-------0---0---0---0---|
E|-----------------|------------------------|------------------|-----------------------|


E|-12--12--12--12--12--12--12--12--|-12-------12----5----|-----0---0---0-------------|
B|-11--11--11--11--11--11--11--11--|-11-------11----5----|---------------------------|
G|-10--10--10--10--10--10--10--10--|-10-------10----5----|-----------------2---------|
D|-12--12--12--12--12--12--12--12--|-12-------12----7----|-----2-----------------2---|
A|-0---0---0---0---0---0---0---0---|-0--------------7----|-----------------0---------|
E|---------------------------------|----------------5----|-----------------------0---|


E|---------------12--12--12--|-5-----12--12--12--5-------|--------------------|
B|---------------------------|-------------------5-------|--------------------|
G|---------2-----9-----------|-2-----9-----------5-------|--------------------|
D|-2---2---------------------|-------------------7-------|--------------------|
A|---------0-----------------|-------------------7-------|--------------------|
E|---------------------------|-------------------5-------|--------------------|





Track 3: Untitled

B|--------|--------|--------|--------|--------|--------|--------|--------|--------|
G|--------|--------|--------|--------|--------|--------|--------|--------|--------|
D|--------|--------|--------|--------|--------|--------|--------|--------|--------|
A|--------|--------|--------|--------|--------|--------|--------|--------|--------|
E|--------|--------|--------|--------|--------|--------|--------|--------|--------|
B|--------|--------|--------|--------|--------|--------|--------|--------|--------|


B|--------|--------|--------|--------|--------|--------|--------|--------|--------|
G|--------|--------|--------|--------|--------|--------|--------|--------|--------|
D|--------|--------|--------|--------|--------|--------|--------|--------|--------|
A|--------|--------|--------|--------|--------|--------|--------|--------|--------|
E|--------|--------|--------|--------|--------|--------|--------|--------|--------|
B|--------|--------|--------|--------|--------|--------|--------|--------|--------|


B|--------|--------|--------|--------|--------|--------|--------|--------|--------|
G|--------|--------|--------|--------|--------|--------|--------|--------|--------|
D|--------|--------|--------|--------|--------|--------|--------|--------|--------|
A|--------|--------|--------|--------|--------|--------|--------|--------|--------|
E|--------|--------|--------|--------|--------|--------|--------|--------|--------|
B|--------|--------|--------|--------|--------|--------|--------|--------|--------|


B|--------|--------|--------|--------|--------|--------|--------|--------|--------|
G|--------|--------|--------|--------|--------|--------|--------|--------|--------|
D|--------|--------|--------|--------|--------|--------|--------|--------|--------|
A|--------|--------|--------|--------|--------|--------|--------|--------|--------|
E|--------|--------|--------|--------|--------|--------|--------|--------|--------|
B|--------|--------|--------|--------|--------|--------|--------|--------|--------|


B|--------|--------|--------|--------|--------|--------|--------|--------|--------|
G|--------|--------|--------|--------|--------|--------|--------|--------|--------|
D|--------|--------|--------|--------|--------|--------|--------|--------|--------|
A|--------|--------|--------|--------|--------|--------|--------|--------|--------|
E|--------|--------|--------|--------|--------|--------|--------|--------|--------|
B|--------|--------|--------|--------|--------|--------|--------|--------|--------|


B|--------|--------|--------|--------|--------|--------|--------|--------|--------|
G|--------|--------|--------|--------|--------|--------|--------|--------|--------|
D|--------|--------|--------|--------|--------|--------|--------|--------|--------|
A|--------|--------|--------|--------|--------|--------|--------|--------|--------|
E|--------|--------|--------|--------|--------|--------|--------|--------|--------|
B|--------|--------|--------|--------|--------|--------|--------|--------|--------|


B|--------|--------|--------|--------|--------|--------|--------|--------|--------|
G|--------|--------|--------|--------|--------|--------|--------|--------|--------|
D|--------|--------|--------|--------|--------|--------|--------|--------|--------|
A|--------|--------|--------|--------|--------|--------|--------|--------|--------|
E|--------|--------|--------|--------|--------|--------|--------|--------|--------|
B|--------|--------|--------|--------|--------|--------|--------|--------|--------|


B|--------|--------|--------|--------|--------|--------|--------|--------|--------|
G|--------|--------|--------|--------|--------|--------|--------|--------|--------|
D|--------|--------|--------|--------|--------|--------|--------|--------|--------|
A|--------|--------|--------|--------|--------|--------|--------|--------|--------|
E|--------|--------|--------|--------|--------|--------|--------|--------|--------|
B|--------|--------|--------|--------|--------|--------|--------|--------|--------|


B|--------|--------|--------|--------|--------|--------|--------|--------|--------|
G|--------|--------|--------|--------|--------|--------|--------|--------|--------|
D|--------|--------|--------|--------|--------|--------|--------|--------|--------|
A|--------|--------|--------|--------|--------|--------|--------|--------|--------|
E|--------|--------|--------|--------|--------|--------|--------|--------|--------|
B|--------|--------|--------|--------|--------|--------|--------|--------|--------|


B|--------|--------|--------|--------|--------|--------|--------|--------|--------|
G|--------|--------|--------|--------|--------|--------|--------|--------|--------|
D|--------|--------|--------|--------|--------|--------|--------|--------|--------|
A|--------|--------|--------|--------|--------|--------|--------|--------|--------|
E|--------|--------|--------|--------|--------|--------|--------|--------|--------|
B|--------|--------|--------|--------|--------|--------|--------|--------|--------|


B|--------|--------|--------|--------|--------|--------|--------|--------|--------|
G|--------|--------|--------|--------|--------|--------|--------|--------|--------|
D|--------|--------|--------|--------|--------|--------|--------|--------|--------|
A|--------|--------|--------|--------|--------|--------|--------|--------|--------|
E|--------|--------|--------|--------|--------|--------|--------|--------|--------|
B|--------|--------|--------|--------|--------|--------|--------|--------|--------|


B|--------|--------|--------|--------|--------|--------|--------|--------|--------|
G|--------|--------|--------|--------|--------|--------|--------|--------|--------|
D|--------|--------|--------|--------|--------|--------|--------|--------|--------|
A|--------|--------|--------|--------|--------|--------|--------|--------|--------|
E|--------|--------|--------|--------|--------|--------|--------|--------|--------|
B|--------|--------|--------|--------|--------|--------|--------|--------|--------|


B|--------|--------|--------|--------|--------|--------|--------|--------|--------|
G|--------|--------|--------|--------|--------|--------|--------|--------|--------|
D|--------|--------|--------|--------|--------|--------|--------|--------|--------|
A|--------|--------|--------|--------|--------|--------|--------|--------|--------|
E|--------|--------|--------|--------|--------|--------|--------|--------|--------|
B|--------|--------|--------|--------|--------|--------|--------|--------|--------|


B|--------|--------|--------|--------|--------|--------|--------|--------|--------|
G|--------|--------|--------|--------|--------|--------|--------|--------|--------|
D|--------|--------|--------|--------|--------|--------|--------|--------|--------|
A|--------|--------|--------|--------|--------|--------|--------|--------|--------|
E|--------|--------|--------|--------|--------|--------|--------|--------|--------|
B|--------|--------|--------|--------|--------|--------|--------|--------|--------|


B|--------|--------|--------|--------|--------|--------|--------|--------|--------|
G|--------|--------|--------|--------|--------|--------|--------|--------|--------|
D|--------|--------|--------|--------|--------|--------|--------|--------|--------|
A|--------|--------|--------|--------|--------|--------|--------|--------|--------|
E|--------|--------|--------|--------|--------|--------|--------|--------|--------|
B|--------|--------|--------|--------|--------|--------|--------|--------|--------|


B|--------|--------|--------|--------|--------|--------|--------|--------|--------|
G|--------|--------|--------|--------|--------|--------|--------|--------|--------|
D|--------|--------|--------|--------|--------|--------|--------|--------|--------|
A|--------|--------|--------|--------|--------|--------|--------|--------|--------|
E|--------|--------|--------|--------|--------|--------|--------|--------|--------|
B|--------|--------|--------|--------|--------|--------|--------|--------|--------|


B|--------|--------|--------|--------|--------|--------|--------|--------|--------|
G|--------|--------|--------|--------|--------|--------|--------|--------|--------|
D|--------|--------|--------|--------|--------|--------|--------|--------|--------|
A|--------|--------|--------|--------|--------|--------|--------|--------|--------|
E|--------|--------|--------|--------|--------|--------|--------|--------|--------|
B|--------|--------|--------|--------|--------|--------|--------|--------|--------|


B|--------|--------|--------|--------|--------|
G|--------|--------|--------|--------|--------|
D|--------|--------|--------|--------|--------|
A|--------|--------|--------|--------|--------|
E|--------|--------|--------|--------|--------|
B|--------|--------|--------|--------|--------|