Menu:

 

Search:

 

marduk - materialized in stone:

 



/---------------------------------------------------------------------------
/ The following is the author's own interpretation of the song, to be used -
/ for studying or private use only, removal of any part of this ten line   -
/ header is illegal!!!  Removal of the transcribers name or anything       -
/ relevant to the transcriber is also illegal, as so is the removal of the -
/ place inwhich the tab was downloaded. Publishing as well as printing of  -
/ the tab is illegal without permission of the transcriber and copyright   -
/ owner of the song. Failure to apply to these laws result will in legal   -
/ action from the appropriate parties.                                     -
/---------------------------------------------------------------------------

downloaded from Displacer's Tablature Site at
        http://www.dsrmusic.com/metaltab
join the death/black tab emailing list by filling out the free
subscription form at http://www.dsrmusic.com/metaltab/join.htm


#----------------------------------PLEASE NOTE---------------------------------#
#This file is the author's own work and represents their interpretation of the #
#song. You may only use this file for private study, scholarship, or research. #
#------------------------------------------------------------------------------#

  Visit MetalTabs.com for more metal tablature
  
Artist : Marduk
Album : Infernal Eternal
Song: Materialized In Stone
Tabbed by Livlos, with help from Marc


Here's what I think is the correct (or pretty damn near) way that Morgan plays
this song on the live album Infernal Eternal. If you don't think this is right...
then damn well tab it yourself!
Marduk also tend to use a rather thick and heavy distortion, if a note seems to
fluctuate on the album then try setting your distortion higher which should give
you about the effect. Just mess around with this and you'll figure it out soon enough.

I didn't note Palm mutes as I think you can figure it out if youve ever heard the song.

/ : Slide

Tuning : 2 Steps down



Riff 1

-----------------------------------------------------------------------------------------------
-----------------------------------------------------------------------------------------------
--7--7-7-/-5-5---7--7-7-/-5-5--5-5-5-5--5-5-5-5---8-8-8-8-8--8-8-8-8-8--8-8-8-8-8--8-8-8-8-8---
--7--7-7-/-5-5---7--7-7-/-5-5--5-5-5-5--5-5-5-5---8-8-8-8-8--8-8-8-8-8--8-8-8-8-8--8-8-8-8-8---
--5--5-5-/-3-3---5--5-5-/-3-3--3-3-3-3--3-3-3-3---6-6-6-6-6--6-6-6-6-6--6-6-6-6-6--6-6-6-6-6---
-----------------------------------------------------------------------------------------------

Riff 2

----------------------------------------------------------------------------------------------
----------------------------------------------------------------------------------------------
--5--5-5-5-5---7-7-7---8-8-8------------------------------------------------------------------
--5--5-5-5-5---7-7-7---8-8-8---6--6-6-6-6---3--3-3-3-3----------------------------------------
--3--3-3-3-3---5-5-5---6-6-6---6--6-6-6-6---3--3-3-3-3----------------------------------------
-------------------------------4--4-4-4-4---1--1-1-1-1----------------------------------------

Riff 2b
----------------------------------------------------------------------------------------------
----------------------------------------------------------------------------------------------
--5--5-5-5-5---7-7-7---8-8-8----------------10--10-10-10-10-----------------------------------
--5--5-5-5-5---7-7-7---8-8-8---6--6-6-6-6---10--10-10-10-10-----------------------------------
--3--3-3-3-3---5-5-5---6-6-6---6--6-6-6-6---8---8--8--8--8------------------------------------
-------------------------------4--4-4-4-4-----------------------------------------------------

Riff 3

----------------------------------------------------------------------------------------------
--5--5-5-5----3-----4-------------------------------------------------------------------------
--5--5-5-5------------------------------------------------------------------------------------
--3--3-3-3--3---3-3---3-----------------------------------------------------------------------
----------------------------------------------------------------------------------------------
----------------------------------------------------------------------------------------------

Riff 3b
----------------------------------------------------------------------------------------------
--8--8-8-8------------------------------------------------------------------------------------
--8--8-8-8----10-8-8--10-8-8------------------------------------------------------------------
--6--6-6-6------------------------------------------------------------------------------------
----------------------------------------------------------------------------------------------
----------------------------------------------------------------------------------------------

Riff 4 (the slow part, with bass riff over it which makes it hard to hear the guitar)

----------------------------------------------------------------------------------------------
----------------------------------------------------------------------------------------------
----------------------------------------------------------------------------------------------
--8--8-8-8-8--8--8-8-8-8---11--11-11-11-11--11--11-11-11-11--9--9-9-9-9--9--9-9-9-9-----------
--6--6-6-6-6--6--6-6-6-6---9---9--9--9--9---9---9--9--9--9---7--7-7-7-7--7--7-7-7-7-----------
--6--6-6-6-6--6--6-6-6-6---9---9--9--9--9---9---9--9--9--9---7--7-7-7-7--7--7-7-7-7-----------

----------------------------------------------------------------------------------------------
----------------------------------------------------------------------------------------------
----------------------------------------------------------------------------------------------
--9--9-9-9-9--9--9-9-9-9----------------------------------------------------------------------
--7--7-7-7-7--7--7-7-7-7----------------------------------------------------------------------
--7--7-7-7-7--7--7-7-7-7----------------------------------------------------------------------


Riff 5 (this is a slight variation of Riff 2)

----------------------------------------------------------------------------------------------
----------------------------------------------------------------------------------------------
--5--5-5-5-5---7-7-7---5-5-5------------------------------------------------------------------
--5--5-5-5-5---7-7-7---5-5-5---6--6-6-6-6---3--3-3-3-3----------------------------------------
--3--3-3-3-3---5-5-5---3-3-3---6--6-6-6-6---3--3-3-3-3----------------------------------------
-------------------------------4--4-4-4-4---1--1-1-1-1----------------------------------------

Riff 5b

----------------------------------------------------------------------------------------------
----------------------------------------------------------------------------------------------
--5--5-5-5-5---7-7-7---5-5-5----------------10--10-10-10-10-----------------------------------
--5--5-5-5-5---7-7-7---5-5-5---6--6-6-6-6---10--10-10-10-10-----------------------------------
--3--3-3-3-3---5-5-5---3-3-3---6--6-6-6-6---8---8--8--8--8------------------------------------
-------------------------------4--4-4-4-4-----------------------------------------------------

Riff 6 (this is the ending of the song, Morgan adds some Harmonics and a few
pull-offs, you can fiure it out for yourself I'm sure)

----------------------------------------------------------------------------------------------
----------------------------------------------------------------------------------------------
----------------------------------------------------------------------------------------------
--10-10-12-8-7-8----10-10-12-8-7--------------------------------------------------------------
---------------------------------8---5--------------------------------------------------------
----------------------------------------------------------------------------------------------

song structure

Riff1 X 7
Riff 2 + Riff 2b X 2
Riff1 X 4
(Play Riff 3 twice then RIff 3b twice) X 4
Riff 4 X 6
Riff 1 X 4
Riff 5 + Riff 5b X 2
(Play Riff 3 twice then RIff 3b twice) X 4
Riff 6 X 6

  Visit MetalTabs.com for more metal tablature