Menu:

 

Search:

 

marduk - dracul va domni din nou in transilvania:

 



Title: Dracul Va Domni Din Nou In Transilvania
Artist: 
Album: Heaven Shall Burn...When We Are Gathered
Author: Morgan Steinmeyer Håkansson


Track 1: Guitar I

D#|-------------------------------|-------------------------------|-------------------------------|
A#|-0----0------------------------|-0----0------------------------|-0----0------------------------|
F#|-0----0---10-10-10-9--9---9----|-0----0---10-10-10-9--9---9----|-0----0---10-10-10-9--9---9----|
C#|-2----2---10-10-10-9--9---9----|-2----2---10-10-10-9--9---9----|-2----2---10-10-10-9--9---9----|
G#|-2----2---8--8--8--7--7---7----|-2----2---8--8--8--7--7---7----|-2----2---8--8--8--7--7---7----|
D#|-0----0---8--8--8--7--7---7----|-0----0---8--8--8--7--7---7----|-0----0---8--8--8--7--7---7----|


D#|------------------------------------|------------------------------------|-------------------------------|
A#|-0----0-----------------------------|---------------------0----0---------|----------------0----0---------|
F#|-0----0---10-10-10-9--9---9--7--7---|-7--5--5---5--4--4---0----0---10-10-|-10-9--9---9----0----0---10-10-|
C#|-2----2---10-10-10-9--9---9--7--7---|-7--5--5---5--4--4---2----2---10-10-|-10-9--9---9----2----2---10-10-|
G#|-2----2---8--8--8--7--7---7--5--5---|-5--3--3---3--2--2---2----2---8--8--|-8--7--7---7----2----2---8--8--|
D#|-0----0---8--8--8--7--7---7--5--5---|-5--3--3---3--2--2---0----0---8--8--|-8--7--7---7----0----0---8--8--|


D#|-------------------------------|-------------------------------|-----------------------------------------|
A#|----------------0----0---------|----------------0----0---------|-----------------------------------------|
F#|-10-9--9---9----0----0---10-10-|-10-9--9---9----0----0---10-10-|-10-9--9---9--7--7---7--5--5---5--4--4---|
C#|-10-9--9---9----2----2---10-10-|-10-9--9---9----2----2---10-10-|-10-9--9---9--7--7---7--5--5---5--4--4---|
G#|-8--7--7---7----2----2---8--8--|-8--7--7---7----2----2---8--8--|-8--7--7---7--5--5---5--3--3---3--2--2---|
D#|-8--7--7---7----0----0---8--8--|-8--7--7---7----0----0---8--8--|-8--7--7---7--5--5---5--3--3---3--2--2---|


D#|--------|--------|--------|-------------------------------|-------------------------------|
A#|-0------|-0------|-0------|-0----0------------------------|-0----0------------------------|
F#|-0------|-0------|-0------|-0----0---10-10-10-9--9---9----|-0----0---10-10-10-9--9---9----|
C#|-2------|-2------|-2------|-2----2---10-10-10-9--9---9----|-2----2---10-10-10-9--9---9----|
G#|-2------|-2------|-2------|-2----2---8--8--8--7--7---7----|-2----2---8--8--8--7--7---7----|
D#|-0------|-0------|-0------|-0----0---8--8--8--7--7---7----|-0----0---8--8--8--7--7---7----|


D#|-------------------------------|------------------------------------|------------------------------------|
A#|-0----0------------------------|-0----0-----------------------------|---------------------0----0---------|
F#|-0----0---10-10-10-9--9---9----|-0----0---10-10-10-9--9---9--7--7---|-7--5--5---5--4--4---0----0---10-10-|
C#|-2----2---10-10-10-9--9---9----|-2----2---10-10-10-9--9---9--7--7---|-7--5--5---5--4--4---2----2---10-10-|
G#|-2----2---8--8--8--7--7---7----|-2----2---8--8--8--7--7---7--5--5---|-5--3--3---3--2--2---2----2---8--8--|
D#|-0----0---8--8--8--7--7---7----|-0----0---8--8--8--7--7---7--5--5---|-5--3--3---3--2--2---0----0---8--8--|


D#|-------------------------------|-------------------------------|-------------------------------|
A#|----------------0----0---------|----------------0----0---------|----------------0----0---------|
F#|-10-9--9---9----0----0---10-10-|-10-9--9---9----0----0---10-10-|-10-9--9---9----0----0---10-10-|
C#|-10-9--9---9----2----2---10-10-|-10-9--9---9----2----2---10-10-|-10-9--9---9----2----2---10-10-|
G#|-8--7--7---7----2----2---8--8--|-8--7--7---7----2----2---8--8--|-8--7--7---7----2----2---8--8--|
D#|-8--7--7---7----0----0---8--8--|-8--7--7---7----0----0---8--8--|-8--7--7---7----0----0---8--8--|


D#|-----------------------------------------|-------------------------------|-------------------------------|
A#|-----------------------------------------|-0----0------------------------|-0----0------------------------|
F#|-10-9--9---9--7--7---7--5--5---5--4--4---|-0----0---10-10-10-9--9---9----|-0----0---10-10-10-9--9---9----|
C#|-10-9--9---9--7--7---7--5--5---5--4--4---|-2----2---10-10-10-9--9---9----|-2----2---10-10-10-9--9---9----|
G#|-8--7--7---7--5--5---5--3--3---3--2--2---|-2----2---8--8--8--7--7---7----|-2----2---8--8--8--7--7---7----|
D#|-8--7--7---7--5--5---5--3--3---3--2--2---|-0----0---8--8--8--7--7---7----|-0----0---8--8--8--7--7---7----|


D#|-------------------------------|------------------------------------|------------------------------------|
A#|-0----0------------------------|-0----0-----------------------------|---------------------0----0---------|
F#|-0----0---10-10-10-9--9---9----|-0----0---10-10-10-9--9---9--7--7---|-7--5--5---5--4--4---0----0---10-10-|
C#|-2----2---10-10-10-9--9---9----|-2----2---10-10-10-9--9---9--7--7---|-7--5--5---5--4--4---2----2---10-10-|
G#|-2----2---8--8--8--7--7---7----|-2----2---8--8--8--7--7---7--5--5---|-5--3--3---3--2--2---2----2---8--8--|
D#|-0----0---8--8--8--7--7---7----|-0----0---8--8--8--7--7---7--5--5---|-5--3--3---3--2--2---0----0---8--8--|


D#|-------------------------------|-------------------------------|-------------------------------|
A#|----------------0----0---------|----------------0----0---------|----------------0----0---------|
F#|-10-9--9---9----0----0---10-10-|-10-9--9---9----0----0---10-10-|-10-9--9---9----0----0---10-10-|
C#|-10-9--9---9----2----2---10-10-|-10-9--9---9----2----2---10-10-|-10-9--9---9----2----2---10-10-|
G#|-8--7--7---7----2----2---8--8--|-8--7--7---7----2----2---8--8--|-8--7--7---7----2----2---8--8--|
D#|-8--7--7---7----0----0---8--8--|-8--7--7---7----0----0---8--8--|-8--7--7---7----0----0---8--8--|


D#|-----------------------------------------|--------|--------|--------|--------|--------|
A#|-----------------------------------------|-0------|-0------|-0------|--------|--------|
F#|-10-9--9---9--7--7---7--5--5---5--4--4---|-0------|-0------|-0------|--------|--------|
C#|-10-9--9---9--7--7---7--5--5---5--4--4---|-2------|-2------|-2------|--------|--------|
G#|-8--7--7---7--5--5---5--3--3---3--2--2---|-2------|-2------|-2------|--------|--------|
D#|-8--7--7---7--5--5---5--3--3---3--2--2---|-0------|-0------|-0------|--------|--------|


D#|--------|--------|--------|--------|--------|--------|--------|--------|--------|
A#|--------|--------|--------|--------|--------|--------|--------|--------|--------|
F#|--------|--------|--------|--------|--------|--------|--------|--------|--------|
C#|--------|--------|--------|--------|--------|--------|--------|--------|--------|
G#|--------|--------|--------|--------|--------|--------|--------|--------|--------|
D#|--------|--------|--------|--------|--------|--------|--------|--------|--------|


D#|--------|--------|--------|--------|--------|--------|--------|--------|--------|
A#|--------|--------|--------|--------|--------|--------|--------|--------|--------|
F#|--------|--------|--------|--------|--------|--------|--------|--------|--------|
C#|--------|--------|--------|--------|--------|--------|--------|--------|--------|
G#|--------|--------|--------|--------|--------|--------|--------|--------|--------|
D#|--------|--------|--------|--------|--------|--------|--------|--------|--------|


D#|--------|--------|--------|--------|--------|--------|--------|--------|--------|
A#|--------|--------|--------|--------|--------|--------|--------|--------|--------|
F#|--------|--------|--------|--------|--------|--------|--------|--------|--------|
C#|--------|--------|--------|--------|--------|--------|--------|--------|--------|
G#|--------|--------|--------|--------|--------|--------|--------|--------|--------|
D#|--------|--------|--------|--------|--------|--------|--------|--------|--------|


D#|--------|--------|--------|--------|--------|--------|--------|--------|--------|
A#|--------|--------|--------|--------|--------|--------|--------|--------|--------|
F#|--------|--------|--------|--------|--------|--------|--------|--------|--------|
C#|--------|--------|--------|--------|--------|--------|--------|--------|--------|
G#|--------|--------|--------|--------|--------|--------|--------|--------|--------|
D#|--------|--------|--------|--------|--------|--------|--------|--------|--------|


D#|--------|--------|--------|--------|--------|--------|--------|--------|--------|
A#|--------|--------|--------|--------|--------|--------|--------|--------|--------|
F#|--------|--------|--------|--------|--------|--------|--------|--------|--------|
C#|--------|--------|--------|--------|--------|--------|--------|--------|--------|
G#|--------|--------|--------|--------|--------|--------|--------|--------|--------|
D#|--------|--------|--------|--------|--------|--------|--------|--------|--------|


D#|--------|--------|--------|--------|--------|--------|--------|--------|--------|
A#|--------|--------|--------|--------|--------|--------|--------|--------|--------|
F#|--------|--------|--------|--------|--------|--------|--------|--------|--------|
C#|--------|--------|--------|--------|--------|--------|--------|--------|--------|
G#|--------|--------|--------|--------|--------|--------|--------|--------|--------|
D#|--------|--------|--------|--------|--------|--------|--------|--------|--------|


D#|--------|--------|--------|--------|
A#|--------|--------|--------|--------|
F#|--------|--------|--------|--------|
C#|--------|--------|--------|--------|
G#|--------|--------|--------|--------|
D#|--------|--------|--------|--------|





Track 2: Guitar II

D#|--------|--------|--------|--------|--------|--------|--------|--------|--------|
A#|--------|--------|--------|--------|--------|--------|--------|--------|--------|
F#|--------|--------|--------|--------|--------|--------|--------|--------|--------|
C#|--------|--------|--------|--------|--------|--------|--------|--------|--------|
G#|--------|--------|--------|--------|--------|--------|--------|--------|--------|
D#|--------|--------|--------|--------|--------|--------|--------|--------|--------|


D#|--------|--------|--------|--------|--------|--------|--------|--------|--------|
A#|--------|--------|--------|--------|--------|--------|--------|--------|--------|
F#|--------|--------|--------|--------|--------|--------|--------|--------|--------|
C#|--------|--------|--------|--------|--------|--------|--------|--------|--------|
G#|--------|--------|--------|--------|--------|--------|--------|--------|--------|
D#|--------|--------|--------|--------|--------|--------|--------|--------|--------|


D#|--------|--------|--------|--------|--------|--------|--------|--------|--------|
A#|--------|--------|--------|--------|--------|--------|--------|--------|--------|
F#|--------|--------|--------|--------|--------|--------|--------|--------|--------|
C#|--------|--------|--------|--------|--------|--------|--------|--------|--------|
G#|--------|--------|--------|--------|--------|--------|--------|--------|--------|
D#|--------|--------|--------|--------|--------|--------|--------|--------|--------|


D#|--------|--------|--------|--------|--------|--------|-------------------------------|
A#|--------|--------|--------|--------|--------|--------|-------------------------------|
F#|--------|--------|--------|--------|--------|--------|-------------------------------|
C#|--------|--------|--------|--------|--------|--------|-5---7--8--7----5---7--8--5----|
G#|--------|--------|--------|--------|--------|--------|-0--------------0--------------|
D#|--------|--------|--------|--------|--------|--------|-------------------------------|


D#|---------------------------------------|-------------------------------|---------------------------------------|
A#|---------------------------------------|-------------------------------|---------------------------------------|
F#|---------------------------------------|-------------------------------|---------------------------------------|
C#|-5---7--8--7---5--7--8---7--8--7--5----|-7---9--10-9----7---9--10-7----|-7---9--10-9---7--9--10--9--10-9--5----|
G#|-0-------------------------------------|-0--------------0--------------|-0-------------------------------------|
D#|---------------------------------------|-------------------------------|---------------------------------------|


D#|-------------------------------|---------------------------------------|-------------------------------|
A#|-------------------------------|---------------------------------------|-------------------------------|
F#|-------------------------------|---------------------------------------|-------------------------------|
C#|-5---7--8--7----5---7--8--5----|-5---7--8--7---5--7--8---7--8--7--5----|-7---9--10-9----7---9--10-7----|
G#|-0--------------0--------------|-0-------------------------------------|-0--------------0--------------|
D#|-------------------------------|---------------------------------------|-------------------------------|


D#|---------------------------------------|-------------------------------|---------------------------------------|
A#|---------------------------------------|-------------------------------|---------------------------------------|
F#|---------------------------------------|-------------------------------|---------------------------------------|
C#|-7---9--10-9---7--9--10--9--10-9--5----|-5---7--8--7----5---7--8--5----|-5---7--8--7---5--7--8---7--8--7--5----|
G#|-0-------------------------------------|-0--------------0--------------|-0-------------------------------------|
D#|---------------------------------------|-------------------------------|---------------------------------------|


D#|-------------------------------|---------------------------------------|-------------------------------|
A#|-------------------------------|---------------------------------------|-------------------------------|
F#|-------------------------------|---------------------------------------|-------------------------------|
C#|-7---9--10-9----7---9--10-7----|-7---9--10-9---7--9--10--9--10-9--5----|-5---7--8--7----5---7--8--5----|
G#|-0--------------0--------------|-0-------------------------------------|-0--------------0--------------|
D#|-------------------------------|---------------------------------------|-------------------------------|


D#|---------------------------------------|-------------------------------|---------------------------------------|
A#|---------------------------------------|-------------------------------|---------------------------------------|
F#|---------------------------------------|-------------------------------|---------------------------------------|
C#|-5---7--8--7---5--7--8---7--8--7--5----|-7---9--10-9----7---9--10-7----|-7---9--10-9---7--9--10--9--10-9--5----|
G#|-0-------------------------------------|-0--------------0--------------|-0-------------------------------------|
D#|---------------------------------------|-------------------------------|---------------------------------------|


D#|-------------------------------|---------------------------------------|-------------------------------|
A#|-------------------------------|---------------------------------------|-------------------------------|
F#|-------------------------------|---------------------------------------|-------------------------------|
C#|-5---7--8--7----5---7--8--5----|-5---7--8--7---5--7--8---7--8--7--5----|-7---9--10-9----7---9--10-7----|
G#|-0--------------0--------------|-0-------------------------------------|-0--------------0--------------|
D#|-------------------------------|---------------------------------------|-------------------------------|


D#|---------------------------------------|-------------------------------|---------------------------------------|
A#|---------------------------------------|-------------------------------|---------------------------------------|
F#|---------------------------------------|-------------------------------|---------------------------------------|
C#|-7---9--10-9---7--9--10--9--10-9--5----|-5---7--8--7----5---7--8--5----|-5---7--8--7---5--7--8---7--8--7--5----|
G#|-0-------------------------------------|-0--------------0--------------|-0-------------------------------------|
D#|---------------------------------------|-------------------------------|---------------------------------------|


D#|-------------------------------|---------------------------------------|-------------------------------|
A#|-------------------------------|---------------------------------------|-------------------------------|
F#|-------------------------------|---------------------------------------|-5---7--9--7----5---7--9--5----|
C#|-7---9--10-9----7---9--10-7----|-7---9--10-9---7--9--10--9--10-9--5----|-0--------------0--------------|
G#|-0--------------0--------------|-0-------------------------------------|-------------------------------|
D#|-------------------------------|---------------------------------------|-------------------------------|


D#|---------------------------------------|-------------------------------|---------------------------------------|
A#|---------------------------------------|-------------------------------|---------------------------------------|
F#|-5---7--9--7---5--7--8---7--8--7--5----|-7---9--10-9----7---9--10-7----|-7---9--10-9---7--9--10--9--10-9--5----|
C#|-0-------------------------------------|-0--------------0--------------|-0-------------------------------------|
G#|---------------------------------------|-------------------------------|---------------------------------------|
D#|---------------------------------------|-------------------------------|---------------------------------------|


D#|-------------------------------|---------------------------------------|-------------------------------|
A#|-------------------------------|---------------------------------------|-------------------------------|
F#|-5---7--9--7----5---7--9--5----|-5---7--9--7---5--7--8---7--8--7--5----|-7---9--10-9----7---9--10-7----|
C#|-0--------------0--------------|-0-------------------------------------|-0--------------0--------------|
G#|-------------------------------|---------------------------------------|-------------------------------|
D#|-------------------------------|---------------------------------------|-------------------------------|


D#|---------------------------------------|-------------------------------|---------------------------------------|
A#|---------------------------------------|-------------------------------|---------------------------------------|
F#|-7---9--10-9---7--9--10--9--10-9--5----|-5---7--9--7----5---7--9--5----|-5---7--9--7---5--7--8---7--8--7--5----|
C#|-0-------------------------------------|-0--------------0--------------|-0-------------------------------------|
G#|---------------------------------------|-------------------------------|---------------------------------------|
D#|---------------------------------------|-------------------------------|---------------------------------------|


D#|-------------------------------|---------------------------------------|-------------------------------|
A#|-------------------------------|---------------------------------------|-------------------------------|
F#|-7---9--10-9----7---9--10-7----|-7---9--10-9---7--9--10--9--10-9--5----|-5---7--9--7----5---7--9--5----|
C#|-0--------------0--------------|-0-------------------------------------|-0--------------0--------------|
G#|-------------------------------|---------------------------------------|-------------------------------|
D#|-------------------------------|---------------------------------------|-------------------------------|


D#|---------------------------------------|-------------------------------|---------------------------------------|
A#|---------------------------------------|-------------------------------|---------------------------------------|
F#|-5---7--9--7---5--7--8---7--8--7--5----|-7---9--10-9----7---9--10-7----|-7---9--10-9---7--9--10--9--10-9--5----|
C#|-0-------------------------------------|-0--------------0--------------|-0-------------------------------------|
G#|---------------------------------------|-------------------------------|---------------------------------------|
D#|---------------------------------------|-------------------------------|---------------------------------------|


D#|--------|--------|-------------------------------|---------------------------------------|
A#|--------|--------|-------------------------------|---------------------------------------|
F#|-2------|-2------|-------------------------------|---------------------------------------|
C#|-2------|-2------|-5---7--8--7----5---7--8--5----|-5---7--8--7---5--7--8---7--8--7--5----|
G#|-0------|-0------|-0--------------0--------------|-0-------------------------------------|
D#|--------|--------|-------------------------------|---------------------------------------|


D#|-------------------------------|---------------------------------------|-------------------------------|
A#|-------------------------------|---------------------------------------|-------------------------------|
F#|-------------------------------|---------------------------------------|-------------------------------|
C#|-7---9--10-9----7---9--10-7----|-7---9--10-9---7--9--10--9--10-9--5----|-5---7--8--7----5---7--8--5----|
G#|-0--------------0--------------|-0-------------------------------------|-0--------------0--------------|
D#|-------------------------------|---------------------------------------|-------------------------------|


D#|---------------------------------------|-------------------------------|---------------------------------------|
A#|---------------------------------------|-------------------------------|---------------------------------------|
F#|---------------------------------------|-------------------------------|---------------------------------------|
C#|-5---7--8--7---5--7--8---7--8--7--5----|-7---9--10-9----7---9--10-7----|-7---9--10-9---7--9--10--9--10-9--5----|
G#|-0-------------------------------------|-0--------------0--------------|-0-------------------------------------|
D#|---------------------------------------|-------------------------------|---------------------------------------|


D#|-------------------------------|---------------------------------------|-------------------------------|
A#|-------------------------------|---------------------------------------|-------------------------------|
F#|-5---7--9--7----5---7--9--5----|-5---7--9--7---5--7--8---7--8--7--5----|-7---9--10-9----7---9--10-7----|
C#|-0--------------0--------------|-0-------------------------------------|-0--------------0--------------|
G#|-------------------------------|---------------------------------------|-------------------------------|
D#|-------------------------------|---------------------------------------|-------------------------------|


D#|---------------------------------------|-------------------------------|---------------------------------------|
A#|---------------------------------------|-------------------------------|---------------------------------------|
F#|-7---9--10-9---7--9--10--9--10-9--5----|-5---7--9--7----5---7--9--5----|-5---7--9--7---5--7--8---7--8--7--5----|
C#|-0-------------------------------------|-0--------------0--------------|-0-------------------------------------|
G#|---------------------------------------|-------------------------------|---------------------------------------|
D#|---------------------------------------|-------------------------------|---------------------------------------|


D#|-------------------------------|---------------------------------------|--------|
A#|-------------------------------|---------------------------------------|--------|
F#|-7---9--10-9----7---9--10-7----|-7---9--10-9---7--9--10--9--10-9--5----|-2------|
C#|-0--------------0--------------|-0-------------------------------------|-2------|
G#|-------------------------------|---------------------------------------|-0------|
D#|-------------------------------|---------------------------------------|--------|


D#|--------|
A#|--------|
F#|-2------|
C#|-2------|
G#|-0------|
D#|--------|





Track 3: Bass

F#|-------------------------------|-------------------------------|-------------------------------|
C#|-------------------------------|-------------------------------|-------------------------------|
G#|-------------------------------|-------------------------------|-------------------------------|
D#|-0----0---8--8--8--7--7---7----|-0----0---8--8--8--7--7---7----|-0----0---8--8--8--7--7---7----|


F#|------------------------------------|------------------------------------|-------------------------------|
C#|------------------------------------|------------------------------------|-------------------------------|
G#|------------------------------------|------------------------------------|-------------------------------|
D#|-0----0---8--8--8--7--7---7--5--5---|-5--3--3---3--2--2---0----0---8--8--|-8--7--7---7----0----0---8--8--|


F#|-------------------------------|-------------------------------|-----------------------------------------|
C#|-------------------------------|-------------------------------|-----------------------------------------|
G#|-------------------------------|-------------------------------|-----------------------------------------|
D#|-8--7--7---7----0----0---8--8--|-8--7--7---7----0----0---8--8--|-8--7--7---7--5--5---5--3--3---3--2--2---|


F#|--------|--------|--------|-------------------------------|-------------------------------|
C#|--------|--------|--------|-------------------------------|-------------------------------|
G#|--------|--------|--------|-------------------------------|-------------------------------|
D#|-0------|-0------|-0------|-0----0---8--8--8--7--7---7----|-0----0---8--8--8--7--7---7----|


F#|-------------------------------|------------------------------------|------------------------------------|
C#|-------------------------------|------------------------------------|------------------------------------|
G#|-------------------------------|------------------------------------|------------------------------------|
D#|-0----0---8--8--8--7--7---7----|-0----0---8--8--8--7--7---7--5--5---|-5--3--3---3--2--2---0----0---8--8--|


F#|-------------------------------|-------------------------------|-------------------------------|
C#|-------------------------------|-------------------------------|-------------------------------|
G#|-------------------------------|-------------------------------|-------------------------------|
D#|-8--7--7---7----0----0---8--8--|-8--7--7---7----0----0---8--8--|-8--7--7---7----0----0---8--8--|


F#|-----------------------------------------|-------------------------------|-------------------------------|
C#|-----------------------------------------|-------------------------------|-------------------------------|
G#|-----------------------------------------|-------------------------------|-------------------------------|
D#|-8--7--7---7--5--5---5--3--3---3--2--2---|-0----0---8--8--8--7--7---7----|-0----0---8--8--8--7--7---7----|


F#|-------------------------------|------------------------------------|------------------------------------|
C#|-------------------------------|------------------------------------|------------------------------------|
G#|-------------------------------|------------------------------------|------------------------------------|
D#|-0----0---8--8--8--7--7---7----|-0----0---8--8--8--7--7---7--5--5---|-5--3--3---3--2--2---0----0---8--8--|


F#|-------------------------------|-------------------------------|-------------------------------|
C#|-------------------------------|-------------------------------|-------------------------------|
G#|-------------------------------|-------------------------------|-------------------------------|
D#|-8--7--7---7----0----0---8--8--|-8--7--7---7----0----0---8--8--|-8--7--7---7----0----0---8--8--|


F#|-----------------------------------------|--------|--------|--------|--------|--------|
C#|-----------------------------------------|--------|--------|--------|--------|--------|
G#|-----------------------------------------|--------|--------|--------|--------|--------|
D#|-8--7--7---7--5--5---5--3--3---3--2--2---|-0------|-0------|-0------|--------|--------|


F#|---------------------|-----------------|---------------------|-----------------|
C#|---------------------|-----------------|---------------------|-----------------|
G#|---------------------|-----------------|---------------------|-----------------|
D#|-5---------5---------|-5-----5---------|-5---------5---------|-5-----5---------|


F#|---------------------|-----------------|-------------------------------|---------------------------------------|
C#|---------------------|-----------------|-----7--8--7----5---7--8--5----|-5---7--8--7---5--7--8---7--8--7--5----|
G#|---------------------|-----------------|-0-----------------------------|---------------------------------------|
D#|-5---------5---------|-5-----5---------|-------------------------------|---------------------------------------|


F#|-------------------------------|---------------------------------------|-------------------------------|
C#|-7---9--10-9----7---9--10-7----|-7---9--10-9---7--9--10--9--10-9--5----|-----7--8--7----5---7--8--5----|
G#|-0--------------0--------------|-0-------------------------------------|-0-----------------------------|
D#|-------------------------------|---------------------------------------|-------------------------------|


F#|---------------------------------------|-------------------------------|---------------------------------------|
C#|-5---7--8--7---5--7--8---7--8--7--5----|-7---9--10-9----7---9--10-7----|-7---9--10-9---7--9--10--9--10-9--5----|
G#|---------------------------------------|-0--------------0--------------|-0-------------------------------------|
D#|---------------------------------------|-------------------------------|---------------------------------------|


F#|-------------------------------|---------------------------------------|-------------------------------|
C#|-----7--8--7----5---7--8--5----|-5---7--8--7---5--7--8---7--8--7--5----|-7---9--10-9----7---9--10-7----|
G#|-0-----------------------------|---------------------------------------|-0--------------0--------------|
D#|-------------------------------|---------------------------------------|-------------------------------|


F#|---------------------------------------|-------------------------------|---------------------------------------|
C#|-7---9--10-9---7--9--10--9--10-9--5----|-----7--8--7----5---7--8--5----|-5---7--8--7---5--7--8---7--8--7--5----|
G#|-0-------------------------------------|-0-----------------------------|---------------------------------------|
D#|---------------------------------------|-------------------------------|---------------------------------------|


F#|-------------------------------|---------------------------------------|-----7--8--7----5---7--8--5----|
C#|-7---9--10-9----7---9--10-7----|-7---9--10-9---7--9--10--9--10-9--5----|-0-----------------------------|
G#|-0--------------0--------------|-0-------------------------------------|-------------------------------|
D#|-------------------------------|---------------------------------------|-------------------------------|


F#|-5---7--8--7---5--7--8---7--8--7--5----|-----9--10-9----7---9--10-7----|-7---9--10-9---7--9--10--9--10-9--5----|
C#|---------------------------------------|-0-----------------------------|---------------------------------------|
G#|---------------------------------------|-------------------------------|---------------------------------------|
D#|---------------------------------------|-------------------------------|---------------------------------------|


F#|-----7--8--7----5---7--8--5----|-5---7--8--7---5--7--8---7--8--7--5----|-----9--10-9----7---9--10-7----|
C#|-0-----------------------------|---------------------------------------|-0-----------------------------|
G#|-------------------------------|---------------------------------------|-------------------------------|
D#|-------------------------------|---------------------------------------|-------------------------------|


F#|-7---9--10-9---7--9--10--9--10-9--5----|-----7--8--7----5---7--8--5----|-5---7--8--7---5--7--8---7--8--7--5----|
C#|---------------------------------------|-0-----------------------------|---------------------------------------|
G#|---------------------------------------|-------------------------------|---------------------------------------|
D#|---------------------------------------|-------------------------------|---------------------------------------|


F#|-----9--10-9----7---9--10-7----|-7---9--10-9---7--9--10--9--10-9--5----|-----7--8--7----5---7--8--5----|
C#|-0-----------------------------|---------------------------------------|-0-----------------------------|
G#|-------------------------------|---------------------------------------|-------------------------------|
D#|-------------------------------|---------------------------------------|-------------------------------|


F#|-5---7--8--7---5--7--8---7--8--7--5----|-----9--10-9----7---9--10-7----|-7---9--10-9---7--9--10--9--10-9--5----|
C#|---------------------------------------|-0-----------------------------|---------------------------------------|
G#|---------------------------------------|-------------------------------|---------------------------------------|
D#|---------------------------------------|-------------------------------|---------------------------------------|


F#|--------|--------|-------------------------------|---------------------------------------|
C#|--------|--------|-----7--8--7----5---7--8--5----|-5---7--8--7---5--7--8---7--8--7--5----|
G#|--------|--------|-0-----------------------------|---------------------------------------|
D#|-5------|-5------|-------------------------------|---------------------------------------|


F#|-------------------------------|---------------------------------------|-------------------------------|
C#|-7---9--10-9----7---9--10-7----|-7---9--10-9---7--9--10--9--10-9--5----|-----7--8--7----5---7--8--5----|
G#|-0--------------0--------------|-0-------------------------------------|-0-----------------------------|
D#|-------------------------------|---------------------------------------|-------------------------------|


F#|---------------------------------------|-------------------------------|---------------------------------------|
C#|-5---7--8--7---5--7--8---7--8--7--5----|-7---9--10-9----7---9--10-7----|-7---9--10-9---7--9--10--9--10-9--5----|
G#|---------------------------------------|-0--------------0--------------|-0-------------------------------------|
D#|---------------------------------------|-------------------------------|---------------------------------------|


F#|-----7--8--7----5---7--8--5----|-5---7--8--7---5--7--8---7--8--7--5----|-----9--10-9----7---9--10-7----|
C#|-0-----------------------------|---------------------------------------|-0-----------------------------|
G#|-------------------------------|---------------------------------------|-------------------------------|
D#|-------------------------------|---------------------------------------|-------------------------------|


F#|-7---9--10-9---7--9--10--9--10-9--5----|-----7--8--7----5---7--8--5----|-5---7--8--7---5--7--8---7--8--7--5----|
C#|---------------------------------------|-0-----------------------------|---------------------------------------|
G#|---------------------------------------|-------------------------------|---------------------------------------|
D#|---------------------------------------|-------------------------------|---------------------------------------|


F#|-----9--10-9----7---9--10-7----|-7---9--10-9---7--9--10--9--10-9--5----|--------|
C#|-0-----------------------------|---------------------------------------|--------|
G#|-------------------------------|---------------------------------------|--------|
D#|-------------------------------|---------------------------------------|-5------|


F#|--------|
C#|--------|
G#|--------|
D#|-5------|