Menu:

 

Search:

 

marduk - burn my coffin:

 



/---------------------------------------------------------------------------
/ The following is the author's own interpretation of the song, to be used -
/ for studying or private use only, removal of any part of this ten line   -
/ header is illegal!!!  Removal of the transcribers name or anything       -
/ relevant to the transcriber is also illegal, as so is the removal of the -
/ place inwhich the tab was downloaded. Publishing as well as printing of  -
/ the tab is illegal without permission of the transcriber and copyright   -
/ owner of the song. Failure to apply to these laws result will in legal   -
/ action from the appropriate parties.                                     -
/---------------------------------------------------------------------------

downloaded from Displacer's Tablature Site at
        http://www.dsrmusic.com/metaltab
join the death/black tab emailing list by filling out the free
subscription form at http://www.dsrmusic.com/metaltab/join.htm


#----------------------------------PLEASE NOTE---------------------------------#
#This file is the author's own work and represents their interpretation of the #
#song. You may only use this file for private study, scholarship, or research. #
#------------------------------------------------------------------------------#

  Visit MetalTabs.com for more metal tablature
  
Band: MarduK
Song: Burn My Coffin
Album: Those Of The Unlight
Tabbed by: Valentine 'Mortal'(lord_velzevul@bk.ru)(Any Corrections Are Welcome)
If you have corrected riffs, please, Send it to me.
Tuning: E(normal)
===================================
- MARDUK -
- BURN MY COFFIN -
- VERSION 0.3alpha 12 September 2003 -
===================================
LEGEND:
# - Listen CD (also this part probably wrong)
~ - Let Ring
==============================================================
riff 1
riff 2
riff 1
riff 2
riff 3 x4
riff 3 (VERSE)(Probably other riff)     O
Bridge x4                               R
riff 3 (VERSE)(Probably other riff)     D
Riff 4 x6                               E
Riff 5 x10                              R
Riff 6 x2
Riff 7 x4
Riff 8 x2
Riff 9
Riff 10
Riff 11 xN (fade out & fade in)
==============================================================
 RIFF 1(Watch for Timing)  RIFF 2(Watch for Timing)
|------------------|     |------------------|
|------------------|     |------------------|
|------------------|     |------------------|
|-8\77777/4444444\-|     |-8\77777/3333333\-|
|-6\55555/2222222\-|     |-6\55555/1111111\-|
|------------------|     |------------------|

 RIFF 3[ALL NOTES ARE TREMOLO PICKING!!!(watch the timing)](BURN MY COFFIN!!!)
|---------------------|
|---------------------|
|---------------------|
|---7---4-----7-------|
|-5---2---2-5-----6---|
|---------------4---4-|

Bridge(It's wrong)
|--------|
|--------|
|--------|
|--------|
|-999-10-|
|--------|

RIFF 4(TREMOLO PICKING!!!)(burn my coffin - release the soul...) (Watch for Timing)
|-------------------------|
|-------------------------|
|-------------------------|
|---9---10---9------------|
|-7---7----7---7\-12-10-9-|
|-------------------------|

RIFF 5(3 Greatest Chords!)
|--------------------|
|--------------------|
|---5~--7~--9~-9-----|
|---5~--7~--9~---9---|
|---3~--5~--7~-----7-|
|--------------------|
               #####
OR

|----------.....-----|
|----------.....-----|
|-5~-7~-9~-.....-----|
|-3~-5~-7~-.....-----|
|-3~-5~-7~-.....-----|
|----------.....-----|

Riff 6
|---------------|
|---------------|
|---------------|
|-7-8~-----4-5~-|
|-7-8~-----4-5~-|
|-5-6~-----2-3~-|

Riff 7(Verse 2)
|-----------------|
|-----------------|
|-----------------|
|-777\888-333\444-|
|-555\666-111\222-|
|-----------------|

Riff 8(Is Absent)
Solo-Riff 9(Is absent)

RIFF 10
[simple hit this chord(watch the timing)]
|---|
|---|
|---|
|-4-|
|-4-|
|-2-|

RIFF 11(Great Riff!)
|------------------|
|-----10-------9---|
|---7----7---7---7-|
|-0--------0-------|
|------------------|
|------------------|

  Visit MetalTabs.com for more metal tablature