Menu:

 

Search:

 

marduk - bonds of unholy blasphemy:

 



/---------------------------------------------------------------------------
/ The following is the author's own interpretation of the song, to be used -
/ for studying or private use only, removal of any part of this ten line   -
/ header is illegal!!!  Removal of the transcribers name or anything       -
/ relevant to the transcriber is also illegal, as so is the removal of the -
/ place inwhich the tab was downloaded. Publishing as well as printing of  -
/ the tab is illegal without permission of the transcriber and copyright   -
/ owner of the song. Failure to apply to these laws result will in legal   -
/ action from the appropriate parties.                                     -
/---------------------------------------------------------------------------

downloaded from Displacer's Tablature Site at
        http://www.dsrmusic.com/metaltab
join the death/black tab emailing list by filling out the free
subscription form at http://www.dsrmusic.com/metaltab/join.htm


#----------------------------------PLEASE NOTE---------------------------------#
#This file is the author's own work and represents their interpretation of the #
#song. You may only use this file for private study, scholarship, or research. #
#------------------------------------------------------------------------------#

  Visit MetalTabs.com for more metal tablature
  
Marduk
Bonds of unholy matrimony
From the album "La Grande Danse Macabre"

Tabbed by: Pablo (The Kinslayer) Toirán
send comments & corrections to: metalmadness22@hotmail.com   or
                                mardukmayhem@tutopia.com


Visit  www.metaltabs.com  for more metal tablature


legend

... : palm muting      t : tapping       pb : pre bend       x : mute strings
  h : hammer on        b : bend           / : slide up       ~ : vibrato
  p : pull off        rb : relase bend    \ : slide down     ah: artificial harmonic


standard tuning  (EADGBE) and lot of distortion!

intro (0:00)

listen the song for timing!


e|----------------------------------------------------------------------|
B|----------------------------------------------------------------------|
G|------------------------------------------------5---------------------|
D|---2-------2---5------2---4------2---5------2---3--------5------------|
A|---2-------2---2------2---0------2---2------2------------2------------|
E|---0-------0---0------0---0------0---0------0------------0------------|
    hold...


with drums (0:27)
                                    x2
e|---------------------------------|
B|---------------------------------|
G|------------------------5--------|
D|---2--5--2--4--2--5--2--3--5-----|
A|---2--2--2--0--2--2--2-----2-----|
E|---0--0--0--0--0--0--0-----0-----|
     .     .     .     .

riff 1 (0:49)
                                               x4
e|--------------------------------------------|----------x---------------|
B|--------------------------------------------|----------x---------------|
G|--------------------------------------------|-------2--x------2-3-4-5--|
D|--------------------------------------------|-------2--x------2-3-4-5--|
A|---3333-1111-3333-0000-1111-----------------|-------0--x------0-1-2-3--|
E|----------------------------2222-4444-0000--|--2222----x-2222----------|


riff 2 (1:08)
                                              x4
e|-------------------------------------------|
B|-------------------------------------------|
G|---------------------------------------ah--|
D|---------------------------------------7---| <---guitar 1  | not
A|---8888-6666-8888-5555-6666------4444--8---| <---guitar 2  | sure!
E|----------------------------7777-----------|



riff 3 (1:23)
                                       x2
e|------------------------------------|
B|------------------------------------|
G|------------------------------------|
D|--------5-5------4-4------5-5--7-4--|
A|--------7-7------5-5------7-7--9-5--|
E|---0000-----0000-----0000-----------|



riff 4, vocals starts (1:30)

e|--------------------------------------------------
B|--------------------------------------------------
G|--------------------------------------------------
D|---2222-33-22-3333-5555-66-5555-66-55-3333--------
A|-------------------------------------------5555---
E|--------------------------------------------------


                                                x4
-----------------------------------------------|
-----------------------------------------------|
-----------------------------------------------|
--2222-33-22-3333-5555-66-5555-66-55-33333333--|
-----------------------------------------------|
-----------------------------------------------|



guitar 2, over the above riff, in the 3rd time (1:46)

e|--------------------------------------------------
B|--------------------------------------------------
G|--------------------------------------------------
D|---5555-66-55-6666-8888-99-8888-99-88-6666--------
A|-------------------------------------------8888---
E|--------------------------------------------------


                                                x2
-----------------------------------------------|
-----------------------------------------------|
-----------------------------------------------|
--5555-66-55-6666-8888-99-8888-99-88-66666666--|
-----------------------------------------------|
-----------------------------------------------|



repeat: riff 3 x2 - riff 4 (both guitars) - riff 3 x2


riff 5 (2:47)
                                     x4
e|----------------------------------|-----
B|----------------------------------|-----
G|----------------------------------|-----
D|---2----3-0----3-2---3-0---3-2----|-----
A|---2----3-0----3-2---3-0---3-2----|--4--
E|---0------------------------------|--4--


guitar 2, over the above riff, in the 3rd & 4th times (3:03)

e|------------------------------------------------------------------|--
B|------------------------------------------------------------------|--
G|------------------------------------------------------------------|--
D|--99999..etc-10-10--7777...etc-10-99999..etc-10-7777-10-99999999--|--6666
A|------------------------------------------------------------------|--
E|------------------------------------------------------------------|--


riff 6 (3:19)
                                                 x4
e|-----------------------------------------------|
B|-----------------------------------------------|
G|-----------------------------------------------|
D|---------------------------------888-----------|
A|-------------------------------------888-------|
E|---555555-5h6-333-888-666-555555---------666---|



riff 7 (3:34)
                                                    x2
e|-------------------------------------------------|
B|-------------------------------------------------|
G|-------------------------------------------------|
D|-------------------------------------------------|
A|-------------------------------------------------|
E|---333333333-444-666-777-333333333-444-333-111---|


repeat riff 6 x4 (3:42)


riff 8 (with solo improvised, of course :)) (3:58)
                               x4
e|-----------------------------|
B|-----------------------------|
G|-----------------------------|
D|---2-----2-----0-----3-------|
A|---2-----2-----0-----3-------|
E|-----0-0---0-0---------------|


repeat riff 6 x4 (4:09)
repeat riff 7 x2 (4:25)
repeat riff 6 x4 (4:33)
repeat riff 3 x2 (4:49)
repeat riff 4 x4 (4:57)


riff 9 (5:27)

e|-----------------------------------|
B|-----------------------------------|
G|---4~-----5~------4~-----5~---7~---| <-------- guitar 2
D|---2------3-------2------3----5----|
A|---2------3-------2------3----5----|
E|---0------1-------0------1----3----|



repeat riff 4 x4 (5:34)
repeat riff 3 x2 (6:05)


riff 10 (6:12)
                                                      x8
e|----------------------------------------------------|
B|----------------------------------------------------|
G|----------------------------------------------------|
D|----------5---5---------4---4---------2---2--2--4---|
A|---777777-7---7--555555-5---5--444444-4---4--3--2---|
E|----------------------------------------------------|



repeat riff 3 x2 (6:43) Finishes with an E5

  Visit MetalTabs.com for more metal tablature