Menu:

 

Search:

 

marduk - bloodletting:

 



/---------------------------------------------------------------------------
/ The following is the author's own interpretation of the song, to be used -
/ for studying or private use only, removal of any part of this ten line   -
/ header is illegal!!!  Removal of the transcribers name or anything       -
/ relevant to the transcriber is also illegal, as so is the removal of the -
/ place inwhich the tab was downloaded. Publishing as well as printing of  -
/ the tab is illegal without permission of the transcriber and copyright   -
/ owner of the song. Failure to apply to these laws result will in legal   -
/ action from the appropriate parties.                                     -
/---------------------------------------------------------------------------

downloaded from Displacer's Tablature Site at
        http://www.dsrmusic.com/metaltab
join the death/black tab emailing list by filling out the free
subscription form at http://www.dsrmusic.com/metaltab/join.htm


#----------------------------------PLEASE NOTE---------------------------------#
#This file is the author's own work and represents their interpretation of the #
#song. You may only use this file for private study, scholarship, or research. #
#------------------------------------------------------------------------------#

  Visit MetalTabs.com for more metal tablature
  
Band: Marduk
Album: World funeral
Song: Bloodletting

Copyright (c) Blooddawn productions
Version 1.0 - 4.12.2004

Transcribed By: Aleksi Stenbacka
Email: Kuollutjakuopattu@hotmail.com

.  - palm mute           /  - slide up to
\  - slide down to       ~  - vibrato
h  - hammer on           b  - Bend
p  - pull off            Suffixes for bend
t  - tap                 f  - full bend    h - half bend
ph - pinched harmonic    q  - quarter bend t - tap bend
*  - see comment         ^  - Hold bend    r release bend
x  - Stuccatto           ~  - vibrato bend
,  - slight palm mute    () - ghost note, sustained note
"  - tremolo note        <> - Trill

Notation: This song is hard as a cock!

Tuning E

Riff 1. Verse
|-------------------------------------------------|
|-------------------------------------------------|
|-------------------------------------------------|
|-5-4-4-4-4-4-4-4-5-4-4-4-4-4-4-4-7-5-5-5-5-2-2-2-|
|-3-2-2-2-2-2-2-2-3-2-2-2-2-2-2-2-5-3-3-3-3-0-0-0-|
|-3-2-2-2-2-2-2-2-3-2-2-2-2-2-2-2-5-3-3-3-3-0-0-0-|
      . . . . . .     . . . . . .     . . . . . .

Solo. Played under riff 1.
|-----------------------------------------------------------------------------|
|-----------------------------------------------------------------------------|
|-5-4-----------4-5-4-2-4-5---4---2---0-----------------------2----h-p--------|
|-----------------------------------------4---2-4-5-4---2-4-5---5-4-5-4-2-4-5-|
|-----------3-5---------------------------------------------------------------|
|-----------------------------------------------------------------------------|

Riff 2. Chorus
|--------------------------------------|-------------------------------------|
|--------------------------------------|-------------------------------------|
|--------------------------------------|-------------------------------------|
|-9-------9---5---4-------4--10-10-7---|-9-------9---5---4-------4---5-5-7-7-|
|-9-------9---5---4-------4--10-10-7---|-9-------9---5---4-------4---5-5-7-7-|
|-7-------7---3---2-------2---8--8-5---|-7-------7---3---2-------2---3-3-5-5-|

Riff 3.
|---------------------------------|
|---------------------------------|
|-4-4-4-4-4-4-4-4/7-7-7\5-5-5-5/7-|
|-4-4-4-4-4-4-4-4/7-7-7\5-5-5-5/7-|
|-2-2-2-2-2-2-2-2/5-5-5\3-3-3-3/5-|
|---------------------------------|

Riff 4.
Play those palm muted notes with slow up-and-down strokes
(not as fast as tremolo).
|-------------------|
|-------------------|
|-------------------|
|-5-4-4-4-4-4-4-4-4-|
|-3-2-2-2-2-2-2-2-2-|
|-3-2-2-2-2-2-2-2-2-|
      . . . . . . .

Ending
|-----|
|-----|
|-----|
|-5-4-|
|-3-2-|
|-3-2-|

Structure:
Riff 1. x 8
(Two times with solo)
Riff 2. x 4
Riff 1. x 8
Riff 2. x 4
Riff 3. x 8
Riff 1. x 6
Riff 2. x 4
Riff 4. x 12
Ending

  Visit MetalTabs.com for more metal tablature